  0
SECTION
  2
HEADER
  9
$ACADVER
  1
AC1015
  9
$ACADMAINTVER
 70
     6
  9
$DWGCODEPAGE
  3
DOS932
  9
$INSBASE
 10
0.0
 20
0.0
 30
0.0
  9
$EXTMIN
 10
0.0
 20
0.0
 30
0.0
  9
$EXTMAX
 10
420.0
 20
297.0
 30
0.0
  9
$LIMMIN
 10
0.0
 20
0.0
  9
$LIMMAX
 10
0.0
 20
0.0
  9
$ORTHOMODE
 70
     0
  9
$REGENMODE
 70
     1
  9
$FILLMODE
 70
     1
  9
$QTEXTMODE
 70
     0
  9
$MIRRTEXT
 70
     1
  9
$LTSCALE
 40
1.0
  9
$ATTMODE
 70
     1
  9
$TEXTSIZE
 40
3.5
  9
$TRACEWID
 40
1.0
  9
$TEXTSTYLE
  7
Standard
  9
$CLAYER
  8
0
  9
$CELTYPE
  6
ByLayer
  9
$CECOLOR
 62
   256
  9
$CELTSCALE
 40
1.0
  9
$DISPSILH
 70
     0
  9
$DIMSCALE
 40
1.0
  9
$DIMASZ
 40
3.0
  9
$DIMEXO
 40
1.0
  9
$DIMDLI
 40
3.75
  9
$DIMRND
 40
0.0
  9
$DIMDLE
 40
0.0
  9
$DIMEXE
 40
1.0
  9
$DIMTP
 40
0.0
  9
$DIMTM
 40
0.0
  9
$DIMTXT
 40
3.2000000477
  9
$DIMCEN
 40
2.5
  9
$DIMTSZ
 40
0.0
  9
$DIMTOL
 70
     0
  9
$DIMLIM
 70
     0
  9
$DIMTIH
 70
     1
  9
$DIMTOH
 70
     1
  9
$DIMSE1
 70
     0
  9
$DIMSE2
 70
     0
  9
$DIMTAD
 70
     1
  9
$DIMZIN
 70
     1
  9
$DIMBLK
  1

  9
$DIMASO
 70
     1
  9
$DIMSHO
 70
     1
  9
$DIMPOST
  1

  9
$DIMAPOST
  1

  9
$DIMALT
 70
     0
  9
$DIMALTD
 70
     3
  9
$DIMALTF
 40
0.0393700787
  9
$DIMLFAC
 40
1.0
  9
$DIMTOFL
 70
     1
  9
$DIMTVP
 40
0.0
  9
$DIMTIX
 70
     0
  9
$DIMSOXD
 70
     0
  9
$DIMSAH
 70
     0
  9
$DIMBLK1
  1

  9
$DIMBLK2
  1

  9
$DIMSTYLE
  2
ISO-25
  9
$DIMCLRD
 70
     0
  9
$DIMCLRE
 70
     0
  9
$DIMCLRT
 70
     0
  9
$DIMTFAC
 40
1.0
  9
$DIMGAP
 40
1.524
  9
$DIMJUST
 70
     0
  9
$DIMSD1
 70
     0
  9
$DIMSD2
 70
     0
  9
$DIMTOLJ
 70
     0
  9
$DIMTZIN
 70
     1
  9
$DIMALTZ
 70
     0
  9
$DIMALTTZ
 70
     0
  9
$DIMUPT
 70
     0
  9
$DIMDEC
 70
     2
  9
$DIMTDEC
 70
     2
  9
$DIMALTU
 70
     2
  9
$DIMALTTD
 70
     3
  9
$DIMTXSTY
  7
Standard
  9
$DIMAUNIT
 70
     0
  9
$DIMADEC
 70
     0
  9
$DIMALTRND
 40
0.0
  9
$DIMAZIN
 70
     0
  9
$DIMDSEP
 70
    44
  9
$DIMATFIT
 70
     3
  9
$DIMFRAC
 70
     0
  9
$DIMLDRBLK
  1

  9
$DIMLUNIT
 70
     2
  9
$DIMLWD
 70
    -2
  9
$DIMLWE
 70
    -2
  9
$DIMTMOVE
 70
     0
  9
$LUNITS
 70
     2
  9
$LUPREC
 70
     4
  9
$SKETCHINC
 40
1.0
  9
$FILLETRAD
 40
10.0
  9
$AUNITS
 70
     0
  9
$AUPREC
 70
     0
  9
$MENU
  1
.
  9
$ELEVATION
 40
0.0
  9
$PELEVATION
 40
0.0
  9
$THICKNESS
 40
0.0
  9
$LIMCHECK
 70
     0
  9
$CHAMFERA
 40
10.0
  9
$CHAMFERB
 40
10.0
  9
$CHAMFERC
 40
20.0
  9
$CHAMFERD
 40
0.0
  9
$SKPOLY
 70
     0
  9
$TDCREATE
 40
2454307.54461353
  9
$TDUCREATE
 40
2454307.16961353
  9
$TDUPDATE
 40
2454307.544613542
  9
$TDUUPDATE
 40
2454307.169613542
  9
$TDINDWG
 40
0.0000000116
  9
$TDUSRTIMER
 40
0.0000000116
  9
$USRTIMER
 70
     1
  9
$ANGBASE
 50
0.0
  9
$ANGDIR
 70
     0
  9
$PDMODE
 70
     0
  9
$PDSIZE
 40
-1.0
  9
$PLINEWID
 40
0.0
  9
$SPLFRAME
 70
     0
  9
$SPLINETYPE
 70
     6
  9
$SPLINESEGS
 70
     8
  9
$HANDSEED
  5
321
  9
$SURFTAB1
 70
     6
  9
$SURFTAB2
 70
     6
  9
$SURFTYPE
 70
     6
  9
$SURFU
 70
     6
  9
$SURFV
 70
     6
  9
$UCSBASE
  2

  9
$UCSNAME
  2

  9
$UCSORG
 10
0.0
 20
0.0
 30
0.0
  9
$UCSXDIR
 10
1.0
 20
0.0
 30
0.0
  9
$UCSYDIR
 10
0.0
 20
1.0
 30
0.0
  9
$UCSORTHOREF
  2

  9
$UCSORTHOVIEW
 70
     0
  9
$UCSORGTOP
 10
0.0
 20
0.0
 30
0.0
  9
$UCSORGBOTTOM
 10
0.0
 20
0.0
 30
0.0
  9
$UCSORGLEFT
 10
0.0
 20
0.0
 30
0.0
  9
$UCSORGRIGHT
 10
0.0
 20
0.0
 30
0.0
  9
$UCSORGFRONT
 10
0.0
 20
0.0
 30
0.0
  9
$UCSORGBACK
 10
0.0
 20
0.0
 30
0.0
  9
$PUCSBASE
  2

  9
$PUCSNAME
  2

  9
$PUCSORG
 10
0.0
 20
0.0
 30
0.0
  9
$PUCSXDIR
 10
1.0
 20
0.0
 30
0.0
  9
$PUCSYDIR
 10
0.0
 20
1.0
 30
0.0
  9
$PUCSORTHOREF
  2

  9
$PUCSORTHOVIEW
 70
     0
  9
$PUCSORGTOP
 10
0.0
 20
0.0
 30
0.0
  9
$PUCSORGBOTTOM
 10
0.0
 20
0.0
 30
0.0
  9
$PUCSORGLEFT
 10
0.0
 20
0.0
 30
0.0
  9
$PUCSORGRIGHT
 10
0.0
 20
0.0
 30
0.0
  9
$PUCSORGFRONT
 10
0.0
 20
0.0
 30
0.0
  9
$PUCSORGBACK
 10
0.0
 20
0.0
 30
0.0
  9
$USERI1
 70
     0
  9
$USERI2
 70
     0
  9
$USERI3
 70
     0
  9
$USERI4
 70
     0
  9
$USERI5
 70
     0
  9
$USERR1
 40
0.0
  9
$USERR2
 40
0.0
  9
$USERR3
 40
0.0
  9
$USERR4
 40
0.0
  9
$USERR5
 40
0.0
  9
$WORLDVIEW
 70
     1
  9
$SHADEDGE
 70
     3
  9
$SHADEDIF
 70
    70
  9
$TILEMODE
 70
     1
  9
$MAXACTVP
 70
    64
  9
$PINSBASE
 10
0.0
 20
0.0
 30
0.0
  9
$PLIMCHECK
 70
     0
  9
$PEXTMIN
 10
1.0000000000E+20
 20
1.0000000000E+20
 30
1.0000000000E+20
  9
$PEXTMAX
 10
-1.0000000000E+20
 20
-1.0000000000E+20
 30
-1.0000000000E+20
  9
$PLIMMIN
 10
0.0
 20
0.0
  9
$PLIMMAX
 10
420.0
 20
297.0
  9
$UNITMODE
 70
     0
  9
$VISRETAIN
 70
     1
  9
$PLINEGEN
 70
     0
  9
$PSLTSCALE
 70
     1
  9
$TREEDEPTH
 70
  3020
  9
$CMLSTYLE
  2
Standard
  9
$CMLJUST
 70
     0
  9
$CMLSCALE
 40
20.0
  9
$PROXYGRAPHICS
 70
     1
  9
$MEASUREMENT
 70
     1
  9
$CELWEIGHT
370
    -1
  9
$ENDCAPS
280
     0
  9
$JOINSTYLE
280
     0
  9
$LWDISPLAY
290
     1
  9
$INSUNITS
 70
     4
  9
$HYPERLINKBASE
  1

  9
$STYLESHEET
  1

  9
$XEDIT
290
     1
  9
$CEPSNTYPE
380
     0
  9
$PSTYLEMODE
290
     1
  9
$FINGERPRINTGUID
  2
{B4AA8A84-5F87-4C44-A5A6-CCA90E948FBA}
  9
$VERSIONGUID
  2
{FAEB1C32-E019-11D5-929B-00C0DF256EC4}
  9
$EXTNAMES
290
     1
  9
$PSVPSCALE
 40
0.0
  9
$OLESTARTUP
290
     0
  0
ENDSEC
  0
SECTION
  2
CLASSES
  0
CLASS
  1
ACDBDICTIONARYWDFLT
  2
AcDbDictionaryWithDefault
  3
ObjectDBX Classes
 90
        0
280
     0
281
     0
  0
CLASS
  1
ACDBPLACEHOLDER
  2
AcDbPlaceHolder
  3
ObjectDBX Classes
 90
        0
280
     0
281
     0
  0
CLASS
  1
LAYOUT
  2
AcDbLayout
  3
ObjectDBX Classes
 90
        0
280
     0
281
     0
  0
ENDSEC
  0
SECTION
  2
TABLES
  0
TABLE
  2
VPORT
  5
8
330
0
100
AcDbSymbolTable
 70
     1
  0
VPORT
  5
29
330
8
100
AcDbSymbolTableRecord
100
AcDbViewportTableRecord
  2
*Active
 70
     0
 10
0.0
 20
0.0
 11
1.0
 21
1.0
 12
210.0
 22
148.5
 13
0.0
 23
0.0
 14
10.0
 24
10.0
 15
10.0
 25
10.0
 16
0.0
 26
0.0
 36
1.0
 17
0.0
 27
0.0
 37
0.0
 40
297.0
 41
1.9729729729
 42
50.0
 43
0.0
 44
0.0
 50
0.0
 51
0.0
 71
     0
 72
  2000
 73
     1
 74
     3
 75
     0
 76
     0
 77
     0
 78
     0
281
     0
 65
     1
110
0.0
120
0.0
130
0.0
111
1.0
121
0.0
131
0.0
112
0.0
122
1.0
132
0.0
 79
     0
146
0.0
  0
ENDTAB
  0
TABLE
  2
LTYPE
  5
5
330
0
100
AcDbSymbolTable
 70
     6
  0
LTYPE
  5
14
330
5
100
AcDbSymbolTableRecord
100
AcDbLinetypeTableRecord
  2
ByBlock
 70
     0
  3

 72
    65
 73
     0
 40
0.0
  0
LTYPE
  5
15
330
5
100
AcDbSymbolTableRecord
100
AcDbLinetypeTableRecord
  2
ByLayer
 70
     0
  3

 72
    65
 73
     0
 40
0.0
  0
LTYPE
  5
16
330
5
100
AcDbSymbolTableRecord
100
AcDbLinetypeTableRecord
  2
Continuous
 70
     0
  3
Solid line
 72
    65
 73
     0
 40
0.0
  0
LTYPE
  5
2A
330
5
100
AcDbSymbolTableRecord
100
AcDbLinetypeTableRecord
  2
HIDDEN
 70
     0
  3
Hidden __ __ __ __ __ __ __ __ __ __ __ __ __ __
 72
    65
 73
     2
 40
1.905
 49
1.27
 74
     0
 49
-0.635
 74
     0
  0
LTYPE
  5
2B
330
5
100
AcDbSymbolTableRecord
100
AcDbLinetypeTableRecord
  2
PHANTOM
 70
     0
  3
Phantom ______  __  __  ______  __  __  ______
 72
    65
 73
     6
 40
12.7
 49
6.35
 74
     0
 49
-1.27
 74
     0
 49
1.27
 74
     0
 49
-1.27
 74
     0
 49
1.27
 74
     0
 49
-1.27
 74
     0
  0
LTYPE
  5
2C
330
5
100
AcDbSymbolTableRecord
100
AcDbLinetypeTableRecord
  2
CENTER
 70
     0
  3
Center ____ _ ____ _ ____ _ ____ _ ____ _ ____
 72
    65
 73
     4
 40
10.16
 49
6.35
 74
     0
 49
-1.27
 74
     0
 49
1.27
 74
     0
 49
-1.27
 74
     0
  0
LTYPE
  5
2D
330
5
100
AcDbSymbolTableRecord
100
AcDbLinetypeTableRecord
  2
CENTERX2
 70
     0
  3
Center (2x) ________  __  ________  __  _____
 72
    65
 73
     4
 40
20.32
 49
12.7
 74
     0
 49
-2.54
 74
     0
 49
2.54
 74
     0
 49
-2.54
 74
     0
  0
LTYPE
  5
2E
330
5
100
AcDbSymbolTableRecord
100
AcDbLinetypeTableRecord
  2
DOT2
 70
     0
  3
Dot (.5x) ........................................
 72
    65
 73
     2
 40
0.635
 49
0.0
 74
     0
 49
-0.635
 74
     0
  0
ENDTAB
  0
TABLE
  2
LAYER
  5
2
330
0
100
AcDbSymbolTable
 70
     2
  0
LAYER
  5
10
330
2
100
AcDbSymbolTableRecord
100
AcDbLayerTableRecord
  2
0
 70
     0
 62
     7
  6
Continuous
370
    -3
390
F
  0
LAYER
  5
2F
330
2
100
AcDbSymbolTableRecord
100
AcDbLayerTableRecord
  2
SLD-0
 70
     0
 62
   179
  6
Continuous
370
     0
390
F
  0
ENDTAB
  0
TABLE
  2
STYLE
  5
3
330
0
100
AcDbSymbolTable
 70
    12
  0
STYLE
  5
11
330
3
100
AcDbSymbolTableRecord
100
AcDbTextStyleTableRecord
  2
Standard
 70
     0
 40
0.0
 41
1.0
 50
0.0
 71
     0
 42
2.5
  3
txt
  4
bigfont
  0
STYLE
  5
38
330
3
100
AcDbSymbolTableRecord
100
AcDbTextStyleTableRecord
  2
SLDTEXTSTYLE0
 70
     0
 40
0.0
 41
0.6272516078
 50
0.0
 71
     0
 42
0.2
  3
TXT
  4
bigfont
  0
STYLE
  5
42
330
3
100
AcDbSymbolTableRecord
100
AcDbTextStyleTableRecord
  2
SLDTEXTSTYLE1
 70
     0
 40
0.0
 41
0.6212091781
 50
0.0
 71
     0
 42
0.2
  3
TXT
  4
bigfont
  0
STYLE
  5
44
330
3
100
AcDbSymbolTableRecord
100
AcDbTextStyleTableRecord
  2
SLDTEXTSTYLE2
 70
     0
 40
0.0
 41
0.6213565545
 50
0.0
 71
     0
 42
0.2
  3
TXT
  4
bigfont
  0
STYLE
  5
57
330
3
100
AcDbSymbolTableRecord
100
AcDbTextStyleTableRecord
  2
SLDTEXTSTYLE3
 70
     0
 40
0.0
 41
0.6244081115
 50
0.0
 71
     0
 42
0.2
  3
TXT
  4
bigfont
  0
STYLE
  5
87
330
3
100
AcDbSymbolTableRecord
100
AcDbTextStyleTableRecord
  2
SLDTEXTSTYLE4
 70
     0
 40
0.0
 41
0.6302728227
 50
0.0
 71
     0
 42
0.2
  3
TXT
  4
bigfont
  0
STYLE
  5
30C
330
3
100
AcDbSymbolTableRecord
100
AcDbTextStyleTableRecord
  2
SLDTEXTSTYLE5
 70
     0
 40
0.0
 41
0.5066143101
 50
0.0
 71
     0
 42
0.2
  3
TXT
  4
bigfont
  0
STYLE
  5
30E
330
3
100
AcDbSymbolTableRecord
100
AcDbTextStyleTableRecord
  2
SLDTEXTSTYLE6
 70
     0
 40
0.0
 41
0.4804099909
 50
0.0
 71
     0
 42
0.2
  3
TXT
  4
bigfont
  0
STYLE
  5
311
330
3
100
AcDbSymbolTableRecord
100
AcDbTextStyleTableRecord
  2
SLDTEXTSTYLE7
 70
     0
 40
0.0
 41
0.621527212
 50
0.0
 71
     0
 42
0.2
  3
TXT
  4
bigfont
  0
STYLE
  5
313
330
3
100
AcDbSymbolTableRecord
100
AcDbTextStyleTableRecord
  2
SLDTEXTSTYLE8
 70
     0
 40
0.0
 41
0.6255252092
 50
0.0
 71
     0
 42
0.2
  3
TXT
  4
bigfont
  0
STYLE
  5
315
330
3
100
AcDbSymbolTableRecord
100
AcDbTextStyleTableRecord
  2
SLDTEXTSTYLE9
 70
     0
 40
0.0
 41
0.6222509875
 50
0.0
 71
     0
 42
0.2
  3
TXT
  4
bigfont
  0
STYLE
  5
317
330
3
100
AcDbSymbolTableRecord
100
AcDbTextStyleTableRecord
  2
SLDTEXTSTYLE10
 70
     0
 40
0.0
 41
0.6244081224
 50
0.0
 71
     0
 42
0.2
  3
TXT
  4
bigfont
  0
ENDTAB
  0
TABLE
  2
VIEW
  5
6
330
0
100
AcDbSymbolTable
 70
     0
  0
ENDTAB
  0
TABLE
  2
UCS
  5
7
330
0
100
AcDbSymbolTable
 70
     0
  0
ENDTAB
  0
TABLE
  2
APPID
  5
9
330
0
100
AcDbSymbolTable
 70
     1
  0
APPID
  5
12
330
9
100
AcDbSymbolTableRecord
100
AcDbRegAppTableRecord
  2
ACAD
 70
     0
  0
ENDTAB
  0
TABLE
  2
DIMSTYLE
  5
A
330
0
100
AcDbSymbolTable
 70
     1
100
AcDbDimStyleTable
  0
DIMSTYLE
105
27
330
A
100
AcDbSymbolTableRecord
100
AcDbDimStyleTableRecord
  2
ISO-25
 70
     0
 41
2.5
 42
0.625
 43
3.75
 44
1.25
 73
     0
 74
     0
 77
     1
 78
     8
140
2.5
141
2.5
143
0.0393700787
147
0.625
171
     3
172
     1
271
     2
272
     2
274
     3
278
    44
283
     0
284
     8
340
11
  0
ENDTAB
  0
TABLE
  2
BLOCK_RECORD
  5
1
330
0
100
AcDbSymbolTable
 70
    10
  0
BLOCK_RECORD
  5
1F
330
1
100
AcDbSymbolTableRecord
100
AcDbBlockTableRecord
  2
*Model_Space
340
22
  0
BLOCK_RECORD
  5
1B
330
1
100
AcDbSymbolTableRecord
100
AcDbBlockTableRecord
  2
*Paper_Space
340
1E
  0
BLOCK_RECORD
  5
23
330
1
100
AcDbSymbolTableRecord
100
AcDbBlockTableRecord
  2
*Paper_Space0
340
26
  0
BLOCK_RECORD
  5
30
330
1
100
AcDbSymbolTableRecord
100
AcDbBlockTableRecord
  2
KOZU0001
340
0
102
{BLKREFS
331
319
102
}
  0
BLOCK_RECORD
  5
3A
330
1
100
AcDbSymbolTableRecord
100
AcDbBlockTableRecord
  2
KOZU0002
340
0
102
{BLKREFS
331
31A
102
}
  0
BLOCK_RECORD
  5
46
330
1
100
AcDbSymbolTableRecord
100
AcDbBlockTableRecord
  2
KOZU0003
340
0
102
{BLKREFS
331
31B
102
}
  0
BLOCK_RECORD
  5
4F
330
1
100
AcDbSymbolTableRecord
100
AcDbBlockTableRecord
  2
KOZU0004
340
0
102
{BLKREFS
331
31C
102
}
  0
BLOCK_RECORD
  5
5A
330
1
100
AcDbSymbolTableRecord
100
AcDbBlockTableRecord
  2
KOZU0005
340
0
102
{BLKREFS
331
31D
102
}
  0
BLOCK_RECORD
  5
63
330
1
100
AcDbSymbolTableRecord
100
AcDbBlockTableRecord
  2
KOZU0006
340
0
102
{BLKREFS
331
31E
102
}
  0
BLOCK_RECORD
  5
6C
330
1
100
AcDbSymbolTableRecord
100
AcDbBlockTableRecord
  2
KOZU0007
340
0
102
{BLKREFS
331
31F
102
}
  0
BLOCK_RECORD
  5
75
330
1
100
AcDbSymbolTableRecord
100
AcDbBlockTableRecord
  2
SW_NOTE_0
340
0
102
{BLKREFS
331
7D
102
}
  0
BLOCK_RECORD
  5
7E
330
1
100
AcDbSymbolTableRecord
100
AcDbBlockTableRecord
  2
KOZU0008
340
0
102
{BLKREFS
331
320
102
}
  0
ENDTAB
  0
ENDSEC
  0
SECTION
  2
BLOCKS
  0
BLOCK
  5
20
330
1F
100
AcDbEntity
  8
0
100
AcDbBlockBegin
  2
*Model_Space
 70
     0
 71
     0
 10
0.0
 20
0.0
 30
0.0
  3
*Model_Space
  1

  0
ENDBLK
  5
21
330
1F
100
AcDbEntity
  8
0
100
AcDbBlockEnd
  0
BLOCK
  5
1C
330
1B
100
AcDbEntity
 67
     1
  8
0
100
AcDbBlockBegin
  2
*Paper_Space
 70
     0
 71
     0
 10
0.0
 20
0.0
 30
0.0
  3
*Paper_Space
  1

  0
ENDBLK
  5
1D
330
1B
100
AcDbEntity
 67
     1
  8
0
100
AcDbBlockEnd
  0
BLOCK
  5
24
330
23
100
AcDbEntity
  8
0
100
AcDbBlockBegin
  2
*Paper_Space0
 70
     0
 71
     0
 10
0.0
 20
0.0
 30
0.0
  3
*Paper_Space0
  1

  0
ENDBLK
  5
25
330
23
100
AcDbEntity
  8
0
100
AcDbBlockEnd
  0
BLOCK
  5
31
330
30
100
AcDbEntity
  8
0
100
AcDbBlockBegin
  2
KOZU0001
 70
     0
 71
     0
 10
0.0
 20
0.0
 30
0.0
  3
KOZU0001
  1

  0
LINE
  5
33
330
30
100
AcDbEntity
  8
SLD-0
  6
Continuous
 62
   179
100
AcDbLine
 10
0.0
 20
0.0
 30
0.0
 11
5.372266374
 21
10.8823306162
 31
0.0
  0
LINE
  5
34
330
30
100
AcDbEntity
  8
SLD-0
  6
Continuous
 62
   179
100
AcDbLine
 10
0.0
 20
0.0
 30
0.0
 11
0.8807217238
 21
3.0536137512
 31
0.0
  0
LINE
  5
35
330
30
100
AcDbEntity
  8
SLD-0
  6
Continuous
 62
   179
100
AcDbLine
 10
0.0
 20
0.0
 30
0.0
 11
1.8885973621
 21
2.5560570613
 31
0.0
  0
LINE
  5
36
330
30
100
AcDbEntity
  8
SLD-0
  6
Continuous
 62
   179
100
AcDbLine
 10
0.0
 20
0.0
 30
0.0
 11
5.372266374
 21
10.8823306162
 31
0.0
  0
LINE
  5
37
330
30
100
AcDbEntity
  8
SLD-0
  6
Continuous
 62
   179
100
AcDbLine
 10
5.372266374
 20
10.8823306162
 30
0.0
 11
23.2365651839
 21
10.8823306162
 31
0.0
  0
MTEXT
  5
39
330
30
100
AcDbEntity
  8
SLD-0
100
AcDbMText
 10
9.5225652569
 20
14.3370500439
 30
0.0
 40
3.2000000477
 41
0.0
 71
     1
 72
     1
  1
４－Ｍ５
  7
SLDTEXTSTYLE0
 73
     1
 44
1.0
  0
ENDBLK
  5
32
330
30
100
AcDbEntity
  8
0
100
AcDbBlockEnd
  0
BLOCK
  5
3B
330
3A
100
AcDbEntity
  8
0
100
AcDbBlockBegin
  2
KOZU0002
 70
     0
 71
     0
 10
0.0
 20
0.0
 30
0.0
  3
KOZU0002
  1

  0
LINE
  5
3D
330
3A
100
AcDbEntity
  8
SLD-0
  6
Continuous
 62
   179
100
AcDbLine
 10
0.0
 20
0.0
 30
0.0
 11
10.0729545136
 21
13.2521164835
 31
0.0
  0
LINE
  5
3E
330
3A
100
AcDbEntity
  8
SLD-0
  6
Continuous
 62
   179
100
AcDbLine
 10
0.0
 20
0.0
 30
0.0
 11
1.4454395018
 21
2.8303590485
 31
0.0
  0
LINE
  5
3F
330
3A
100
AcDbEntity
  8
SLD-0
  6
Continuous
 62
   179
100
AcDbLine
 10
0.0
 20
0.0
 30
0.0
 11
2.3402820084
 21
2.1501878564
 31
0.0
  0
LINE
  5
40
330
3A
100
AcDbEntity
  8
SLD-0
  6
Continuous
 62
   179
100
AcDbLine
 10
0.0
 20
0.0
 30
0.0
 11
10.0729545136
 21
13.2521164835
 31
0.0
  0
LINE
  5
41
330
3A
100
AcDbEntity
  8
SLD-0
  6
Continuous
 62
   179
100
AcDbLine
 10
10.0729545136
 20
13.2521164835
 30
0.0
 11
62.3511324092
 21
13.2521164835
 31
0.0
  0
MTEXT
  5
43
330
3A
100
AcDbEntity
  8
SLD-0
100
AcDbMText
 10
13.4371326133
 20
16.7068359111
 30
0.0
 40
3.2000000477
 41
0.0
 71
     1
 72
     1
  1
有接点オートスイッチ（ＳＭＣ）
  7
SLDTEXTSTYLE1
 73
     1
 44
1.0
  0
MTEXT
  5
45
330
3A
100
AcDbEntity
  8
SLD-0
100
AcDbMText
 10
13.4371326133
 20
11.0908358274
 30
0.0
 40
3.2000000477
 41
0.0
 71
     1
 72
     1
  1
Ｄ－９３　２ヶ（オプション）
  7
SLDTEXTSTYLE2
 73
     1
 44
1.0
  0
ENDBLK
  5
3C
330
3A
100
AcDbEntity
  8
0
100
AcDbBlockEnd
  0
BLOCK
  5
47
330
46
100
AcDbEntity
  8
0
100
AcDbBlockBegin
  2
KOZU0003
 70
     0
 71
     0
 10
0.0
 20
0.0
 30
0.0
  3
KOZU0003
  1

  0
LINE
  5
49
330
46
100
AcDbEntity
  8
SLD-0
  6
Continuous
 62
   179
100
AcDbLine
 10
0.0
 20
0.0
 30
0.0
 11
9.4695258903
 21
-17.9601072097
 31
0.0
  0
LINE
  5
4A
330
46
100
AcDbEntity
  8
SLD-0
  6
Continuous
 62
   179
100
AcDbLine
 10
0.0
 20
0.0
 30
0.0
 11
1.9560175981
 21
-2.5048398856
 31
0.0
  0
LINE
  5
4B
330
46
100
AcDbEntity
  8
SLD-0
  6
Continuous
 62
   179
100
AcDbLine
 10
0.0
 20
0.0
 30
0.0
 11
0.9617539772
 21
-3.0290686661
 31
0.0
  0
LINE
  5
4C
330
46
100
AcDbEntity
  8
SLD-0
  6
Continuous
 62
   179
100
AcDbLine
 10
0.0
 20
0.0
 30
0.0
 11
9.4695258903
 21
-17.9601072097
 31
0.0
  0
LINE
  5
4D
330
46
100
AcDbEntity
  8
SLD-0
  6
Continuous
 62
   179
100
AcDbLine
 10
9.4695258903
 20
-17.9601072097
 30
0.0
 11
26.0032198893
 21
-17.9601072097
 31
0.0
  0
MTEXT
  5
4E
330
46
100
AcDbEntity
  8
SLD-0
100
AcDbMText
 10
12.2892199622
 20
-14.5053877821
 30
0.0
 40
3.2000000477
 41
0.0
 71
     1
 72
     1
  1
４－Ｍ５
  7
SLDTEXTSTYLE0
 73
     1
 44
1.0
  0
ENDBLK
  5
48
330
46
100
AcDbEntity
  8
0
100
AcDbBlockEnd
  0
BLOCK
  5
50
330
4F
100
AcDbEntity
  8
0
100
AcDbBlockBegin
  2
KOZU0004
 70
     0
 71
     0
 10
0.0
 20
0.0
 30
0.0
  3
KOZU0004
  1

  0
LINE
  5
52
330
4F
100
AcDbEntity
  8
SLD-0
  6
Continuous
 62
   179
100
AcDbLine
 10
0.0
 20
0.0
 30
0.0
 11
-11.7010811797
 21
32.4169564984
 31
0.0
  0
LINE
  5
53
330
4F
100
AcDbEntity
  8
SLD-0
  6
Continuous
 62
   179
100
AcDbLine
 10
0.0
 20
0.0
 30
0.0
 11
-1.590620573
 21
2.7513912643
 31
0.0
  0
LINE
  5
54
330
4F
100
AcDbEntity
  8
SLD-0
  6
Continuous
 62
   179
100
AcDbLine
 10
0.0
 20
0.0
 30
0.0
 11
-0.5333854853
 21
3.1330061635
 31
0.0
  0
LINE
  5
55
330
4F
100
AcDbEntity
  8
SLD-0
  6
Continuous
 62
   179
100
AcDbLine
 10
0.0
 20
0.0
 30
0.0
 11
-11.7010811797
 21
32.4169564984
 31
0.0
  0
LINE
  5
56
330
4F
100
AcDbEntity
  8
SLD-0
  6
Continuous
 62
   179
100
AcDbLine
 10
-11.7010811797
 20
32.4169564984
 30
0.0
 11
-36.9562178003
 21
32.4169564984
 31
0.0
  0
MTEXT
  5
58
330
4F
100
AcDbEntity
  8
SLD-0
100
AcDbMText
 10
-35.1282178508
 20
35.871675926
 30
0.0
 40
3.2000000477
 41
0.0
 71
     1
 72
     1
  1
２ｘ２－Ｍ５
  7
SLDTEXTSTYLE3
 73
     1
 44
1.0
  0
MTEXT
  5
59
330
4F
100
AcDbEntity
  8
SLD-0
100
AcDbMText
 10
-35.1282178508
 20
30.2556758423
 30
0.0
 40
3.2000000477
 41
0.0
 71
     1
 72
     1
  1
取付ネジ
  7
SLDTEXTSTYLE0
 73
     1
 44
1.0
  0
ENDBLK
  5
51
330
4F
100
AcDbEntity
  8
0
100
AcDbBlockEnd
  0
BLOCK
  5
5B
330
5A
100
AcDbEntity
  8
0
100
AcDbBlockBegin
  2
KOZU0005
 70
     0
 71
     0
 10
0.0
 20
0.0
 30
0.0
  3
KOZU0005
  1

  0
LINE
  5
5D
330
5A
100
AcDbEntity
  8
SLD-0
  6
Continuous
 62
   179
100
AcDbLine
 10
0.0
 20
0.0
 30
0.0
 11
10.3098326846
 21
-18.2772879887
 31
0.0
  0
LINE
  5
5E
330
5A
100
AcDbEntity
  8
SLD-0
  6
Continuous
 62
   179
100
AcDbLine
 10
0.0
 20
0.0
 30
0.0
 11
2.0262986077
 21
-2.4483344643
 31
0.0
  0
LINE
  5
5F
330
5A
100
AcDbEntity
  8
SLD-0
  6
Continuous
 62
   179
100
AcDbLine
 10
0.0
 20
0.0
 30
0.0
 11
1.0473089152
 21
-3.0005619028
 31
0.0
  0
LINE
  5
60
330
5A
100
AcDbEntity
  8
SLD-0
  6
Continuous
 62
   179
100
AcDbLine
 10
0.0
 20
0.0
 30
0.0
 11
10.3098326846
 21
-18.2772879887
 31
0.0
  0
LINE
  5
61
330
5A
100
AcDbEntity
  8
SLD-0
  6
Continuous
 62
   179
100
AcDbLine
 10
10.3098326846
 20
-18.2772879887
 30
0.0
 11
30.1732349942
 21
-18.2772879887
 31
0.0
  0
MTEXT
  5
62
330
5A
100
AcDbEntity
  8
SLD-0
100
AcDbMText
 10
16.4592350671
 20
-14.8225685611
 30
0.0
 40
3.2000000477
 41
0.0
 71
     1
 72
     1
  1
４－Ｍ５
  7
SLDTEXTSTYLE0
 73
     1
 44
1.0
  0
ENDBLK
  5
5C
330
5A
100
AcDbEntity
  8
0
100
AcDbBlockEnd
  0
BLOCK
  5
64
330
63
100
AcDbEntity
  8
0
100
AcDbBlockBegin
  2
KOZU0006
 70
     0
 71
     0
 10
0.0
 20
0.0
 30
0.0
  3
KOZU0006
  1

  0
LINE
  5
66
330
63
100
AcDbEntity
  8
SLD-0
  6
Continuous
 62
   179
100
AcDbLine
 10
0.0
 20
0.0
 30
0.0
 11
10.7605690688
 21
-15.8244360604
 31
0.0
  0
LINE
  5
67
330
63
100
AcDbEntity
  8
SLD-0
  6
Continuous
 62
   179
100
AcDbLine
 10
0.0
 20
0.0
 30
0.0
 11
2.2236337518
 21
-2.2706123919
 31
0.0
  0
LINE
  5
68
330
63
100
AcDbEntity
  8
SLD-0
  6
Continuous
 62
   179
100
AcDbLine
 10
0.0
 20
0.0
 30
0.0
 11
1.2941670814
 21
-2.9026469406
 31
0.0
  0
LINE
  5
69
330
63
100
AcDbEntity
  8
SLD-0
  6
Continuous
 62
   179
100
AcDbLine
 10
0.0
 20
0.0
 30
0.0
 11
10.7605690688
 21
-15.8244360604
 31
0.0
  0
LINE
  5
6A
330
63
100
AcDbEntity
  8
SLD-0
  6
Continuous
 62
   179
100
AcDbLine
 10
10.7605690688
 20
-15.8244360604
 30
0.0
 11
28.5689033745
 21
-15.8244360604
 31
0.0
  0
MTEXT
  5
6B
330
63
100
AcDbEntity
  8
SLD-0
100
AcDbMText
 10
14.8549034474
 20
-12.3697166328
 30
0.0
 40
3.2000000477
 41
0.0
 71
     1
 72
     1
  1
２－Ｍ５
  7
SLDTEXTSTYLE0
 73
     1
 44
1.0
  0
ENDBLK
  5
65
330
63
100
AcDbEntity
  8
0
100
AcDbBlockEnd
  0
BLOCK
  5
6D
330
6C
100
AcDbEntity
  8
0
100
AcDbBlockBegin
  2
KOZU0007
 70
     0
 71
     0
 10
0.0
 20
0.0
 30
0.0
  3
KOZU0007
  1

  0
LINE
  5
6F
330
6C
100
AcDbEntity
  8
SLD-0
  6
Continuous
 62
   179
100
AcDbLine
 10
0.0
 20
0.0
 30
0.0
 11
16.0320914771
 21
39.2552332942
 31
0.0
  0
LINE
  5
70
330
6C
100
AcDbEntity
  8
SLD-0
  6
Continuous
 62
   179
100
AcDbLine
 10
0.0
 20
0.0
 30
0.0
 11
0.6623833929
 21
3.108291482
 31
0.0
  0
LINE
  5
71
330
6C
100
AcDbEntity
  8
SLD-0
  6
Continuous
 62
   179
100
AcDbLine
 10
0.0
 20
0.0
 30
0.0
 11
1.7029475613
 21
2.6833183375
 31
0.0
  0
LINE
  5
72
330
6C
100
AcDbEntity
  8
SLD-0
  6
Continuous
 62
   179
100
AcDbLine
 10
0.0
 20
0.0
 30
0.0
 11
16.0320914771
 21
39.2552332942
 31
0.0
  0
LINE
  5
73
330
6C
100
AcDbEntity
  8
SLD-0
  6
Continuous
 62
   179
100
AcDbLine
 10
16.0320914771
 20
39.2552332942
 30
0.0
 11
69.6534054119
 21
39.2552332942
 31
0.0
  0
MTEXT
  5
74
330
6C
100
AcDbEntity
  8
SLD-0
100
AcDbMText
 10
20.7394056159
 20
42.7099527218
 30
0.0
 40
3.2000000477
 41
0.0
 71
     1
 72
     1
  1
４－Ｍ６深１２（裏側ヨリ加工）
  7
SLDTEXTSTYLE1
 73
     1
 44
1.0
  0
INSERT
  5
7D
330
6C
100
AcDbEntity
  8
SLD-0
 62
     7
100
AcDbBlockReference
  2
SW_NOTE_0
 10
20.7394056159
 20
32.803677591
 30
0.0
  0
ENDBLK
  5
6E
330
6C
100
AcDbEntity
  8
0
100
AcDbBlockEnd
  0
BLOCK
  5
76
330
75
100
AcDbEntity
  8
0
100
AcDbBlockBegin
  2
SW_NOTE_0
 70
     0
 71
     0
 10
0.0
 20
0.0
 30
0.0
  3
SW_NOTE_0
  1

  0
MTEXT
  5
78
330
75
100
AcDbEntity
  8
SLD-0
100
AcDbMText
 10
0.0
 20
4.2902750472
 30
0.0
 40
3.2000000477
 41
0.0
 71
     1
 72
     1
  1
４－
  7
SLDTEXTSTYLE1
 73
     1
 44
1.0
  0
MTEXT
  5
79
330
75
100
AcDbEntity
  8
SLD-0
100
AcDbMText
 10
10.6177777052
 20
4.2902750472
 30
0.0
 40
3.2000000477
 41
0.0
 71
     1
 72
     1
  1
%%c
  7
SLDTEXTSTYLE1
 73
     1
 44
1.0
  0
MTEXT
  5
7A
330
75
100
AcDbEntity
  8
SLD-0
100
AcDbMText
 10
15.8026665449
 20
4.2902750472
 30
0.0
 40
3.2000000477
 41
0.0
 71
     1
 72
     1
  1
５．２
  7
SLDTEXTSTYLE1
 73
     1
 44
1.0
  0
MTEXT
  5
7B
330
75
100
AcDbEntity
  8
SLD-0
100
AcDbMText
 10
28.6115556955
 20
4.2902750472
 30
0.0
 40
3.2000000477
 41
0.0
 71
     1
 72
     1
  1
%%c
  7
SLDTEXTSTYLE1
 73
     1
 44
1.0
  0
MTEXT
  5
7C
330
75
100
AcDbEntity
  8
SLD-0
100
AcDbMText
 10
33.7964445353
 20
4.2902750472
 30
0.0
 40
3.2000000477
 41
0.0
 71
     1
 72
     1
  1
９ザグリ深５．５
  7
SLDTEXTSTYLE1
 73
     1
 44
1.0
  0
ENDBLK
  5
77
330
75
100
AcDbEntity
  8
0
100
AcDbBlockEnd
  0
BLOCK
  5
7F
330
7E
100
AcDbEntity
  8
0
100
AcDbBlockBegin
  2
KOZU0008
 70
     0
 71
     0
 10
0.0
 20
0.0
 30
0.0
  3
KOZU0008
  1

  0
LINE
  5
81
330
7E
100
AcDbEntity
  8
SLD-0
  6
Continuous
 62
   179
100
AcDbLine
 10
0.0
 20
0.0
 30
0.0
 11
-13.9751886762
 21
-33.0299901087
 31
0.0
  0
LINE
  5
82
330
7E
100
AcDbEntity
  8
SLD-0
  6
Continuous
 62
   179
100
AcDbLine
 10
0.0
 20
0.0
 30
0.0
 11
-0.7012868664
 21
-3.099745865
 31
0.0
  0
LINE
  5
83
330
7E
100
AcDbEntity
  8
SLD-0
  6
Continuous
 62
   179
100
AcDbLine
 10
0.0
 20
0.0
 30
0.0
 11
-1.7364432209
 21
-2.6617649478
 31
0.0
  0
LINE
  5
84
330
7E
100
AcDbEntity
  8
SLD-0
  6
Continuous
 62
   179
100
AcDbLine
 10
0.0
 20
0.0
 30
0.0
 11
-13.9751886762
 21
-33.0299901087
 31
0.0
  0
LINE
  5
85
330
7E
100
AcDbEntity
  8
SLD-0
  6
Continuous
 62
   179
100
AcDbLine
 10
-13.9751886762
 20
-33.0299901087
 30
0.0
 11
-32.3965027422
 21
-33.0299901087
 31
0.0
  0
MTEXT
  5
86
330
7E
100
AcDbEntity
  8
SLD-0
100
AcDbMText
 10
-30.5685027927
 20
-29.5752706811
 30
0.0
 40
3.2000000477
 41
0.0
 71
     1
 72
     1
  1
２－Ｍ５
  7
SLDTEXTSTYLE0
 73
     1
 44
1.0
  0
MTEXT
  5
88
330
7E
100
AcDbEntity
  8
SLD-0
100
AcDbMText
 10
-30.5685027927
 20
-35.1912707648
 30
0.0
 40
3.2000000477
 41
0.0
 71
     1
 72
     1
  1
配管用
  7
SLDTEXTSTYLE4
 73
     1
 44
1.0
  0
ENDBLK
  5
80
330
7E
100
AcDbEntity
  8
0
100
AcDbBlockEnd
  0
ENDSEC
  0
SECTION
  2
ENTITIES
  0
LINE
  5
89
330
1F
100
AcDbEntity
  8
SLD-0
  6
CENTER
 62
   179
100
AcDbLine
 10
84.2310460197
 20
111.5971585989
 30
0.0
 11
84.2310460197
 21
121.6771604299
 31
0.0
  0
LINE
  5
8A
330
1F
100
AcDbEntity
  8
SLD-0
  6
CENTER
 62
   179
100
AcDbLine
 10
68.2310460197
 20
111.5971585989
 30
0.0
 11
68.2310460197
 21
121.6771604299
 31
0.0
  0
LINE
  5
8B
330
1F
100
AcDbEntity
  8
SLD-0
  6
CENTER
 62
   179
100
AcDbLine
 10
68.2310460197
 20
185.6771604299
 30
0.0
 11
68.2310460197
 21
175.5971585989
 31
0.0
  0
LINE
  5
8C
330
1F
100
AcDbEntity
  8
SLD-0
  6
CENTER
 62
   179
100
AcDbLine
 10
84.2310460197
 20
185.6771604299
 30
0.0
 11
84.2310460197
 21
175.5971585989
 31
0.0
  0
LINE
  5
8D
330
1F
100
AcDbEntity
  8
SLD-0
  6
CENTER
 62
   179
100
AcDbLine
 10
79.1910679924
 20
180.6371671438
 30
0.0
 11
89.2710240471
 21
180.6371671438
 31
0.0
  0
LINE
  5
8E
330
1F
100
AcDbEntity
  8
SLD-0
  6
CENTER
 62
   179
100
AcDbLine
 10
73.2710240471
 20
116.637151885
 30
0.0
 11
63.1910679924
 21
116.637151885
 31
0.0
  0
LINE
  5
8F
330
1F
100
AcDbEntity
  8
SLD-0
  6
CENTER
 62
   179
100
AcDbLine
 10
79.1910679924
 20
116.637151885
 30
0.0
 11
89.2710240471
 21
116.637151885
 31
0.0
  0
LINE
  5
90
330
1F
100
AcDbEntity
  8
SLD-0
  6
CENTER
 62
   179
100
AcDbLine
 10
73.2710240471
 20
180.6371671438
 30
0.0
 11
63.1910679924
 21
180.6371671438
 31
0.0
  0
LINE
  5
91
330
1F
100
AcDbEntity
  8
SLD-0
  6
Continuous
 62
   179
100
AcDbLine
 10
93.7310460197
 20
167.4730807875
 30
0.0
 11
93.7310460197
 21
156.6371671438
 31
0.0
  0
LINE
  5
92
330
1F
100
AcDbEntity
  8
SLD-0
  6
Continuous
 62
   179
100
AcDbLine
 10
92.2310460197
 20
151.2898686633
 30
0.0
 11
92.2310460197
 21
145.9844724417
 31
0.0
  0
LINE
  5
93
330
1F
100
AcDbEntity
  8
SLD-0
  6
Continuous
 62
   179
100
AcDbLine
 10
65.2310461661
 20
185.6371671438
 30
0.0
 11
87.2310460197
 21
185.6371671438
 31
0.0
  0
LINE
  5
94
330
1F
100
AcDbEntity
  8
SLD-0
  6
Continuous
 62
   179
100
AcDbLine
 10
65.2310461661
 20
111.637151885
 30
0.0
 11
87.2310460197
 21
111.637151885
 31
0.0
  0
LINE
  5
95
330
1F
100
AcDbEntity
  8
SLD-0
  6
Continuous
 62
   179
100
AcDbLine
 10
63.2310460197
 20
183.6371671438
 30
0.0
 11
63.2310460197
 21
113.637151885
 31
0.0
  0
LINE
  5
96
330
1F
100
AcDbEntity
  8
SLD-0
  6
Continuous
 62
   179
100
AcDbLine
 10
89.2310460197
 20
183.6371669974
 30
0.0
 11
89.2310460197
 21
113.6371520314
 31
0.0
  0
LINE
  5
97
330
1F
100
AcDbEntity
  8
SLD-0
  6
CENTER
 62
   179
100
AcDbLine
 10
87.7710240471
 20
121.637151885
 30
0.0
 11
64.6910679924
 21
121.637151885
 31
0.0
  0
LINE
  5
98
330
1F
100
AcDbEntity
  8
SLD-0
  6
CENTER
 62
   179
100
AcDbLine
 10
87.7710240471
 20
175.6371671438
 30
0.0
 11
64.6910679924
 21
175.6371671438
 31
0.0
  0
LINE
  5
99
330
1F
100
AcDbEntity
  8
SLD-0
  6
CENTER
 62
   179
100
AcDbLine
 10
88.7710240471
 20
148.6371671438
 30
0.0
 11
63.6910679924
 21
148.6371671438
 31
0.0
  0
LINE
  5
9A
330
1F
100
AcDbEntity
  8
SLD-0
  6
CENTER
 62
   179
100
AcDbLine
 10
76.2310460197
 20
187.1771604299
 30
0.0
 11
76.2310460197
 21
110.0971585989
 31
0.0
  0
LINE
  5
9B
330
1F
100
AcDbEntity
  8
SLD-0
  6
Continuous
 62
   179
100
AcDbLine
 10
60.7310419311
 20
187.6371671438
 30
0.0
 11
91.7310501083
 21
187.6371671438
 31
0.0
  0
LINE
  5
9C
330
1F
100
AcDbEntity
  8
SLD-0
  6
Continuous
 62
   179
100
AcDbLine
 10
60.7310460197
 20
109.637151885
 30
0.0
 11
91.7310460197
 21
109.637151885
 31
0.0
  0
LINE
  5
9D
330
1F
100
AcDbEntity
  8
SLD-0
  6
CENTER
 62
   179
100
AcDbLine
 10
76.2310460197
 20
110.0971738577
 30
0.0
 11
76.2310460197
 21
187.1771756887
 31
0.0
  0
LINE
  5
9E
330
1F
100
AcDbEntity
  8
SLD-0
  6
Continuous
 62
   179
100
AcDbLine
 10
87.2310460197
 20
185.6371671438
 30
0.0
 11
89.2310460197
 21
183.6371669974
 31
0.0
  0
LINE
  5
9F
330
1F
100
AcDbEntity
  8
SLD-0
  6
Continuous
 62
   179
100
AcDbLine
 10
63.2310460197
 20
183.6371671438
 30
0.0
 11
65.2310461661
 21
185.6371671438
 31
0.0
  0
LINE
  5
A0
330
1F
100
AcDbEntity
  8
SLD-0
  6
Continuous
 62
   179
100
AcDbLine
 10
63.2310460197
 20
113.637151885
 30
0.0
 11
65.2310461661
 21
111.637151885
 31
0.0
  0
LINE
  5
A1
330
1F
100
AcDbEntity
  8
SLD-0
  6
Continuous
 62
   179
100
AcDbLine
 10
87.2310460197
 20
111.637151885
 30
0.0
 11
89.2310460197
 21
113.6371520314
 31
0.0
  0
LINE
  5
A2
330
1F
100
AcDbEntity
  8
SLD-0
  6
Continuous
 62
   179
100
AcDbLine
 10
58.7310460197
 20
180.1730807875
 30
0.0
 11
60.7310460197
 21
187.6371824026
 31
0.0
  0
LINE
  5
A3
330
1F
100
AcDbEntity
  8
SLD-0
  6
Continuous
 62
   179
100
AcDbLine
 10
58.7310460197
 20
169.3730807875
 30
0.0
 11
58.7310460197
 21
170.4730807875
 31
0.0
  0
LINE
  5
A4
330
1F
100
AcDbEntity
  8
SLD-0
  6
Continuous
 62
   179
100
AcDbLine
 10
58.7310460197
 20
178.3730807875
 30
0.0
 11
58.7310460197
 21
180.1730807875
 31
0.0
  0
LINE
  5
A5
330
1F
100
AcDbEntity
  8
SLD-0
  6
Continuous
 62
   179
100
AcDbLine
 10
58.7310460197
 20
172.3730807875
 30
0.0
 11
58.7310460197
 21
173.4730807875
 31
0.0
  0
LINE
  5
A6
330
1F
100
AcDbEntity
  8
SLD-0
  6
Continuous
 62
   179
100
AcDbLine
 10
59.2310460197
 20
167.8730807875
 30
0.0
 11
59.2310460197
 21
168.9730807875
 31
0.0
  0
LINE
  5
A7
330
1F
100
AcDbEntity
  8
SLD-0
  6
Continuous
 62
   179
100
AcDbLine
 10
59.2310460197
 20
170.8730807875
 30
0.0
 11
59.2310460197
 21
171.9730807875
 31
0.0
  0
LINE
  5
A8
330
1F
100
AcDbEntity
  8
SLD-0
  6
Continuous
 62
   179
100
AcDbLine
 10
59.2310460197
 20
173.8730807875
 30
0.0
 11
59.2310460197
 21
177.9730807875
 31
0.0
  0
LINE
  5
A9
330
1F
100
AcDbEntity
  8
SLD-0
  6
Continuous
 62
   179
100
AcDbLine
 10
58.9310460197
 20
167.6730807875
 30
0.0
 11
59.0310460197
 21
167.6730807875
 31
0.0
  0
LINE
  5
AA
330
1F
100
AcDbEntity
  8
SLD-0
  6
Continuous
 62
   179
100
AcDbLine
 10
58.9310460197
 20
172.1730807875
 30
0.0
 11
59.0310460197
 21
172.1730807875
 31
0.0
  0
LINE
  5
AB
330
1F
100
AcDbEntity
  8
SLD-0
  6
Continuous
 62
   179
100
AcDbLine
 10
58.9310460197
 20
169.1730807875
 30
0.0
 11
59.0310460197
 21
169.1730807875
 31
0.0
  0
LINE
  5
AC
330
1F
100
AcDbEntity
  8
SLD-0
  6
Continuous
 62
   179
100
AcDbLine
 10
58.9310460197
 20
170.6730807875
 30
0.0
 11
59.0310460197
 21
170.6730807875
 31
0.0
  0
LINE
  5
AD
330
1F
100
AcDbEntity
  8
SLD-0
  6
Continuous
 62
   179
100
AcDbLine
 10
58.9310460197
 20
173.6730807875
 30
0.0
 11
59.0310460197
 21
173.6730807875
 31
0.0
  0
LINE
  5
AE
330
1F
100
AcDbEntity
  8
SLD-0
  6
Continuous
 62
   179
100
AcDbLine
 10
58.9310460197
 20
178.1730807875
 30
0.0
 11
59.0310460197
 21
178.1730807875
 31
0.0
  0
LINE
  5
AF
330
1F
100
AcDbEntity
  8
SLD-0
  6
Continuous
 62
   179
100
AcDbLine
 10
93.5310460197
 20
178.1730807875
 30
0.0
 11
93.4310460197
 21
178.1730807875
 31
0.0
  0
LINE
  5
B0
330
1F
100
AcDbEntity
  8
SLD-0
  6
Continuous
 62
   179
100
AcDbLine
 10
93.5310460197
 20
176.6730807875
 30
0.0
 11
93.4310460197
 21
176.6730807875
 31
0.0
  0
LINE
  5
B1
330
1F
100
AcDbEntity
  8
SLD-0
  6
Continuous
 62
   179
100
AcDbLine
 10
93.5310460197
 20
175.1730807875
 30
0.0
 11
93.4310460197
 21
175.1730807875
 31
0.0
  0
LINE
  5
B2
330
1F
100
AcDbEntity
  8
SLD-0
  6
Continuous
 62
   179
100
AcDbLine
 10
93.5310460197
 20
173.6730807875
 30
0.0
 11
93.4310460197
 21
173.6730807875
 31
0.0
  0
LINE
  5
B3
330
1F
100
AcDbEntity
  8
SLD-0
  6
Continuous
 62
   179
100
AcDbLine
 10
93.2310460197
 20
176.8730807875
 30
0.0
 11
93.2310460197
 21
177.9730807875
 31
0.0
  0
LINE
  5
B4
330
1F
100
AcDbEntity
  8
SLD-0
  6
Continuous
 62
   179
100
AcDbLine
 10
93.5310460197
 20
170.6730807875
 30
0.0
 11
93.4310460197
 21
170.6730807875
 31
0.0
  0
LINE
  5
B5
330
1F
100
AcDbEntity
  8
SLD-0
  6
Continuous
 62
   179
100
AcDbLine
 10
93.5310460197
 20
169.1730807875
 30
0.0
 11
93.4310460197
 21
169.1730807875
 31
0.0
  0
LINE
  5
B6
330
1F
100
AcDbEntity
  8
SLD-0
  6
Continuous
 62
   179
100
AcDbLine
 10
93.5310460197
 20
172.1730807875
 30
0.0
 11
93.4310460197
 21
172.1730807875
 31
0.0
  0
LINE
  5
B7
330
1F
100
AcDbEntity
  8
SLD-0
  6
Continuous
 62
   179
100
AcDbLine
 10
93.5310460197
 20
167.6730807875
 30
0.0
 11
93.4310460197
 21
167.6730807875
 31
0.0
  0
LINE
  5
B8
330
1F
100
AcDbEntity
  8
SLD-0
  6
Continuous
 62
   179
100
AcDbLine
 10
93.2310460197
 20
173.8730807875
 30
0.0
 11
93.2310460197
 21
174.9730807875
 31
0.0
  0
LINE
  5
B9
330
1F
100
AcDbEntity
  8
SLD-0
  6
Continuous
 62
   179
100
AcDbLine
 10
93.2310460197
 20
170.8730807875
 30
0.0
 11
93.2310460197
 21
171.9730807875
 31
0.0
  0
LINE
  5
BA
330
1F
100
AcDbEntity
  8
SLD-0
  6
Continuous
 62
   179
100
AcDbLine
 10
93.2310460197
 20
167.8730807875
 30
0.0
 11
93.2310460197
 21
168.9730807875
 31
0.0
  0
LINE
  5
BB
330
1F
100
AcDbEntity
  8
SLD-0
  6
Continuous
 62
   179
100
AcDbLine
 10
93.7310460197
 20
175.3730807875
 30
0.0
 11
93.7310460197
 21
176.4730807875
 31
0.0
  0
LINE
  5
BC
330
1F
100
AcDbEntity
  8
SLD-0
  6
Continuous
 62
   179
100
AcDbLine
 10
93.7310460197
 20
172.3730807875
 30
0.0
 11
93.7310460197
 21
173.4730807875
 31
0.0
  0
LINE
  5
BD
330
1F
100
AcDbEntity
  8
SLD-0
  6
Continuous
 62
   179
100
AcDbLine
 10
93.7310460197
 20
178.3730807875
 30
0.0
 11
93.7310460197
 21
180.1730807875
 31
0.0
  0
LINE
  5
BE
330
1F
100
AcDbEntity
  8
SLD-0
  6
Continuous
 62
   179
100
AcDbLine
 10
93.7310460197
 20
169.3730807875
 30
0.0
 11
93.7310460197
 21
170.4730807875
 31
0.0
  0
LINE
  5
BF
330
1F
100
AcDbEntity
  8
SLD-0
  6
Continuous
 62
   179
100
AcDbLine
 10
93.7310460197
 20
180.1730807875
 30
0.0
 11
91.7310460197
 21
187.6371824026
 31
0.0
  0
LINE
  5
C0
330
1F
100
AcDbEntity
  8
SLD-0
  6
Continuous
 62
   179
100
AcDbLine
 10
58.7310460197
 20
117.1012535001
 30
0.0
 11
60.7310460197
 21
109.637151885
 31
0.0
  0
LINE
  5
C1
330
1F
100
AcDbEntity
  8
SLD-0
  6
Continuous
 62
   179
100
AcDbLine
 10
58.7310460197
 20
127.9012535001
 30
0.0
 11
58.7310460197
 21
126.8012535001
 31
0.0
  0
LINE
  5
C2
330
1F
100
AcDbEntity
  8
SLD-0
  6
Continuous
 62
   179
100
AcDbLine
 10
58.7310460197
 20
118.9012535001
 30
0.0
 11
58.7310460197
 21
117.1012535001
 31
0.0
  0
LINE
  5
C3
330
1F
100
AcDbEntity
  8
SLD-0
  6
Continuous
 62
   179
100
AcDbLine
 10
58.7310460197
 20
124.9012535001
 30
0.0
 11
58.7310460197
 21
123.8012535001
 31
0.0
  0
LINE
  5
C4
330
1F
100
AcDbEntity
  8
SLD-0
  6
Continuous
 62
   179
100
AcDbLine
 10
59.2310460197
 20
129.4012535001
 30
0.0
 11
59.2310460197
 21
128.3012535001
 31
0.0
  0
LINE
  5
C5
330
1F
100
AcDbEntity
  8
SLD-0
  6
Continuous
 62
   179
100
AcDbLine
 10
59.2310460197
 20
126.4012535001
 30
0.0
 11
59.2310460197
 21
125.3012535001
 31
0.0
  0
LINE
  5
C6
330
1F
100
AcDbEntity
  8
SLD-0
  6
Continuous
 62
   179
100
AcDbLine
 10
59.2310460197
 20
123.4012535001
 30
0.0
 11
59.2310460197
 21
119.3012535001
 31
0.0
  0
LINE
  5
C7
330
1F
100
AcDbEntity
  8
SLD-0
  6
Continuous
 62
   179
100
AcDbLine
 10
58.9310460197
 20
129.6012535001
 30
0.0
 11
59.0310460197
 21
129.6012535001
 31
0.0
  0
LINE
  5
C8
330
1F
100
AcDbEntity
  8
SLD-0
  6
Continuous
 62
   179
100
AcDbLine
 10
58.9310460197
 20
125.1012535001
 30
0.0
 11
59.0310460197
 21
125.1012535001
 31
0.0
  0
LINE
  5
C9
330
1F
100
AcDbEntity
  8
SLD-0
  6
Continuous
 62
   179
100
AcDbLine
 10
58.9310460197
 20
128.1012535001
 30
0.0
 11
59.0310460197
 21
128.1012535001
 31
0.0
  0
LINE
  5
CA
330
1F
100
AcDbEntity
  8
SLD-0
  6
Continuous
 62
   179
100
AcDbLine
 10
58.9310460197
 20
126.6012535001
 30
0.0
 11
59.0310460197
 21
126.6012535001
 31
0.0
  0
LINE
  5
CB
330
1F
100
AcDbEntity
  8
SLD-0
  6
Continuous
 62
   179
100
AcDbLine
 10
58.9310460197
 20
123.6012535001
 30
0.0
 11
59.0310460197
 21
123.6012535001
 31
0.0
  0
LINE
  5
CC
330
1F
100
AcDbEntity
  8
SLD-0
  6
Continuous
 62
   179
100
AcDbLine
 10
58.9310460197
 20
119.1012535001
 30
0.0
 11
59.0310460197
 21
119.1012535001
 31
0.0
  0
LINE
  5
CD
330
1F
100
AcDbEntity
  8
SLD-0
  6
Continuous
 62
   179
100
AcDbLine
 10
93.5310460197
 20
119.1012535001
 30
0.0
 11
93.4310460197
 21
119.1012535001
 31
0.0
  0
LINE
  5
CE
330
1F
100
AcDbEntity
  8
SLD-0
  6
Continuous
 62
   179
100
AcDbLine
 10
93.5310460197
 20
120.6012535001
 30
0.0
 11
93.4310460197
 21
120.6012535001
 31
0.0
  0
LINE
  5
CF
330
1F
100
AcDbEntity
  8
SLD-0
  6
Continuous
 62
   179
100
AcDbLine
 10
93.5310460197
 20
122.1012535001
 30
0.0
 11
93.4310460197
 21
122.1012535001
 31
0.0
  0
LINE
  5
D0
330
1F
100
AcDbEntity
  8
SLD-0
  6
Continuous
 62
   179
100
AcDbLine
 10
93.5310460197
 20
123.6012535001
 30
0.0
 11
93.4310460197
 21
123.6012535001
 31
0.0
  0
LINE
  5
D1
330
1F
100
AcDbEntity
  8
SLD-0
  6
Continuous
 62
   179
100
AcDbLine
 10
93.2310460197
 20
120.4012535001
 30
0.0
 11
93.2310460197
 21
119.3012535001
 31
0.0
  0
LINE
  5
D2
330
1F
100
AcDbEntity
  8
SLD-0
  6
Continuous
 62
   179
100
AcDbLine
 10
93.5310460197
 20
126.6012535001
 30
0.0
 11
93.4310460197
 21
126.6012535001
 31
0.0
  0
LINE
  5
D3
330
1F
100
AcDbEntity
  8
SLD-0
  6
Continuous
 62
   179
100
AcDbLine
 10
93.5310460197
 20
128.1012535001
 30
0.0
 11
93.4310460197
 21
128.1012535001
 31
0.0
  0
LINE
  5
D4
330
1F
100
AcDbEntity
  8
SLD-0
  6
Continuous
 62
   179
100
AcDbLine
 10
93.5310460197
 20
125.1012535001
 30
0.0
 11
93.4310460197
 21
125.1012535001
 31
0.0
  0
LINE
  5
D5
330
1F
100
AcDbEntity
  8
SLD-0
  6
Continuous
 62
   179
100
AcDbLine
 10
93.5310460197
 20
129.6012535001
 30
0.0
 11
93.4310460197
 21
129.6012535001
 31
0.0
  0
LINE
  5
D6
330
1F
100
AcDbEntity
  8
SLD-0
  6
Continuous
 62
   179
100
AcDbLine
 10
93.2310460197
 20
123.4012535001
 30
0.0
 11
93.2310460197
 21
122.3012535001
 31
0.0
  0
LINE
  5
D7
330
1F
100
AcDbEntity
  8
SLD-0
  6
Continuous
 62
   179
100
AcDbLine
 10
93.2310460197
 20
126.4012535001
 30
0.0
 11
93.2310460197
 21
125.3012535001
 31
0.0
  0
LINE
  5
D8
330
1F
100
AcDbEntity
  8
SLD-0
  6
Continuous
 62
   179
100
AcDbLine
 10
93.2310460197
 20
129.4012535001
 30
0.0
 11
93.2310460197
 21
128.3012535001
 31
0.0
  0
LINE
  5
D9
330
1F
100
AcDbEntity
  8
SLD-0
  6
Continuous
 62
   179
100
AcDbLine
 10
93.7310460197
 20
121.9012535001
 30
0.0
 11
93.7310460197
 21
120.8012535001
 31
0.0
  0
LINE
  5
DA
330
1F
100
AcDbEntity
  8
SLD-0
  6
Continuous
 62
   179
100
AcDbLine
 10
93.7310460197
 20
124.9012535001
 30
0.0
 11
93.7310460197
 21
123.8012535001
 31
0.0
  0
LINE
  5
DB
330
1F
100
AcDbEntity
  8
SLD-0
  6
Continuous
 62
   179
100
AcDbLine
 10
93.7310460197
 20
118.9012535001
 30
0.0
 11
93.7310460197
 21
117.1012535001
 31
0.0
  0
LINE
  5
DC
330
1F
100
AcDbEntity
  8
SLD-0
  6
Continuous
 62
   179
100
AcDbLine
 10
93.7310460197
 20
127.9012535001
 30
0.0
 11
93.7310460197
 21
126.8012535001
 31
0.0
  0
LINE
  5
DD
330
1F
100
AcDbEntity
  8
SLD-0
  6
Continuous
 62
   179
100
AcDbLine
 10
93.7310460197
 20
117.1012535001
 30
0.0
 11
91.7310460197
 21
109.637151885
 31
0.0
  0
LINE
  5
DE
330
1F
100
AcDbEntity
  8
SLD-0
  6
Continuous
 62
   179
100
AcDbLine
 10
58.7310460197
 20
167.4730807875
 30
0.0
 11
58.7310460197
 21
156.6371671438
 31
0.0
  0
LINE
  5
DF
330
1F
100
AcDbEntity
  8
SLD-0
  6
Continuous
 62
   179
100
AcDbLine
 10
60.5310338127
 20
142.6871701956
 30
0.0
 11
61.7202427971
 21
142.6871701956
 31
0.0
  0
LINE
  5
E0
330
1F
100
AcDbEntity
  8
SLD-0
  6
Continuous
 62
   179
100
AcDbLine
 10
60.2310460197
 20
151.2898618459
 30
0.0
 11
60.2310460197
 21
145.989874053
 31
0.0
  0
LINE
  5
E1
330
1F
100
AcDbEntity
  8
SLD-0
  6
Continuous
 62
   179
100
AcDbLine
 10
60.5310338127
 20
145.6871654545
 30
0.0
 11
61.7202427971
 21
145.6871654545
 31
0.0
  0
LINE
  5
E2
330
1F
100
AcDbEntity
  8
SLD-0
  6
Continuous
 62
   179
100
AcDbLine
 10
60.2310460197
 20
155.6371671438
 30
0.0
 11
60.2310460197
 21
154.8844663381
 31
0.0
  0
LINE
  5
E3
330
1F
100
AcDbEntity
  8
SLD-0
  6
Continuous
 62
   179
100
AcDbLine
 10
92.2310460197
 20
155.6371671438
 30
0.0
 11
92.2310460197
 21
154.8844595208
 31
0.0
  0
LINE
  5
E4
330
1F
100
AcDbEntity
  8
SLD-0
  6
Continuous
 62
   179
100
AcDbLine
 10
92.2310460197
 20
142.3898679495
 30
0.0
 11
92.2310460197
 21
141.6371671438
 31
0.0
  0
LINE
  5
E5
330
1F
100
AcDbEntity
  8
SLD-0
  6
Continuous
 62
   179
100
AcDbLine
 10
93.7310460197
 20
140.6371671438
 30
0.0
 11
93.2310460197
 21
140.6371671438
 31
0.0
  0
LINE
  5
E6
330
1F
100
AcDbEntity
  8
SLD-0
  6
Continuous
 62
   179
100
AcDbLine
 10
58.7310460197
 20
140.6371671438
 30
0.0
 11
59.2310460197
 21
140.6371671438
 31
0.0
  0
LINE
  5
E7
330
1F
100
AcDbEntity
  8
SLD-0
  6
Continuous
 62
   179
100
AcDbLine
 10
91.9310582268
 20
145.6871654545
 30
0.0
 11
90.7418492424
 21
145.6871654545
 31
0.0
  0
LINE
  5
E8
330
1F
100
AcDbEntity
  8
SLD-0
  6
Continuous
 62
   179
100
AcDbLine
 10
91.9310582267
 20
142.6871701956
 30
0.0
 11
90.7418492424
 21
142.6871701956
 31
0.0
  0
LINE
  5
E9
330
1F
100
AcDbEntity
  8
SLD-0
  6
Continuous
 62
   179
100
AcDbLine
 10
93.7310460197
 20
156.6371671438
 30
0.0
 11
93.2310460197
 21
156.6371671438
 31
0.0
  0
LINE
  5
EA
330
1F
100
AcDbEntity
  8
SLD-0
  6
Continuous
 62
   179
100
AcDbLine
 10
91.9310582267
 20
154.5871593509
 30
0.0
 11
90.7418492423
 21
154.5871593509
 31
0.0
  0
LINE
  5
EB
330
1F
100
AcDbEntity
  8
SLD-0
  6
Continuous
 62
   179
100
AcDbLine
 10
91.9310582267
 20
151.587164092
 30
0.0
 11
90.7418492424
 21
151.587164092
 31
0.0
  0
LINE
  5
EC
330
1F
100
AcDbEntity
  8
SLD-0
  6
Continuous
 62
   179
100
AcDbLine
 10
60.2310460197
 20
142.3898679495
 30
0.0
 11
60.2310460197
 21
141.6371671438
 31
0.0
  0
LINE
  5
ED
330
1F
100
AcDbEntity
  8
SLD-0
  6
Continuous
 62
   179
100
AcDbLine
 10
58.7310460197
 20
156.6371671438
 30
0.0
 11
59.2310460197
 21
156.6371671438
 31
0.0
  0
LINE
  5
EE
330
1F
100
AcDbEntity
  8
SLD-0
  6
Continuous
 62
   179
100
AcDbLine
 10
60.5310338127
 20
154.5871553582
 30
0.0
 11
61.7202427971
 21
154.5871553582
 31
0.0
  0
LINE
  5
EF
330
1F
100
AcDbEntity
  8
SLD-0
  6
Continuous
 62
   179
100
AcDbLine
 10
60.5310338127
 20
151.587164092
 30
0.0
 11
61.7202427971
 21
151.587164092
 31
0.0
  0
LINE
  5
F0
330
1F
100
AcDbEntity
  8
SLD-0
  6
Continuous
 62
   179
100
AcDbLine
 10
58.7310460197
 20
140.6371671438
 30
0.0
 11
58.7310460197
 21
129.8012535001
 31
0.0
  0
LINE
  5
F1
330
1F
100
AcDbEntity
  8
SLD-0
  6
Continuous
 62
   179
100
AcDbLine
 10
93.7310460197
 20
140.6371671438
 30
0.0
 11
93.7310460197
 21
129.8012535001
 31
0.0
  0
LINE
  5
F2
330
1F
100
AcDbEntity
  8
SLD-0
  6
Continuous
 62
   179
100
AcDbLine
 10
271.9233677971
 20
53.637151885
 30
0.0
 11
271.9233677971
 21
65.6371442556
 31
0.0
  0
LINE
  5
F3
330
1F
100
AcDbEntity
  8
SLD-0
  6
CENTER
 62
   179
100
AcDbLine
 10
234.4233677971
 20
128.6371671438
 30
0.0
 11
234.4233677971
 21
140.6371671438
 31
0.0
  0
LINE
  5
F4
330
1F
100
AcDbEntity
  8
SLD-0
  6
CENTER
 62
   179
100
AcDbLine
 10
248.1003697502
 20
134.637151885
 30
0.0
 11
261.7463658439
 21
134.637151885
 31
0.0
  0
LINE
  5
F5
330
1F
100
AcDbEntity
  8
SLD-0
  6
CENTER
 62
   179
100
AcDbLine
 10
227.9233677971
 20
134.6371671438
 30
0.0
 11
242.0097325432
 21
134.6371671438
 31
0.0
  0
LINE
  5
F6
330
1F
100
AcDbEntity
  8
SLD-0
  6
Continuous
 62
   179
100
AcDbLine
 10
271.9233677971
 20
115.637151885
 30
0.0
 11
271.9233677971
 21
127.637151885
 31
0.0
  0
LINE
  5
F7
330
1F
100
AcDbEntity
  8
SLD-0
  6
Continuous
 62
   179
100
AcDbLine
 10
264.4233677971
 20
127.637151885
 30
0.0
 11
271.9233677971
 21
127.637151885
 31
0.0
  0
LINE
  5
F8
330
1F
100
AcDbEntity
  8
SLD-0
  6
Continuous
 62
   179
100
AcDbLine
 10
264.4233677971
 20
181.6371671438
 30
0.0
 11
271.9233677971
 21
181.6371671438
 31
0.0
  0
LINE
  5
F9
330
1F
100
AcDbEntity
  8
SLD-0
  6
Continuous
 62
   179
100
AcDbLine
 10
264.4233677971
 20
187.6371671438
 30
0.0
 11
264.4233677971
 21
109.637151885
 31
0.0
  0
LINE
  5
FA
330
1F
100
AcDbEntity
  8
SLD-0
  6
CENTER
 62
   179
100
AcDbLine
 10
126.2310460197
 20
148.6371671438
 30
0.0
 11
265.9233677971
 21
148.6371671438
 31
0.0
  0
LINE
  5
FB
330
1F
100
AcDbEntity
  8
SLD-0
  6
Continuous
 62
   179
100
AcDbLine
 10
152.4233677971
 20
187.6371671438
 30
0.0
 11
264.4233677971
 21
187.6371671438
 31
0.0
  0
LINE
  5
FC
330
1F
100
AcDbEntity
  8
SLD-0
  6
Continuous
 62
   179
100
AcDbLine
 10
152.4233677971
 20
109.637151885
 30
0.0
 11
264.4233677971
 21
109.637151885
 31
0.0
  0
LINE
  5
FD
330
1F
100
AcDbEntity
  8
SLD-0
  6
Continuous
 62
   179
100
AcDbLine
 10
264.4233677971
 20
169.6371671438
 30
0.0
 11
271.9233677971
 21
169.6371671438
 31
0.0
  0
LINE
  5
FE
330
1F
100
AcDbEntity
  8
SLD-0
  6
Continuous
 62
   179
100
AcDbLine
 10
271.9233677971
 20
181.6371671438
 30
0.0
 11
271.9233677971
 21
169.6371671438
 31
0.0
  0
LINE
  5
FF
330
1F
100
AcDbEntity
  8
SLD-0
  6
Continuous
 62
   179
100
AcDbLine
 10
264.4233677971
 20
115.637151885
 30
0.0
 11
271.9233677971
 21
115.637151885
 31
0.0
  0
LINE
  5
100
330
1F
100
AcDbEntity
  8
SLD-0
  6
CENTER
 62
   179
100
AcDbLine
 10
254.9233677971
 20
139.7371885061
 30
0.0
 11
254.9233677971
 21
132.5701505422
 31
0.0
  0
LINE
  5
101
330
1F
100
AcDbEntity
  8
SLD-0
  6
Continuous
 62
   179
100
AcDbLine
 10
145.4233983146
 20
53.637151885
 30
0.0
 11
152.1233800041
 21
53.637151885
 31
0.0
  0
LINE
  5
102
330
1F
100
AcDbEntity
  8
SLD-0
  6
Continuous
 62
   179
100
AcDbLine
 10
145.4233983146
 20
65.6371442556
 30
0.0
 11
152.1233800041
 21
65.6371442556
 31
0.0
  0
LINE
  5
103
330
1F
100
AcDbEntity
  8
SLD-0
  6
Continuous
 62
   179
100
AcDbLine
 10
241.3045898231
 20
71.6371401417
 30
0.0
 11
243.6139925265
 21
75.6371424105
 31
0.0
  0
LINE
  5
104
330
1F
100
AcDbEntity
  8
SLD-0
  6
CENTER
 62
   179
100
AcDbLine
 10
239.4833653557
 20
71.637151885
 30
0.0
 11
252.3633702385
 21
71.637151885
 31
0.0
  0
LINE
  5
105
330
1F
100
AcDbEntity
  8
SLD-0
  6
CENTER
 62
   179
100
AcDbLine
 10
54.4499966333
 20
59.637151885
 30
0.0
 11
274.8736546623
 21
59.637151885
 31
0.0
  0
LINE
  5
106
330
1F
100
AcDbEntity
  8
SLD-0
  6
Continuous
 62
   179
100
AcDbLine
 10
135.4233983146
 20
46.637151885
 30
0.0
 11
145.4233983146
 21
46.637151885
 31
0.0
  0
LINE
  5
107
330
1F
100
AcDbEntity
  8
SLD-0
  6
Continuous
 62
   179
100
AcDbLine
 10
135.4233983146
 20
72.6371442556
 30
0.0
 11
145.4233983146
 21
72.6371442556
 31
0.0
  0
LINE
  5
108
330
1F
100
AcDbEntity
  8
SLD-0
  6
Continuous
 62
   179
100
AcDbLine
 10
135.4233983146
 20
72.6371442556
 30
0.0
 11
135.4233983146
 21
46.637151885
 31
0.0
  0
LINE
  5
109
330
1F
100
AcDbEntity
  8
SLD-0
  6
Continuous
 62
   179
100
AcDbLine
 10
145.4233983146
 20
72.6371442556
 30
0.0
 11
145.4233983146
 21
46.637151885
 31
0.0
  0
LINE
  5
10A
330
1F
100
AcDbEntity
  8
SLD-0
  6
CENTER
 62
   179
100
AcDbLine
 10
242.4233677971
 20
52.6771451711
 30
0.0
 11
242.4233677971
 21
42.0971509695
 31
0.0
  0
LINE
  5
10B
330
1F
100
AcDbEntity
  8
SLD-0
  6
CENTER
 62
   179
100
AcDbLine
 10
157.4233677971
 20
52.6771451711
 30
0.0
 11
157.4233677971
 21
42.0971509695
 31
0.0
  0
LINE
  5
10C
330
1F
100
AcDbEntity
  8
SLD-0
  6
CENTER
 62
   179
100
AcDbLine
 10
152.3833897697
 20
47.637151885
 30
0.0
 11
162.463376342
 21
47.637151885
 31
0.0
  0
LINE
  5
10D
330
1F
100
AcDbEntity
  8
SLD-0
  6
CENTER
 62
   179
100
AcDbLine
 10
237.3833897697
 20
47.637151885
 30
0.0
 11
247.463376342
 21
47.637151885
 31
0.0
  0
LINE
  5
10E
330
1F
100
AcDbEntity
  8
SLD-0
  6
Continuous
 62
   179
100
AcDbLine
 10
248.2327928158
 20
67.6371397302
 30
0.0
 11
250.5421955192
 21
71.637141999
 31
0.0
  0
LINE
  5
10F
330
1F
100
AcDbEntity
  8
SLD-0
  6
Continuous
 62
   179
100
AcDbLine
 10
241.3045860478
 20
71.6371585011
 30
0.0
 11
243.6139887512
 21
67.6371562323
 31
0.0
  0
LINE
  5
110
330
1F
100
AcDbEntity
  8
SLD-0
  6
Continuous
 62
   179
100
AcDbLine
 10
243.6139887512
 20
67.6371562323
 30
0.0
 11
248.2327855217
 21
67.637151885
 31
0.0
  0
LINE
  5
111
330
1F
100
AcDbEntity
  8
SLD-0
  6
Continuous
 62
   179
100
AcDbLine
 10
243.61398059
 20
75.637151885
 30
0.0
 11
248.2327855217
 21
75.637151885
 31
0.0
  0
LINE
  5
112
330
1F
100
AcDbEntity
  8
SLD-0
  6
Continuous
 62
   179
100
AcDbLine
 10
248.2327855217
 20
75.637151885
 30
0.0
 11
250.5421917439
 21
71.6371566438
 31
0.0
  0
LINE
  5
113
330
1F
100
AcDbEntity
  8
SLD-0
  6
CENTER
 62
   179
100
AcDbLine
 10
245.9233677971
 20
78.077146697
 30
0.0
 11
245.9233677971
 21
65.1971494436
 31
0.0
  0
LINE
  5
114
330
1F
100
AcDbEntity
  8
SLD-0
  6
Continuous
 62
   179
100
AcDbLine
 10
170.9233677971
 20
64.637151885
 30
0.0
 11
210.9233677971
 21
64.637151885
 31
0.0
  0
LINE
  5
115
330
1F
100
AcDbEntity
  8
SLD-0
  6
Continuous
 62
   179
100
AcDbLine
 10
160.8046055407
 20
71.6371358481
 30
0.0
 11
163.1140082441
 21
75.6371381169
 31
0.0
  0
LINE
  5
116
330
1F
100
AcDbEntity
  8
SLD-0
  6
CENTER
 62
   179
100
AcDbLine
 10
158.9833653557
 20
71.637151885
 30
0.0
 11
171.8633702385
 21
71.637151885
 31
0.0
  0
LINE
  5
117
330
1F
100
AcDbEntity
  8
SLD-0
  6
Continuous
 62
   179
100
AcDbLine
 10
163.11398059
 20
75.637151885
 30
0.0
 11
167.7327855217
 21
75.637151885
 31
0.0
  0
LINE
  5
118
330
1F
100
AcDbEntity
  8
SLD-0
  6
Continuous
 62
   179
100
AcDbLine
 10
163.11398059
 20
67.637151885
 30
0.0
 11
167.7327855217
 21
67.637151885
 31
0.0
  0
LINE
  5
119
330
1F
100
AcDbEntity
  8
SLD-0
  6
Continuous
 62
   179
100
AcDbLine
 10
170.9233677971
 20
54.637151885
 30
0.0
 11
210.9233677971
 21
54.637151885
 31
0.0
  0
LINE
  5
11A
330
1F
100
AcDbEntity
  8
SLD-0
  6
Continuous
 62
   179
100
AcDbLine
 10
160.804567707
 20
71.6371607504
 30
0.0
 11
163.1139704104
 21
67.6371584816
 31
0.0
  0
LINE
  5
11B
330
1F
100
AcDbEntity
  8
SLD-0
  6
Continuous
 62
   179
100
AcDbLine
 10
167.7328085334
 20
67.6371354366
 30
0.0
 11
170.0422112368
 21
71.6371377054
 31
0.0
  0
LINE
  5
11C
330
1F
100
AcDbEntity
  8
SLD-0
  6
Continuous
 62
   179
100
AcDbLine
 10
170.9233677971
 20
64.637151885
 30
0.0
 11
170.9233677971
 21
54.637151885
 31
0.0
  0
LINE
  5
11D
330
1F
100
AcDbEntity
  8
SLD-0
  6
Continuous
 62
   179
100
AcDbLine
 10
264.4233677971
 20
77.1371442556
 30
0.0
 11
264.4233677971
 21
42.137151885
 31
0.0
  0
LINE
  5
11E
330
1F
100
AcDbEntity
  8
SLD-0
  6
Continuous
 62
   179
100
AcDbLine
 10
152.4233677971
 20
77.1371442556
 30
0.0
 11
152.4233677971
 21
42.137151885
 31
0.0
  0
LINE
  5
11F
330
1F
100
AcDbEntity
  8
SLD-0
  6
Continuous
 62
   179
100
AcDbLine
 10
152.4233677971
 20
42.137151885
 30
0.0
 11
264.4233677971
 21
42.137151885
 31
0.0
  0
LINE
  5
120
330
1F
100
AcDbEntity
  8
SLD-0
  6
Continuous
 62
   179
100
AcDbLine
 10
152.4233677971
 20
77.1371442556
 30
0.0
 11
264.4233677971
 21
77.1371442556
 31
0.0
  0
LINE
  5
121
330
1F
100
AcDbEntity
  8
SLD-0
  6
Continuous
 62
   179
100
AcDbLine
 10
210.9233677971
 20
64.637151885
 30
0.0
 11
210.9233677971
 21
54.637151885
 31
0.0
  0
LINE
  5
122
330
1F
100
AcDbEntity
  8
SLD-0
  6
CENTER
 62
   179
100
AcDbLine
 10
245.9233677971
 20
77.1771528005
 30
0.0
 11
245.9233677971
 21
66.5971509695
 31
0.0
  0
LINE
  5
123
330
1F
100
AcDbEntity
  8
SLD-0
  6
CENTER
 62
   179
100
AcDbLine
 10
165.4233677971
 20
77.1771528005
 30
0.0
 11
165.4233677971
 21
66.5971509695
 31
0.0
  0
LINE
  5
124
330
1F
100
AcDbEntity
  8
SLD-0
  6
CENTER
 62
   179
100
AcDbLine
 10
160.3833592521
 20
71.637151885
 30
0.0
 11
170.463376342
 21
71.637151885
 31
0.0
  0
LINE
  5
125
330
1F
100
AcDbEntity
  8
SLD-0
  6
CENTER
 62
   179
100
AcDbLine
 10
240.8833592521
 20
71.637151885
 30
0.0
 11
250.963376342
 21
71.637151885
 31
0.0
  0
LINE
  5
126
330
1F
100
AcDbEntity
  8
SLD-0
  6
CENTER
 62
   179
100
AcDbLine
 10
165.4233677971
 20
78.077146697
 30
0.0
 11
165.4233677971
 21
65.1971494436
 31
0.0
  0
LINE
  5
127
330
1F
100
AcDbEntity
  8
SLD-0
  6
Continuous
 62
   179
100
AcDbLine
 10
152.4233677971
 20
75.137151885
 30
0.0
 11
264.4233677971
 21
75.137151885
 31
0.0
  0
LINE
  5
128
330
1F
100
AcDbEntity
  8
SLD-0
  6
Continuous
 62
   179
100
AcDbLine
 10
152.4233677971
 20
44.137151885
 30
0.0
 11
264.4233677971
 21
44.137151885
 31
0.0
  0
LINE
  5
129
330
1F
100
AcDbEntity
  8
SLD-0
  6
Continuous
 62
   179
100
AcDbLine
 10
135.4233983146
 20
70.6371442556
 30
0.0
 11
145.4233983146
 21
70.6371442556
 31
0.0
  0
LINE
  5
12A
330
1F
100
AcDbEntity
  8
SLD-0
  6
Continuous
 62
   179
100
AcDbLine
 10
135.4233983146
 20
48.637151885
 30
0.0
 11
145.4233983146
 21
48.637151885
 31
0.0
  0
LINE
  5
12B
330
1F
100
AcDbEntity
  8
SLD-0
  6
Continuous
 62
   179
100
AcDbLine
 10
167.7327706997
 20
75.6371611619
 30
0.0
 11
170.0421734031
 21
71.6371588931
 31
0.0
  0
LINE
  5
12C
330
1F
100
AcDbEntity
  8
SLD-0
  6
CENTER
 62
   179
100
AcDbLine
 10
227.9233677971
 20
162.6371671438
 30
0.0
 11
242.0097325432
 21
162.6371671438
 31
0.0
  0
LINE
  5
12D
330
1F
100
AcDbEntity
  8
SLD-0
  6
Continuous
 62
   179
100
AcDbLine
 10
264.4233677971
 20
65.6371442556
 30
0.0
 11
271.9233677971
 21
65.6371442556
 31
0.0
  0
LINE
  5
12E
330
1F
100
AcDbEntity
  8
SLD-0
  6
Continuous
 62
   179
100
AcDbLine
 10
271.9233677971
 20
53.637151885
 30
0.0
 11
264.4233677971
 21
53.637151885
 31
0.0
  0
LINE
  5
12F
330
1F
100
AcDbEntity
  8
SLD-0
  6
CENTER
 62
   179
100
AcDbLine
 10
174.4233800041
 20
167.6771604299
 30
0.0
 11
174.4233800041
 21
157.5971585989
 31
0.0
  0
LINE
  5
130
330
1F
100
AcDbEntity
  8
SLD-0
  6
CENTER
 62
   179
100
AcDbLine
 10
169.3834019767
 20
162.6371671438
 30
0.0
 11
179.463388549
 21
162.6371671438
 31
0.0
  0
LINE
  5
131
330
1F
100
AcDbEntity
  8
SLD-0
  6
Continuous
 62
   179
100
AcDbLine
 10
152.4233800041
 20
156.6371671438
 30
0.0
 11
264.4233677971
 21
156.6371671438
 31
0.0
  0
LINE
  5
132
330
1F
100
AcDbEntity
  8
SLD-0
  6
Continuous
 62
   179
100
AcDbLine
 10
152.4233800041
 20
154.587164092
 30
0.0
 11
264.4233677971
 21
154.587164092
 31
0.0
  0
LINE
  5
133
330
1F
100
AcDbEntity
  8
SLD-0
  6
Continuous
 62
   179
100
AcDbLine
 10
152.4233800041
 20
151.587164092
 30
0.0
 11
264.4233677971
 21
151.587164092
 31
0.0
  0
LINE
  5
134
330
1F
100
AcDbEntity
  8
SLD-0
  6
CENTER
 62
   179
100
AcDbLine
 10
174.4233800041
 20
128.6371671438
 30
0.0
 11
174.4233800041
 21
140.6371671438
 31
0.0
  0
LINE
  5
135
330
1F
100
AcDbEntity
  8
SLD-0
  6
CENTER
 62
   179
100
AcDbLine
 10
167.9233800041
 20
134.6371671438
 30
0.0
 11
179.9233800041
 21
134.6371671438
 31
0.0
  0
LINE
  5
136
330
1F
100
AcDbEntity
  8
SLD-0
  6
Continuous
 62
   179
100
AcDbLine
 10
152.4233800041
 20
169.1730807875
 30
0.0
 11
264.4233677971
 21
169.1730807875
 31
0.0
  0
LINE
  5
137
330
1F
100
AcDbEntity
  8
SLD-0
  6
Continuous
 62
   179
100
AcDbLine
 10
152.4233800041
 20
187.6371671438
 30
0.0
 11
152.4233800041
 21
109.637151885
 31
0.0
  0
LINE
  5
138
330
1F
100
AcDbEntity
  8
SLD-0
  6
Continuous
 62
   179
100
AcDbLine
 10
152.4233800041
 20
178.1730807875
 30
0.0
 11
264.4233677971
 21
178.1730807875
 31
0.0
  0
LINE
  5
139
330
1F
100
AcDbEntity
  8
SLD-0
  6
Continuous
 62
   179
100
AcDbLine
 10
145.4233983146
 20
127.637151885
 30
0.0
 11
152.4233800041
 21
127.637151885
 31
0.0
  0
LINE
  5
13A
330
1F
100
AcDbEntity
  8
SLD-0
  6
Continuous
 62
   179
100
AcDbLine
 10
145.4233983146
 20
181.6371671438
 30
0.0
 11
152.4233800041
 21
181.6371671438
 31
0.0
  0
LINE
  5
13B
330
1F
100
AcDbEntity
  8
SLD-0
  6
Continuous
 62
   179
100
AcDbLine
 10
145.4233983146
 20
169.6371671438
 30
0.0
 11
152.4233800041
 21
169.6371671438
 31
0.0
  0
LINE
  5
13C
330
1F
100
AcDbEntity
  8
SLD-0
  6
Continuous
 62
   179
100
AcDbLine
 10
152.4233800041
 20
176.6730807875
 30
0.0
 11
264.4233677971
 21
176.6730807875
 31
0.0
  0
LINE
  5
13D
330
1F
100
AcDbEntity
  8
SLD-0
  6
Continuous
 62
   179
100
AcDbLine
 10
152.4233800041
 20
167.6730807875
 30
0.0
 11
264.4233677971
 21
167.6730807875
 31
0.0
  0
LINE
  5
13E
330
1F
100
AcDbEntity
  8
SLD-0
  6
Continuous
 62
   179
100
AcDbLine
 10
135.4233983146
 20
185.6371671438
 30
0.0
 11
135.4233983146
 21
111.637151885
 31
0.0
  0
LINE
  5
13F
330
1F
100
AcDbEntity
  8
SLD-0
  6
Continuous
 62
   179
100
AcDbLine
 10
135.4233983146
 20
185.6371671438
 30
0.0
 11
145.4233983146
 21
185.6371671438
 31
0.0
  0
LINE
  5
140
330
1F
100
AcDbEntity
  8
SLD-0
  6
Continuous
 62
   179
100
AcDbLine
 10
135.4233983146
 20
111.637151885
 30
0.0
 11
145.4233983146
 21
111.637151885
 31
0.0
  0
LINE
  5
141
330
1F
100
AcDbEntity
  8
SLD-0
  6
Continuous
 62
   179
100
AcDbLine
 10
145.4233983146
 20
115.637151885
 30
0.0
 11
152.4233800041
 21
115.637151885
 31
0.0
  0
LINE
  5
142
330
1F
100
AcDbEntity
  8
SLD-0
  6
Continuous
 62
   179
100
AcDbLine
 10
152.4233800041
 20
180.1730807875
 30
0.0
 11
264.4233677971
 21
180.1730807875
 31
0.0
  0
LINE
  5
143
330
1F
100
AcDbEntity
  8
SLD-0
  6
CENTER
 62
   179
100
AcDbLine
 10
135.3834202873
 20
165.6371671438
 30
0.0
 11
145.4634068596
 21
165.6371671438
 31
0.0
  0
LINE
  5
144
330
1F
100
AcDbEntity
  8
SLD-0
  6
Continuous
 62
   179
100
AcDbLine
 10
152.4233800041
 20
153.6371671438
 30
0.0
 11
145.4233983146
 21
153.6371671438
 31
0.0
  0
LINE
  5
145
330
1F
100
AcDbEntity
  8
SLD-0
  6
Continuous
 62
   179
100
AcDbLine
 10
152.4233800041
 20
143.6371671438
 30
0.0
 11
145.4233983146
 21
143.6371671438
 31
0.0
  0
LINE
  5
146
330
1F
100
AcDbEntity
  8
SLD-0
  6
Continuous
 62
   179
100
AcDbLine
 10
152.4233800041
 20
145.6371671438
 30
0.0
 11
145.4233983146
 21
145.6371671438
 31
0.0
  0
LINE
  5
147
330
1F
100
AcDbEntity
  8
SLD-0
  6
Continuous
 62
   179
100
AcDbLine
 10
152.4233800041
 20
151.6371671438
 30
0.0
 11
145.4233983146
 21
151.6371671438
 31
0.0
  0
LINE
  5
148
330
1F
100
AcDbEntity
  8
SLD-0
  6
Continuous
 62
   179
100
AcDbLine
 10
152.4233800041
 20
151.0217892723
 30
0.0
 11
145.4233729899
 21
145.6371684017
 31
0.0
  0
LINE
  5
149
330
1F
100
AcDbEntity
  8
SLD-0
  6
Continuous
 62
   179
100
AcDbLine
 10
145.423375373
 20
151.6371722142
 30
0.0
 11
152.4233800041
 21
146.2525535057
 31
0.0
  0
LINE
  5
14A
330
1F
100
AcDbEntity
  8
SLD-0
  6
Continuous
 62
   179
100
AcDbLine
 10
145.4233983146
 20
185.6371671438
 30
0.0
 11
145.4233983146
 21
111.637151885
 31
0.0
  0
LINE
  5
14B
330
1F
100
AcDbEntity
  8
SLD-0
  6
Continuous
 62
   179
100
AcDbLine
 10
211.5233861076
 20
139.1371671438
 30
0.0
 11
211.3734227287
 21
139.1371671438
 31
0.0
  0
LINE
  5
14C
330
1F
100
AcDbEntity
  8
SLD-0
  6
CENTER
 62
   179
100
AcDbLine
 10
140.4233983146
 20
170.6771604299
 30
0.0
 11
140.4233983146
 21
160.5971585989
 31
0.0
  0
LINE
  5
14D
330
1F
100
AcDbEntity
  8
SLD-0
  6
CENTER
 62
   179
100
AcDbLine
 10
140.4233983146
 20
126.5971738577
 30
0.0
 11
140.4233983146
 21
136.6771756887
 31
0.0
  0
LINE
  5
14E
330
1F
100
AcDbEntity
  8
SLD-0
  6
CENTER
 62
   179
100
AcDbLine
 10
135.3834202873
 20
131.6371671438
 30
0.0
 11
145.4634068596
 21
131.6371671438
 31
0.0
  0
LINE
  5
14F
330
1F
100
AcDbEntity
  8
SLD-0
  6
CENTER
 62
   179
100
AcDbLine
 10
234.4233677971
 20
168.6371671438
 30
0.0
 11
234.4233677971
 21
156.6371671438
 31
0.0
  0
LINE
  5
150
330
1F
100
AcDbEntity
  8
SLD-0
  6
Continuous
 62
   179
100
AcDbLine
 10
173.4233800041
 20
166.6371671438
 30
0.0
 11
173.4233800041
 21
167.0371671438
 31
0.0
  0
LINE
  5
151
330
1F
100
AcDbEntity
  8
SLD-0
  6
Continuous
 62
   179
100
AcDbLine
 10
152.4233800041
 20
122.1012535001
 30
0.0
 11
264.4233677971
 21
122.1012535001
 31
0.0
  0
LINE
  5
152
330
1F
100
AcDbEntity
  8
SLD-0
  6
Continuous
 62
   179
100
AcDbLine
 10
152.4233800041
 20
125.1012535001
 30
0.0
 11
264.4233677971
 21
125.1012535001
 31
0.0
  0
LINE
  5
153
330
1F
100
AcDbEntity
  8
SLD-0
  6
Continuous
 62
   179
100
AcDbLine
 10
152.4233800041
 20
126.6012535001
 30
0.0
 11
264.4233677971
 21
126.6012535001
 31
0.0
  0
LINE
  5
154
330
1F
100
AcDbEntity
  8
SLD-0
  6
Continuous
 62
   179
100
AcDbLine
 10
152.4233800041
 20
123.6012535001
 30
0.0
 11
264.4233677971
 21
123.6012535001
 31
0.0
  0
LINE
  5
155
330
1F
100
AcDbEntity
  8
SLD-0
  6
Continuous
 62
   179
100
AcDbLine
 10
152.4233800041
 20
145.6871701956
 30
0.0
 11
264.4233677971
 21
145.6871701956
 31
0.0
  0
LINE
  5
156
330
1F
100
AcDbEntity
  8
SLD-0
  6
Continuous
 62
   179
100
AcDbLine
 10
152.4233800041
 20
128.1012535001
 30
0.0
 11
264.4233677971
 21
128.1012535001
 31
0.0
  0
LINE
  5
157
330
1F
100
AcDbEntity
  8
SLD-0
  6
Continuous
 62
   179
100
AcDbLine
 10
152.4233800041
 20
140.6371671438
 30
0.0
 11
264.4233677971
 21
140.6371671438
 31
0.0
  0
LINE
  5
158
330
1F
100
AcDbEntity
  8
SLD-0
  6
Continuous
 62
   179
100
AcDbLine
 10
152.4233800041
 20
120.6012535001
 30
0.0
 11
264.4233677971
 21
120.6012535001
 31
0.0
  0
LINE
  5
159
330
1F
100
AcDbEntity
  8
SLD-0
  6
Continuous
 62
   179
100
AcDbLine
 10
152.4233800041
 20
142.6871701956
 30
0.0
 11
264.4233677971
 21
142.6871701956
 31
0.0
  0
LINE
  5
15A
330
1F
100
AcDbEntity
  8
SLD-0
  6
Continuous
 62
   179
100
AcDbLine
 10
152.4233800041
 20
119.1012535001
 30
0.0
 11
264.4233677971
 21
119.1012535001
 31
0.0
  0
LINE
  5
15B
330
1F
100
AcDbEntity
  8
SLD-0
  6
Continuous
 62
   179
100
AcDbLine
 10
152.4233800041
 20
173.6730807875
 30
0.0
 11
264.4233677971
 21
173.6730807875
 31
0.0
  0
LINE
  5
15C
330
1F
100
AcDbEntity
  8
SLD-0
  6
Continuous
 62
   179
100
AcDbLine
 10
152.4233800041
 20
172.1730807875
 30
0.0
 11
264.4233677971
 21
172.1730807875
 31
0.0
  0
LINE
  5
15D
330
1F
100
AcDbEntity
  8
SLD-0
  6
Continuous
 62
   179
100
AcDbLine
 10
152.4233800041
 20
170.6730807875
 30
0.0
 11
264.4233677971
 21
170.6730807875
 31
0.0
  0
LINE
  5
15E
330
1F
100
AcDbEntity
  8
SLD-0
  6
Continuous
 62
   179
100
AcDbLine
 10
152.4233800041
 20
175.1730807875
 30
0.0
 11
264.4233677971
 21
175.1730807875
 31
0.0
  0
LINE
  5
15F
330
1F
100
AcDbEntity
  8
SLD-0
  6
Continuous
 62
   179
100
AcDbLine
 10
152.4233800041
 20
117.1012535001
 30
0.0
 11
264.4233677971
 21
117.1012535001
 31
0.0
  0
LINE
  5
160
330
1F
100
AcDbEntity
  8
SLD-0
  6
Continuous
 62
   179
100
AcDbLine
 10
152.4233800041
 20
129.6012535001
 30
0.0
 11
264.4233677971
 21
129.6012535001
 31
0.0
  0
LINE
  5
161
330
1F
100
AcDbEntity
  8
SLD-0
  6
Continuous
 62
   179
100
AcDbLine
 10
76.2310460511
 20
123.9465529592
 30
0.0
 11
78.2310460152
 21
122.7918524415
 31
0.0
  0
LINE
  5
162
330
1F
100
AcDbEntity
  8
SLD-0
  6
Continuous
 62
   179
100
AcDbLine
 10
78.2310460152
 20
122.7918524415
 30
0.0
 11
78.2310460018
 21
120.4824513518
 31
0.0
  0
LINE
  5
163
330
1F
100
AcDbEntity
  8
SLD-0
  6
Continuous
 62
   179
100
AcDbLine
 10
78.2310460018
 20
120.4824513518
 30
0.0
 11
76.2310460377
 21
119.3277508031
 31
0.0
  0
LINE
  5
164
330
1F
100
AcDbEntity
  8
SLD-0
  6
Continuous
 62
   179
100
AcDbLine
 10
76.2310460377
 20
119.3277508031
 30
0.0
 11
74.2310460197
 21
120.4824513518
 31
0.0
  0
LINE
  5
165
330
1F
100
AcDbEntity
  8
SLD-0
  6
Continuous
 62
   179
100
AcDbLine
 10
74.2310460197
 20
122.7918524027
 30
0.0
 11
74.2310460197
 21
120.4824513518
 31
0.0
  0
LINE
  5
166
330
1F
100
AcDbEntity
  8
SLD-0
  6
Continuous
 62
   179
100
AcDbLine
 10
76.2310460511
 20
123.9465529592
 30
0.0
 11
74.2310460197
 21
122.7918524027
 31
0.0
  0
LINE
  5
167
330
1F
100
AcDbEntity
  8
SLD-0
  6
Continuous
 62
   179
100
AcDbLine
 10
76.2310460511
 20
177.946568218
 30
0.0
 11
78.2310460152
 21
176.7918677003
 31
0.0
  0
LINE
  5
168
330
1F
100
AcDbEntity
  8
SLD-0
  6
Continuous
 62
   179
100
AcDbLine
 10
78.2310460152
 20
176.7918677003
 30
0.0
 11
78.2310460018
 21
174.4824666106
 31
0.0
  0
LINE
  5
169
330
1F
100
AcDbEntity
  8
SLD-0
  6
Continuous
 62
   179
100
AcDbLine
 10
78.2310460018
 20
174.4824666106
 30
0.0
 11
76.2310460377
 21
173.3277660619
 31
0.0
  0
LINE
  5
16A
330
1F
100
AcDbEntity
  8
SLD-0
  6
Continuous
 62
   179
100
AcDbLine
 10
76.2310460377
 20
173.3277660619
 30
0.0
 11
74.2310460197
 21
174.4824666106
 31
0.0
  0
LINE
  5
16B
330
1F
100
AcDbEntity
  8
SLD-0
  6
Continuous
 62
   179
100
AcDbLine
 10
74.2310460197
 20
176.7918676615
 30
0.0
 11
74.2310460197
 21
174.4824666106
 31
0.0
  0
LINE
  5
16C
330
1F
100
AcDbEntity
  8
SLD-0
  6
Continuous
 62
   179
100
AcDbLine
 10
76.2310460511
 20
177.946568218
 30
0.0
 11
74.2310460197
 21
176.7918676615
 31
0.0
  0
LINE
  5
16D
330
1F
100
AcDbEntity
  8
SLD-0
  6
Continuous
 62
   179
100
AcDbLine
 10
76.2310459928
 20
150.9465681947
 30
0.0
 11
74.2310460287
 21
149.791867677
 31
0.0
  0
LINE
  5
16E
330
1F
100
AcDbEntity
  8
SLD-0
  6
Continuous
 62
   179
100
AcDbLine
 10
74.2310460287
 20
149.791867677
 30
0.0
 11
74.2310460287
 21
147.4824666261
 31
0.0
  0
LINE
  5
16F
330
1F
100
AcDbEntity
  8
SLD-0
  6
Continuous
 62
   179
100
AcDbLine
 10
76.2310459928
 20
146.3277660774
 30
0.0
 11
74.2310460287
 21
147.4824666261
 31
0.0
  0
LINE
  5
170
330
1F
100
AcDbEntity
  8
SLD-0
  6
Continuous
 62
   179
100
AcDbLine
 10
78.2310460107
 20
147.4824666261
 30
0.0
 11
76.2310459928
 21
146.3277660774
 31
0.0
  0
LINE
  5
171
330
1F
100
AcDbEntity
  8
SLD-0
  6
Continuous
 62
   179
100
AcDbLine
 10
78.2310460242
 20
149.7918676381
 30
0.0
 11
78.2310460107
 21
147.4824666261
 31
0.0
  0
LINE
  5
172
330
1F
100
AcDbEntity
  8
SLD-0
  6
Continuous
 62
   179
100
AcDbLine
 10
76.2310459928
 20
150.9465681947
 30
0.0
 11
78.2310460242
 21
149.7918676381
 31
0.0
  0
LINE
  5
173
330
1F
100
AcDbEntity
  8
SLD-0
  6
Continuous
 62
   179
100
AcDbLine
 10
331.6233800041
 20
142.6871701956
 30
0.0
 11
330.4341710197
 21
142.6871701956
 31
0.0
  0
LINE
  5
174
330
1F
100
AcDbEntity
  8
SLD-0
  6
CENTER
 62
   179
100
AcDbLine
 10
328.9233677971
 20
148.4410154104
 30
0.0
 11
328.9233677971
 21
140.587164092
 31
0.0
  0
LINE
  5
175
330
1F
100
AcDbEntity
  8
SLD-0
  6
Continuous
 62
   179
100
AcDbLine
 10
331.9233677971
 20
151.2898618459
 30
0.0
 11
331.9233677971
 21
145.989874053
 31
0.0
  0
LINE
  5
176
330
1F
100
AcDbEntity
  8
SLD-0
  6
Continuous
 62
   179
100
AcDbLine
 10
331.6233800041
 20
145.6871755638
 30
0.0
 11
330.4341710197
 21
145.6871755638
 31
0.0
  0
LINE
  5
177
330
1F
100
AcDbEntity
  8
SLD-0
  6
Continuous
 62
   179
100
AcDbLine
 10
331.9233677971
 20
155.6371671438
 30
0.0
 11
331.9233677971
 21
154.8844663381
 31
0.0
  0
LINE
  5
178
330
1F
100
AcDbEntity
  8
SLD-0
  6
Continuous
 62
   179
100
AcDbLine
 10
299.9233677971
 20
151.2898618459
 30
0.0
 11
299.9233677971
 21
145.9844724417
 31
0.0
  0
LINE
  5
179
330
1F
100
AcDbEntity
  8
SLD-0
  6
Continuous
 62
   179
100
AcDbLine
 10
299.9233677971
 20
142.3898679495
 30
0.0
 11
299.9233677971
 21
141.6371671438
 31
0.0
  0
LINE
  5
17A
330
1F
100
AcDbEntity
  8
SLD-0
  6
Continuous
 62
   179
100
AcDbLine
 10
298.4233677971
 20
140.6371671438
 30
0.0
 11
298.9233677971
 21
140.6371671438
 31
0.0
  0
LINE
  5
17B
330
1F
100
AcDbEntity
  8
SLD-0
  6
Continuous
 62
   179
100
AcDbLine
 10
299.9233677971
 20
155.6371671438
 30
0.0
 11
299.9233677971
 21
154.8844663381
 31
0.0
  0
LINE
  5
17C
330
1F
100
AcDbEntity
  8
SLD-0
  6
Continuous
 62
   179
100
AcDbLine
 10
333.4233677971
 20
140.6371671438
 30
0.0
 11
332.9233677971
 21
140.6371671438
 31
0.0
  0
LINE
  5
17D
330
1F
100
AcDbEntity
  8
SLD-0
  6
Continuous
 62
   179
100
AcDbLine
 10
300.22335559
 20
145.6871755638
 30
0.0
 11
301.4125645744
 21
145.6871755638
 31
0.0
  0
LINE
  5
17E
330
1F
100
AcDbEntity
  8
SLD-0
  6
Continuous
 62
   179
100
AcDbLine
 10
299.9233677971
 20
151.2898618459
 30
0.0
 11
299.9233677971
 21
145.989874053
 31
0.0
  0
LINE
  5
17F
330
1F
100
AcDbEntity
  8
SLD-0
  6
CENTER
 62
   179
100
AcDbLine
 10
302.9233677971
 20
148.4410154104
 30
0.0
 11
302.9233677971
 21
140.587164092
 31
0.0
  0
LINE
  5
180
330
1F
100
AcDbEntity
  8
SLD-0
  6
Continuous
 62
   179
100
AcDbLine
 10
300.22335559
 20
142.6871701956
 30
0.0
 11
301.4125645744
 21
142.6871701956
 31
0.0
  0
LINE
  5
181
330
1F
100
AcDbEntity
  8
SLD-0
  6
Continuous
 62
   179
100
AcDbLine
 10
298.4233677971
 20
156.6371671438
 30
0.0
 11
298.9233677971
 21
156.6371671438
 31
0.0
  0
LINE
  5
182
330
1F
100
AcDbEntity
  8
SLD-0
  6
Continuous
 62
   179
100
AcDbLine
 10
300.22335559
 20
154.5871553582
 30
0.0
 11
301.4125645744
 21
154.5871553582
 31
0.0
  0
LINE
  5
183
330
1F
100
AcDbEntity
  8
SLD-0
  6
CENTER
 62
   179
100
AcDbLine
 10
302.9233677971
 20
148.8333188772
 30
0.0
 11
302.9233677971
 21
156.6871701956
 31
0.0
  0
LINE
  5
184
330
1F
100
AcDbEntity
  8
SLD-0
  6
CENTER
 62
   179
100
AcDbLine
 10
298.4233677971
 20
153.087164092
 30
0.0
 11
306.5233739006
 21
153.087164092
 31
0.0
  0
LINE
  5
185
330
1F
100
AcDbEntity
  8
SLD-0
  6
Continuous
 62
   179
100
AcDbLine
 10
300.22335559
 20
151.587164092
 30
0.0
 11
301.4125645744
 21
151.587164092
 31
0.0
  0
LINE
  5
186
330
1F
100
AcDbEntity
  8
SLD-0
  6
CENTER
 62
   179
100
AcDbLine
 10
298.4233677971
 20
144.1871701956
 30
0.0
 11
306.5233739006
 21
144.1871701956
 31
0.0
  0
LINE
  5
187
330
1F
100
AcDbEntity
  8
SLD-0
  6
Continuous
 62
   179
100
AcDbLine
 10
331.9233677971
 20
151.2898618459
 30
0.0
 11
331.9233677971
 21
145.9844724417
 31
0.0
  0
LINE
  5
188
330
1F
100
AcDbEntity
  8
SLD-0
  6
Continuous
 62
   179
100
AcDbLine
 10
298.4233677971
 20
140.6371671438
 30
0.0
 11
298.4233677971
 21
129.8012535001
 31
0.0
  0
LINE
  5
189
330
1F
100
AcDbEntity
  8
SLD-0
  6
CENTER
 62
   179
100
AcDbLine
 10
325.9233677971
 20
111.1371671438
 30
0.0
 11
325.9233677971
 21
118.1371671438
 31
0.0
  0
LINE
  5
18A
330
1F
100
AcDbEntity
  8
SLD-0
  6
CENTER
 62
   179
100
AcDbLine
 10
329.4233677971
 20
182.6371671438
 30
0.0
 11
322.4233677971
 21
182.6371671438
 31
0.0
  0
LINE
  5
18B
330
1F
100
AcDbEntity
  8
SLD-0
  6
CENTER
 62
   179
100
AcDbLine
 10
305.9233677971
 20
186.1371671438
 30
0.0
 11
305.9233677971
 21
179.1371671438
 31
0.0
  0
LINE
  5
18C
330
1F
100
AcDbEntity
  8
SLD-0
  6
CENTER
 62
   179
100
AcDbLine
 10
325.9233677971
 20
186.1371671438
 30
0.0
 11
325.9233677971
 21
179.1371671438
 31
0.0
  0
LINE
  5
18D
330
1F
100
AcDbEntity
  8
SLD-0
  6
CENTER
 62
   179
100
AcDbLine
 10
302.4233677971
 20
182.6371671438
 30
0.0
 11
309.4233677971
 21
182.6371671438
 31
0.0
  0
LINE
  5
18E
330
1F
100
AcDbEntity
  8
SLD-0
  6
CENTER
 62
   179
100
AcDbLine
 10
315.9233677971
 20
161.1771604299
 30
0.0
 11
315.9233677971
 21
136.0971585989
 31
0.0
  0
LINE
  5
18F
330
1F
100
AcDbEntity
  8
SLD-0
  6
CENTER
 62
   179
100
AcDbLine
 10
304.3833592521
 20
121.637151885
 30
0.0
 11
327.4633458244
 21
121.637151885
 31
0.0
  0
LINE
  5
190
330
1F
100
AcDbEntity
  8
SLD-0
  6
CENTER
 62
   179
100
AcDbLine
 10
315.9233677971
 20
110.0971585989
 30
0.0
 11
315.9233677971
 21
133.1771604299
 31
0.0
  0
LINE
  5
191
330
1F
100
AcDbEntity
  8
SLD-0
  6
CENTER
 62
   179
100
AcDbLine
 10
304.3833592521
 20
175.6371671438
 30
0.0
 11
327.4633458244
 21
175.6371671438
 31
0.0
  0
LINE
  5
192
330
1F
100
AcDbEntity
  8
SLD-0
  6
CENTER
 62
   179
100
AcDbLine
 10
303.3833592521
 20
148.6371671438
 30
0.0
 11
328.4633458244
 21
148.6371671438
 31
0.0
  0
LINE
  5
193
330
1F
100
AcDbEntity
  8
SLD-0
  6
CENTER
 62
   179
100
AcDbLine
 10
315.9233677971
 20
187.1771604299
 30
0.0
 11
315.9233677971
 21
164.0971585989
 31
0.0
  0
LINE
  5
194
330
1F
100
AcDbEntity
  8
SLD-0
  6
CENTER
 62
   179
100
AcDbLine
 10
329.4233677971
 20
114.6371671438
 30
0.0
 11
322.4233677971
 21
114.6371671438
 31
0.0
  0
LINE
  5
195
330
1F
100
AcDbEntity
  8
SLD-0
  6
Continuous
 62
   179
100
AcDbLine
 10
331.9233677971
 20
142.3898679495
 30
0.0
 11
331.9233677971
 21
141.6371671438
 31
0.0
  0
LINE
  5
196
330
1F
100
AcDbEntity
  8
SLD-0
  6
Continuous
 62
   179
100
AcDbLine
 10
301.190694785
 20
109.637151885
 30
0.0
 11
330.6560408091
 21
109.637151885
 31
0.0
  0
LINE
  5
197
330
1F
100
AcDbEntity
  8
SLD-0
  6
Continuous
 62
   179
100
AcDbLine
 10
301.1906906965
 20
187.6371671438
 30
0.0
 11
330.6560448977
 21
187.6371671438
 31
0.0
  0
LINE
  5
198
330
1F
100
AcDbEntity
  8
SLD-0
  6
Continuous
 62
   179
100
AcDbLine
 10
298.4233677971
 20
117.1012535001
 30
0.0
 11
300.2247689588
 21
110.3783328399
 31
0.0
  0
LINE
  5
199
330
1F
100
AcDbEntity
  8
SLD-0
  6
Continuous
 62
   179
100
AcDbLine
 10
333.4233677971
 20
127.9012535001
 30
0.0
 11
333.4233677971
 21
126.8012535001
 31
0.0
  0
LINE
  5
19A
330
1F
100
AcDbEntity
  8
SLD-0
  6
Continuous
 62
   179
100
AcDbLine
 10
332.9233677971
 20
129.4012535001
 30
0.0
 11
332.9233677971
 21
128.3012535001
 31
0.0
  0
LINE
  5
19B
330
1F
100
AcDbEntity
  8
SLD-0
  6
Continuous
 62
   179
100
AcDbLine
 10
333.2233677971
 20
125.1012535001
 30
0.0
 11
333.1233677971
 21
125.1012535001
 31
0.0
  0
LINE
  5
19C
330
1F
100
AcDbEntity
  8
SLD-0
  6
Continuous
 62
   179
100
AcDbLine
 10
333.2233677971
 20
129.6012535001
 30
0.0
 11
333.1233677971
 21
129.6012535001
 31
0.0
  0
LINE
  5
19D
330
1F
100
AcDbEntity
  8
SLD-0
  6
Continuous
 62
   179
100
AcDbLine
 10
333.2233677971
 20
123.6012535001
 30
0.0
 11
333.1233677971
 21
123.6012535001
 31
0.0
  0
LINE
  5
19E
330
1F
100
AcDbEntity
  8
SLD-0
  6
Continuous
 62
   179
100
AcDbLine
 10
333.2233677971
 20
119.1012535001
 30
0.0
 11
333.1233677971
 21
119.1012535001
 31
0.0
  0
LINE
  5
19F
330
1F
100
AcDbEntity
  8
SLD-0
  6
Continuous
 62
   179
100
AcDbLine
 10
332.9233677971
 20
126.4012535001
 30
0.0
 11
332.9233677971
 21
125.3012535001
 31
0.0
  0
LINE
  5
1A0
330
1F
100
AcDbEntity
  8
SLD-0
  6
Continuous
 62
   179
100
AcDbLine
 10
332.9233677971
 20
120.4012535001
 30
0.0
 11
332.9233677971
 21
119.3012535001
 31
0.0
  0
LINE
  5
1A1
330
1F
100
AcDbEntity
  8
SLD-0
  6
Continuous
 62
   179
100
AcDbLine
 10
332.9233677971
 20
123.4012535001
 30
0.0
 11
332.9233677971
 21
122.3012535001
 31
0.0
  0
LINE
  5
1A2
330
1F
100
AcDbEntity
  8
SLD-0
  6
Continuous
 62
   179
100
AcDbLine
 10
333.4233677971
 20
180.1730807875
 30
0.0
 11
331.621970724
 21
186.8959861889
 31
0.0
  0
LINE
  5
1A3
330
1F
100
AcDbEntity
  8
SLD-0
  6
Continuous
 62
   179
100
AcDbLine
 10
333.4233677971
 20
156.6371671438
 30
0.0
 11
333.4233677971
 21
167.4730807875
 31
0.0
  0
LINE
  5
1A4
330
1F
100
AcDbEntity
  8
SLD-0
  6
Continuous
 62
   179
100
AcDbLine
 10
333.2233677971
 20
175.1730807875
 30
0.0
 11
333.1233677971
 21
175.1730807875
 31
0.0
  0
LINE
  5
1A5
330
1F
100
AcDbEntity
  8
SLD-0
  6
Continuous
 62
   179
100
AcDbLine
 10
333.2233677971
 20
169.1730807875
 30
0.0
 11
333.1233677971
 21
169.1730807875
 31
0.0
  0
LINE
  5
1A6
330
1F
100
AcDbEntity
  8
SLD-0
  6
Continuous
 62
   179
100
AcDbLine
 10
333.2233677971
 20
176.6730807875
 30
0.0
 11
333.1233677971
 21
176.6730807875
 31
0.0
  0
LINE
  5
1A7
330
1F
100
AcDbEntity
  8
SLD-0
  6
Continuous
 62
   179
100
AcDbLine
 10
333.2233677971
 20
170.6730807875
 30
0.0
 11
333.1233677971
 21
170.6730807875
 31
0.0
  0
LINE
  5
1A8
330
1F
100
AcDbEntity
  8
SLD-0
  6
Continuous
 62
   179
100
AcDbLine
 10
332.9233677971
 20
173.8730807875
 30
0.0
 11
332.9233677971
 21
174.9730807875
 31
0.0
  0
LINE
  5
1A9
330
1F
100
AcDbEntity
  8
SLD-0
  6
Continuous
 62
   179
100
AcDbLine
 10
332.9233677971
 20
176.8730807875
 30
0.0
 11
332.9233677971
 21
177.9730807875
 31
0.0
  0
LINE
  5
1AA
330
1F
100
AcDbEntity
  8
SLD-0
  6
Continuous
 62
   179
100
AcDbLine
 10
333.2233677971
 20
126.6012535001
 30
0.0
 11
333.1233677971
 21
126.6012535001
 31
0.0
  0
LINE
  5
1AB
330
1F
100
AcDbEntity
  8
SLD-0
  6
Continuous
 62
   179
100
AcDbLine
 10
332.9233677971
 20
170.8730807875
 30
0.0
 11
332.9233677971
 21
171.9730807875
 31
0.0
  0
LINE
  5
1AC
330
1F
100
AcDbEntity
  8
SLD-0
  6
Continuous
 62
   179
100
AcDbLine
 10
333.2233677971
 20
120.6012535001
 30
0.0
 11
333.1233677971
 21
120.6012535001
 31
0.0
  0
LINE
  5
1AD
330
1F
100
AcDbEntity
  8
SLD-0
  6
Continuous
 62
   179
100
AcDbLine
 10
333.4233677971
 20
117.1012535001
 30
0.0
 11
331.6219666354
 21
110.3783328399
 31
0.0
  0
LINE
  5
1AE
330
1F
100
AcDbEntity
  8
SLD-0
  6
Continuous
 62
   179
100
AcDbLine
 10
333.2233677971
 20
178.1730807875
 30
0.0
 11
333.1233677971
 21
178.1730807875
 31
0.0
  0
LINE
  5
1AF
330
1F
100
AcDbEntity
  8
SLD-0
  6
Continuous
 62
   179
100
AcDbLine
 10
333.2233677971
 20
128.1012535001
 30
0.0
 11
333.1233677971
 21
128.1012535001
 31
0.0
  0
LINE
  5
1B0
330
1F
100
AcDbEntity
  8
SLD-0
  6
Continuous
 62
   179
100
AcDbLine
 10
333.2233677971
 20
173.6730807875
 30
0.0
 11
333.1233677971
 21
173.6730807875
 31
0.0
  0
LINE
  5
1B1
330
1F
100
AcDbEntity
  8
SLD-0
  6
Continuous
 62
   179
100
AcDbLine
 10
333.2233677971
 20
167.6730807875
 30
0.0
 11
333.1233677971
 21
167.6730807875
 31
0.0
  0
LINE
  5
1B2
330
1F
100
AcDbEntity
  8
SLD-0
  6
Continuous
 62
   179
100
AcDbLine
 10
333.2233677971
 20
122.1012535001
 30
0.0
 11
333.1233677971
 21
122.1012535001
 31
0.0
  0
LINE
  5
1B3
330
1F
100
AcDbEntity
  8
SLD-0
  6
Continuous
 62
   179
100
AcDbLine
 10
333.2233677971
 20
172.1730807875
 30
0.0
 11
333.1233677971
 21
172.1730807875
 31
0.0
  0
LINE
  5
1B4
330
1F
100
AcDbEntity
  8
SLD-0
  6
Continuous
 62
   179
100
AcDbLine
 10
332.9233677971
 20
167.8730807875
 30
0.0
 11
332.9233677971
 21
168.9730807875
 31
0.0
  0
LINE
  5
1B5
330
1F
100
AcDbEntity
  8
SLD-0
  6
Continuous
 62
   179
100
AcDbLine
 10
333.4233677971
 20
140.6371671438
 30
0.0
 11
333.4233677971
 21
129.8012535001
 31
0.0
  0
LINE
  5
1B6
330
1F
100
AcDbEntity
  8
SLD-0
  6
CENTER
 62
   179
100
AcDbLine
 10
300.8833677971
 20
114.6371671438
 30
0.0
 11
310.9633677971
 21
114.6371671438
 31
0.0
  0
LINE
  5
1B7
330
1F
100
AcDbEntity
  8
SLD-0
  6
CENTER
 62
   179
100
AcDbLine
 10
305.9233677971
 20
119.6771671438
 30
0.0
 11
305.9233677971
 21
109.5971671438
 31
0.0
  0
LINE
  5
1B8
330
1F
100
AcDbEntity
  8
SLD-0
  6
Continuous
 62
   179
100
AcDbLine
 10
298.6233677971
 20
178.1730807875
 30
0.0
 11
298.7233677971
 21
178.1730807875
 31
0.0
  0
LINE
  5
1B9
330
1F
100
AcDbEntity
  8
SLD-0
  6
Continuous
 62
   179
100
AcDbLine
 10
298.6233677971
 20
176.6730807875
 30
0.0
 11
298.7233677971
 21
176.6730807875
 31
0.0
  0
LINE
  5
1BA
330
1F
100
AcDbEntity
  8
SLD-0
  6
Continuous
 62
   179
100
AcDbLine
 10
298.6233677971
 20
175.1730807875
 30
0.0
 11
298.7233677971
 21
175.1730807875
 31
0.0
  0
LINE
  5
1BB
330
1F
100
AcDbEntity
  8
SLD-0
  6
Continuous
 62
   179
100
AcDbLine
 10
298.6233677971
 20
173.6730807875
 30
0.0
 11
298.7233677971
 21
173.6730807875
 31
0.0
  0
LINE
  5
1BC
330
1F
100
AcDbEntity
  8
SLD-0
  6
Continuous
 62
   179
100
AcDbLine
 10
298.9233677971
 20
176.8730807875
 30
0.0
 11
298.9233677971
 21
177.9730807875
 31
0.0
  0
LINE
  5
1BD
330
1F
100
AcDbEntity
  8
SLD-0
  6
Continuous
 62
   179
100
AcDbLine
 10
298.6233677971
 20
170.6730807875
 30
0.0
 11
298.7233677971
 21
170.6730807875
 31
0.0
  0
LINE
  5
1BE
330
1F
100
AcDbEntity
  8
SLD-0
  6
Continuous
 62
   179
100
AcDbLine
 10
298.6233677971
 20
169.1730807875
 30
0.0
 11
298.7233677971
 21
169.1730807875
 31
0.0
  0
LINE
  5
1BF
330
1F
100
AcDbEntity
  8
SLD-0
  6
Continuous
 62
   179
100
AcDbLine
 10
298.6233677971
 20
172.1730807875
 30
0.0
 11
298.7233677971
 21
172.1730807875
 31
0.0
  0
LINE
  5
1C0
330
1F
100
AcDbEntity
  8
SLD-0
  6
Continuous
 62
   179
100
AcDbLine
 10
298.6233677971
 20
167.6730807875
 30
0.0
 11
298.7233677971
 21
167.6730807875
 31
0.0
  0
LINE
  5
1C1
330
1F
100
AcDbEntity
  8
SLD-0
  6
Continuous
 62
   179
100
AcDbLine
 10
298.9233677971
 20
173.8730807875
 30
0.0
 11
298.9233677971
 21
174.9730807875
 31
0.0
  0
LINE
  5
1C2
330
1F
100
AcDbEntity
  8
SLD-0
  6
Continuous
 62
   179
100
AcDbLine
 10
298.9233677971
 20
170.8730807875
 30
0.0
 11
298.9233677971
 21
171.9730807875
 31
0.0
  0
LINE
  5
1C3
330
1F
100
AcDbEntity
  8
SLD-0
  6
Continuous
 62
   179
100
AcDbLine
 10
298.9233677971
 20
167.8730807875
 30
0.0
 11
298.9233677971
 21
168.9730807875
 31
0.0
  0
LINE
  5
1C4
330
1F
100
AcDbEntity
  8
SLD-0
  6
Continuous
 62
   179
100
AcDbLine
 10
298.4233677971
 20
175.3730807875
 30
0.0
 11
298.4233677971
 21
176.4730807875
 31
0.0
  0
LINE
  5
1C5
330
1F
100
AcDbEntity
  8
SLD-0
  6
Continuous
 62
   179
100
AcDbLine
 10
298.4233677971
 20
172.3730807875
 30
0.0
 11
298.4233677971
 21
173.4730807875
 31
0.0
  0
LINE
  5
1C6
330
1F
100
AcDbEntity
  8
SLD-0
  6
Continuous
 62
   179
100
AcDbLine
 10
298.4233677971
 20
178.3730807875
 30
0.0
 11
298.4233677971
 21
180.1730807875
 31
0.0
  0
LINE
  5
1C7
330
1F
100
AcDbEntity
  8
SLD-0
  6
Continuous
 62
   179
100
AcDbLine
 10
298.4233677971
 20
127.9012535001
 30
0.0
 11
298.4233677971
 21
126.8012535001
 31
0.0
  0
LINE
  5
1C8
330
1F
100
AcDbEntity
  8
SLD-0
  6
Continuous
 62
   179
100
AcDbLine
 10
298.4233677971
 20
169.3730807875
 30
0.0
 11
298.4233677971
 21
170.4730807875
 31
0.0
  0
LINE
  5
1C9
330
1F
100
AcDbEntity
  8
SLD-0
  6
Continuous
 62
   179
100
AcDbLine
 10
298.4233677971
 20
118.9012535001
 30
0.0
 11
298.4233677971
 21
117.1012535001
 31
0.0
  0
LINE
  5
1CA
330
1F
100
AcDbEntity
  8
SLD-0
  6
Continuous
 62
   179
100
AcDbLine
 10
298.4233677971
 20
121.9012535001
 30
0.0
 11
298.4233677971
 21
120.8012535001
 31
0.0
  0
LINE
  5
1CB
330
1F
100
AcDbEntity
  8
SLD-0
  6
Continuous
 62
   179
100
AcDbLine
 10
298.4233677971
 20
124.9012535001
 30
0.0
 11
298.4233677971
 21
123.8012535001
 31
0.0
  0
LINE
  5
1CC
330
1F
100
AcDbEntity
  8
SLD-0
  6
Continuous
 62
   179
100
AcDbLine
 10
298.9233677971
 20
129.4012535001
 30
0.0
 11
298.9233677971
 21
128.3012535001
 31
0.0
  0
LINE
  5
1CD
330
1F
100
AcDbEntity
  8
SLD-0
  6
Continuous
 62
   179
100
AcDbLine
 10
298.9233677971
 20
126.4012535001
 30
0.0
 11
298.9233677971
 21
125.3012535001
 31
0.0
  0
LINE
  5
1CE
330
1F
100
AcDbEntity
  8
SLD-0
  6
Continuous
 62
   179
100
AcDbLine
 10
298.9233677971
 20
123.4012535001
 30
0.0
 11
298.9233677971
 21
122.3012535001
 31
0.0
  0
LINE
  5
1CF
330
1F
100
AcDbEntity
  8
SLD-0
  6
Continuous
 62
   179
100
AcDbLine
 10
298.9233677971
 20
120.4012535001
 30
0.0
 11
298.9233677971
 21
119.3012535001
 31
0.0
  0
LINE
  5
1D0
330
1F
100
AcDbEntity
  8
SLD-0
  6
Continuous
 62
   179
100
AcDbLine
 10
298.6233677971
 20
129.6012535001
 30
0.0
 11
298.7233677971
 21
129.6012535001
 31
0.0
  0
LINE
  5
1D1
330
1F
100
AcDbEntity
  8
SLD-0
  6
Continuous
 62
   179
100
AcDbLine
 10
298.6233677971
 20
125.1012535001
 30
0.0
 11
298.7233677971
 21
125.1012535001
 31
0.0
  0
LINE
  5
1D2
330
1F
100
AcDbEntity
  8
SLD-0
  6
Continuous
 62
   179
100
AcDbLine
 10
298.6233677971
 20
128.1012535001
 30
0.0
 11
298.7233677971
 21
128.1012535001
 31
0.0
  0
LINE
  5
1D3
330
1F
100
AcDbEntity
  8
SLD-0
  6
Continuous
 62
   179
100
AcDbLine
 10
298.6233677971
 20
126.6012535001
 30
0.0
 11
298.7233677971
 21
126.6012535001
 31
0.0
  0
LINE
  5
1D4
330
1F
100
AcDbEntity
  8
SLD-0
  6
Continuous
 62
   179
100
AcDbLine
 10
298.6233677971
 20
123.6012535001
 30
0.0
 11
298.7233677971
 21
123.6012535001
 31
0.0
  0
LINE
  5
1D5
330
1F
100
AcDbEntity
  8
SLD-0
  6
Continuous
 62
   179
100
AcDbLine
 10
298.6233677971
 20
119.1012535001
 30
0.0
 11
298.7233677971
 21
119.1012535001
 31
0.0
  0
LINE
  5
1D6
330
1F
100
AcDbEntity
  8
SLD-0
  6
Continuous
 62
   179
100
AcDbLine
 10
298.6233677971
 20
122.1012535001
 30
0.0
 11
298.7233677971
 21
122.1012535001
 31
0.0
  0
LINE
  5
1D7
330
1F
100
AcDbEntity
  8
SLD-0
  6
Continuous
 62
   179
100
AcDbLine
 10
298.6233677971
 20
120.6012535001
 30
0.0
 11
298.7233677971
 21
120.6012535001
 31
0.0
  0
LINE
  5
1D8
330
1F
100
AcDbEntity
  8
SLD-0
  6
Continuous
 62
   179
100
AcDbLine
 10
298.4233677971
 20
156.6371671438
 30
0.0
 11
298.4233677971
 21
167.4730807875
 31
0.0
  0
LINE
  5
1D9
330
1F
100
AcDbEntity
  8
SLD-0
  6
Continuous
 62
   179
100
AcDbLine
 10
298.4233677971
 20
180.1730807875
 30
0.0
 11
300.2247648702
 21
186.8959861889
 31
0.0
  0
LINE
  5
1DA
330
1F
100
AcDbEntity
  8
SLD-0
  6
Continuous
 62
   179
100
AcDbLine
 10
333.4233677971
 20
156.6371671438
 30
0.0
 11
332.9233677971
 21
156.6371671438
 31
0.0
  0
LINE
  5
1DB
330
1F
100
AcDbEntity
  8
SLD-0
  6
Continuous
 62
   179
100
AcDbLine
 10
331.6233800041
 20
154.5871553582
 30
0.0
 11
330.4341710197
 21
154.5871553582
 31
0.0
  0
LINE
  5
1DC
330
1F
100
AcDbEntity
  8
SLD-0
  6
CENTER
 62
   179
100
AcDbLine
 10
328.9233677971
 20
148.8333188772
 30
0.0
 11
328.9233677971
 21
156.6871701956
 31
0.0
  0
LINE
  5
1DD
330
1F
100
AcDbEntity
  8
SLD-0
  6
CENTER
 62
   179
100
AcDbLine
 10
333.4233677971
 20
153.087164092
 30
0.0
 11
325.3233616935
 21
153.087164092
 31
0.0
  0
LINE
  5
1DE
330
1F
100
AcDbEntity
  8
SLD-0
  6
Continuous
 62
   179
100
AcDbLine
 10
331.6233800041
 20
151.587164092
 30
0.0
 11
330.4341710197
 21
151.587164092
 31
0.0
  0
LINE
  5
1DF
330
1F
100
AcDbEntity
  8
SLD-0
  6
CENTER
 62
   179
100
AcDbLine
 10
333.4233677971
 20
144.1871701956
 30
0.0
 11
325.3233616935
 21
144.1871701956
 31
0.0
  0
LINE
  5
1E0
330
1F
100
AcDbEntity
  8
SLD-0
  6
Continuous
 62
   179
100
AcDbLine
 10
333.4233677971
 20
169.3730807875
 30
0.0
 11
333.4233677971
 21
170.4730807875
 31
0.0
  0
LINE
  5
1E1
330
1F
100
AcDbEntity
  8
SLD-0
  6
Continuous
 62
   179
100
AcDbLine
 10
333.4233677971
 20
178.3730807875
 30
0.0
 11
333.4233677971
 21
180.1730807875
 31
0.0
  0
LINE
  5
1E2
330
1F
100
AcDbEntity
  8
SLD-0
  6
Continuous
 62
   179
100
AcDbLine
 10
333.4233677971
 20
172.3730807875
 30
0.0
 11
333.4233677971
 21
173.4730807875
 31
0.0
  0
LINE
  5
1E3
330
1F
100
AcDbEntity
  8
SLD-0
  6
Continuous
 62
   179
100
AcDbLine
 10
333.4233677971
 20
175.3730807875
 30
0.0
 11
333.4233677971
 21
176.4730807875
 31
0.0
  0
LINE
  5
1E4
330
1F
100
AcDbEntity
  8
SLD-0
  6
Continuous
 62
   179
100
AcDbLine
 10
333.4233677971
 20
121.9012535001
 30
0.0
 11
333.4233677971
 21
120.8012535001
 31
0.0
  0
LINE
  5
1E5
330
1F
100
AcDbEntity
  8
SLD-0
  6
Continuous
 62
   179
100
AcDbLine
 10
333.4233677971
 20
124.9012535001
 30
0.0
 11
333.4233677971
 21
123.8012535001
 31
0.0
  0
LINE
  5
1E6
330
1F
100
AcDbEntity
  8
SLD-0
  6
Continuous
 62
   179
100
AcDbLine
 10
333.4233677971
 20
118.9012535001
 30
0.0
 11
333.4233677971
 21
117.1012535001
 31
0.0
  0
LINE
  5
1E7
330
1F
100
AcDbEntity
  8
SLD-0
  6
CENTER
 62
   179
100
AcDbLine
 10
328.9008459994
 20
148.6371671438
 30
0.0
 11
302.5658109812
 21
148.6371671438
 31
0.0
  0
LINE
  5
1E8
330
1F
100
AcDbEntity
  8
SLD-0
  6
CENTER
 62
   179
100
AcDbLine
 10
315.9233677971
 20
136.703923246
 30
0.0
 11
315.9233677971
 21
161.7032248786
 31
0.0
  0
LINE
  5
1E9
330
1F
100
AcDbEntity
  8
SLD-0
  6
Continuous
 62
   179
100
AcDbLine
 10
313.0176093432
 20
139.0686475191
 30
0.0
 11
313.5235447246
 21
141.0232689981
 31
0.0
  0
LINE
  5
1EA
330
1F
100
AcDbEntity
  8
SLD-0
  6
Continuous
 62
   179
100
AcDbLine
 10
318.829126251
 20
139.0686475191
 30
0.0
 11
318.3231908695
 21
141.0232689981
 31
0.0
  0
LINE
  5
1EB
330
1F
100
AcDbEntity
  8
SLD-0
  6
Continuous
 62
   179
100
AcDbLine
 10
145.4233983146
 20
256.1371671438
 30
0.0
 11
152.1233800041
 21
256.1371671438
 31
0.0
  0
LINE
  5
1EC
330
1F
100
AcDbEntity
  8
SLD-0
  6
Continuous
 62
   179
100
AcDbLine
 10
145.4233983146
 20
244.1371671438
 30
0.0
 11
152.1233800041
 21
244.1371671438
 31
0.0
  0
LINE
  5
1ED
330
1F
100
AcDbEntity
  8
SLD-0
  6
CENTER
 62
   179
100
AcDbLine
 10
135.4233983146
 20
250.1371671438
 30
0.0
 11
274.6328099357
 21
250.1371671438
 31
0.0
  0
LINE
  5
1EE
330
1F
100
AcDbEntity
  8
SLD-0
  6
Continuous
 62
   179
100
AcDbLine
 10
135.4233983146
 20
263.1371671438
 30
0.0
 11
145.4233983146
 21
263.1371671438
 31
0.0
  0
LINE
  5
1EF
330
1F
100
AcDbEntity
  8
SLD-0
  6
Continuous
 62
   179
100
AcDbLine
 10
135.4233983146
 20
237.1371671438
 30
0.0
 11
145.4233983146
 21
237.1371671438
 31
0.0
  0
LINE
  5
1F0
330
1F
100
AcDbEntity
  8
SLD-0
  6
Continuous
 62
   179
100
AcDbLine
 10
135.4233983146
 20
237.1371671438
 30
0.0
 11
135.4233983146
 21
263.1371671438
 31
0.0
  0
LINE
  5
1F1
330
1F
100
AcDbEntity
  8
SLD-0
  6
Continuous
 62
   179
100
AcDbLine
 10
145.4233983146
 20
237.1371671438
 30
0.0
 11
145.4233983146
 21
263.1371671438
 31
0.0
  0
LINE
  5
1F2
330
1F
100
AcDbEntity
  8
SLD-0
  6
CENTER
 62
   179
100
AcDbLine
 10
242.4233677971
 20
232.5971891165
 30
0.0
 11
242.4233677971
 21
243.1771756887
 31
0.0
  0
LINE
  5
1F3
330
1F
100
AcDbEntity
  8
SLD-0
  6
CENTER
 62
   179
100
AcDbLine
 10
157.4233677971
 20
232.5971891165
 30
0.0
 11
157.4233677971
 21
243.1771756887
 31
0.0
  0
LINE
  5
1F4
330
1F
100
AcDbEntity
  8
SLD-0
  6
CENTER
 62
   179
100
AcDbLine
 10
237.3833897697
 20
238.1371671438
 30
0.0
 11
247.463376342
 21
238.1371671438
 31
0.0
  0
LINE
  5
1F5
330
1F
100
AcDbEntity
  8
SLD-0
  6
CENTER
 62
   179
100
AcDbLine
 10
152.3833897697
 20
238.1371671438
 30
0.0
 11
162.463376342
 21
238.1371671438
 31
0.0
  0
LINE
  5
1F6
330
1F
100
AcDbEntity
  8
SLD-0
  6
CENTER
 62
   179
100
AcDbLine
 10
242.4233677971
 20
257.0971891165
 30
0.0
 11
242.4233677971
 21
267.6771756887
 31
0.0
  0
LINE
  5
1F7
330
1F
100
AcDbEntity
  8
SLD-0
  6
CENTER
 62
   179
100
AcDbLine
 10
157.4233677971
 20
257.0971891165
 30
0.0
 11
157.4233677971
 21
267.6771756887
 31
0.0
  0
LINE
  5
1F8
330
1F
100
AcDbEntity
  8
SLD-0
  6
CENTER
 62
   179
100
AcDbLine
 10
152.3833897697
 20
262.1371671438
 30
0.0
 11
162.463376342
 21
262.1371671438
 31
0.0
  0
LINE
  5
1F9
330
1F
100
AcDbEntity
  8
SLD-0
  6
CENTER
 62
   179
100
AcDbLine
 10
237.3833897697
 20
262.1371671438
 30
0.0
 11
247.463376342
 21
262.1371671438
 31
0.0
  0
LINE
  5
1FA
330
1F
100
AcDbEntity
  8
SLD-0
  6
Continuous
 62
   179
100
AcDbLine
 10
264.4233677971
 20
232.6371671438
 30
0.0
 11
264.4233677971
 21
267.6371976614
 31
0.0
  0
LINE
  5
1FB
330
1F
100
AcDbEntity
  8
SLD-0
  6
Continuous
 62
   179
100
AcDbLine
 10
152.4233677971
 20
232.6371671438
 30
0.0
 11
152.4233677971
 21
267.6371976614
 31
0.0
  0
LINE
  5
1FC
330
1F
100
AcDbEntity
  8
SLD-0
  6
Continuous
 62
   179
100
AcDbLine
 10
152.4233677971
 20
267.6371976614
 30
0.0
 11
264.4233677971
 21
267.6371976614
 31
0.0
  0
LINE
  5
1FD
330
1F
100
AcDbEntity
  8
SLD-0
  6
Continuous
 62
   179
100
AcDbLine
 10
152.4233677971
 20
232.6371671438
 30
0.0
 11
264.4233677971
 21
232.6371671438
 31
0.0
  0
LINE
  5
1FE
330
1F
100
AcDbEntity
  8
SLD-0
  6
HIDDEN
 62
   179
100
AcDbLine
 10
264.4233677971
 20
237.6371671438
 30
0.0
 11
264.4233677971
 21
242.6371671438
 31
0.0
  0
LINE
  5
1FF
330
1F
100
AcDbEntity
  8
SLD-0
  6
Continuous
 62
   179
100
AcDbLine
 10
152.4233677971
 20
265.6371976614
 30
0.0
 11
264.4233677971
 21
265.6371976614
 31
0.0
  0
LINE
  5
200
330
1F
100
AcDbEntity
  8
SLD-0
  6
Continuous
 62
   179
100
AcDbLine
 10
152.4233677971
 20
234.6371671438
 30
0.0
 11
264.4233677971
 21
234.6371671438
 31
0.0
  0
LINE
  5
201
330
1F
100
AcDbEntity
  8
SLD-0
  6
Continuous
 62
   179
100
AcDbLine
 10
135.4233983146
 20
261.1371671438
 30
0.0
 11
145.4233983146
 21
261.1371671438
 31
0.0
  0
LINE
  5
202
330
1F
100
AcDbEntity
  8
SLD-0
  6
Continuous
 62
   179
100
AcDbLine
 10
135.4233983146
 20
239.1371671438
 30
0.0
 11
145.4233983146
 21
239.1371671438
 31
0.0
  0
LINE
  5
203
330
1F
100
AcDbEntity
  8
SLD-0
  6
Continuous
 62
   179
100
AcDbLine
 10
271.9233677971
 20
256.1371671438
 30
0.0
 11
271.9233677971
 21
244.1371671438
 31
0.0
  0
LINE
  5
204
330
1F
100
AcDbEntity
  8
SLD-0
  6
Continuous
 62
   179
100
AcDbLine
 10
264.4233677971
 20
256.1371671438
 30
0.0
 11
271.9233677971
 21
256.1371671438
 31
0.0
  0
LINE
  5
205
330
1F
100
AcDbEntity
  8
SLD-0
  6
Continuous
 62
   179
100
AcDbLine
 10
271.9233677971
 20
244.1371671438
 30
0.0
 11
264.4233677971
 21
244.1371671438
 31
0.0
  0
LINE
  5
206
330
1F
100
AcDbEntity
  8
SLD-0
  6
PHANTOM
 62
   179
100
AcDbLine
 10
70.4233983146
 20
53.6371595144
 30
0.0
 11
133.1835739265
 21
53.6371595144
 31
0.0
  0
LINE
  5
207
330
1F
100
AcDbEntity
  8
SLD-0
  6
PHANTOM
 62
   179
100
AcDbLine
 10
70.4233983146
 20
65.637151885
 30
0.0
 11
133.1835739265
 21
65.637151885
 31
0.0
  0
LINE
  5
208
330
1F
100
AcDbEntity
  8
SLD-0
  6
PHANTOM
 62
   179
100
AcDbLine
 10
60.4233983146
 20
46.6371595144
 30
0.0
 11
70.4233983146
 21
46.6371595144
 31
0.0
  0
LINE
  5
209
330
1F
100
AcDbEntity
  8
SLD-0
  6
PHANTOM
 62
   179
100
AcDbLine
 10
60.4233983146
 20
72.6371442556
 30
0.0
 11
70.4233983146
 21
72.6371442556
 31
0.0
  0
LINE
  5
20A
330
1F
100
AcDbEntity
  8
SLD-0
  6
PHANTOM
 62
   179
100
AcDbLine
 10
60.4233983146
 20
72.6371442556
 30
0.0
 11
60.4233983146
 21
46.6371595144
 31
0.0
  0
LINE
  5
20B
330
1F
100
AcDbEntity
  8
SLD-0
  6
PHANTOM
 62
   179
100
AcDbLine
 10
70.4233983146
 20
72.6371442556
 30
0.0
 11
70.4233983146
 21
46.6371595144
 31
0.0
  0
LINE
  5
20C
330
1F
100
AcDbEntity
  8
SLD-0
  6
PHANTOM
 62
   179
100
AcDbLine
 10
60.4233983146
 20
70.637151885
 30
0.0
 11
70.4233983146
 21
70.637151885
 31
0.0
  0
LINE
  5
20D
330
1F
100
AcDbEntity
  8
SLD-0
  6
PHANTOM
 62
   179
100
AcDbLine
 10
60.4233983146
 20
48.6371595144
 30
0.0
 11
70.4233983146
 21
48.6371595144
 31
0.0
  0
LINE
  5
20E
330
1F
100
AcDbEntity
  8
SLD-0
  6
CENTER
 62
   179
100
AcDbLine
 10
170.4633800041
 20
134.637151885
 30
0.0
 11
160.3833800041
 21
134.637151885
 31
0.0
  0
LINE
  5
20F
330
1F
100
AcDbEntity
  8
SLD-0
  6
CENTER
 62
   179
100
AcDbLine
 10
165.4233800041
 20
139.677151885
 30
0.0
 11
165.4233800041
 21
129.597151885
 31
0.0
  0
LINE
  5
210
330
1F
100
AcDbEntity
  8
SLD-0
  6
Continuous
 62
   179
100
AcDbLine
 10
264.4233677971
 20
121.637151885
 30
0.0
 11
271.9233677971
 21
121.637151885
 31
0.0
  0
LINE
  5
211
330
1F
100
AcDbEntity
  8
SLD-0
  6
CENTER
 62
   179
100
AcDbLine
 10
133.2723968772
 20
175.6371671438
 30
0.0
 11
276.7439381931
 21
175.6371671438
 31
0.0
  0
LINE
  5
212
330
1F
100
AcDbEntity
  8
SLD-0
  6
CENTER
 62
   179
100
AcDbLine
 10
133.2723968772
 20
121.6371671438
 30
0.0
 11
276.7439381931
 21
121.6371671438
 31
0.0
  0
LINE
  5
213
330
1F
100
AcDbEntity
  8
SLD-0
  6
Continuous
 62
   179
100
AcDbLine
 10
17.075
 20
12.0
 30
0.0
 11
402.875
 21
12.0
 31
0.0
  0
LINE
  5
214
330
1F
100
AcDbEntity
  8
SLD-0
  6
Continuous
 62
   179
100
AcDbLine
 10
402.875
 20
285.0
 30
0.0
 11
402.875
 21
12.0
 31
0.0
  0
LINE
  5
215
330
1F
100
AcDbEntity
  8
SLD-0
  6
Continuous
 62
   179
100
AcDbLine
 10
17.075
 20
285.0
 30
0.0
 11
17.075
 21
12.0
 31
0.0
  0
LINE
  5
216
330
1F
100
AcDbEntity
  8
SLD-0
  6
Continuous
 62
   179
100
AcDbLine
 10
17.075
 20
285.0
 30
0.0
 11
402.875
 21
285.0
 31
0.0
  0
LINE
  5
217
330
1F
100
AcDbEntity
  8
SLD-0
  6
Continuous
 62
   179
100
AcDbLine
 10
334.375
 20
50.7
 30
0.0
 11
334.375
 21
12.0
 31
0.0
  0
LINE
  5
218
330
1F
100
AcDbEntity
  8
SLD-0
  6
Continuous
 62
   179
100
AcDbLine
 10
334.375
 20
24.7
 30
0.0
 11
402.875
 21
24.7
 31
0.0
  0
LINE
  5
219
330
1F
100
AcDbEntity
  8
SLD-0
  6
Continuous
 62
   179
100
AcDbLine
 10
334.375
 20
37.2
 30
0.0
 11
402.875
 21
37.2
 31
0.0
  0
LINE
  5
21A
330
1F
100
AcDbEntity
  8
SLD-0
  6
Continuous
 62
   179
100
AcDbLine
 10
334.375
 20
50.7
 30
0.0
 11
402.875
 21
50.7
 31
0.0
  0
LINE
  5
21B
330
1F
100
AcDbEntity
  8
SLD-0
  6
Continuous
 62
   179
100
AcDbLine
 10
17.275
 20
12.2
 30
0.0
 11
402.675
 21
12.2
 31
0.0
  0
LINE
  5
21C
330
1F
100
AcDbEntity
  8
SLD-0
  6
Continuous
 62
   179
100
AcDbLine
 10
17.275
 20
284.8
 30
0.0
 11
17.275
 21
12.2
 31
0.0
  0
LINE
  5
21D
330
1F
100
AcDbEntity
  8
SLD-0
  6
Continuous
 62
   179
100
AcDbLine
 10
17.275
 20
284.8
 30
0.0
 11
402.675
 21
284.8
 31
0.0
  0
LINE
  5
21E
330
1F
100
AcDbEntity
  8
SLD-0
  6
Continuous
 62
   179
100
AcDbLine
 10
402.675
 20
284.8
 30
0.0
 11
402.675
 21
12.2
 31
0.0
  0
CIRCLE
  5
21F
330
1F
100
AcDbEntity
  8
SLD-0
  6
Continuous
 62
   179
100
AcDbCircle
 10
84.2310460197
 20
116.637151885
 30
0.0
 40
2.5
  0
CIRCLE
  5
220
330
1F
100
AcDbEntity
  8
SLD-0
  6
Continuous
 62
   179
100
AcDbCircle
 10
84.2310460197
 20
116.637151885
 30
0.0
 40
2.0
  0
CIRCLE
  5
221
330
1F
100
AcDbEntity
  8
SLD-0
  6
Continuous
 62
   179
100
AcDbCircle
 10
68.2310460197
 20
116.637151885
 30
0.0
 40
2.5
  0
CIRCLE
  5
222
330
1F
100
AcDbEntity
  8
SLD-0
  6
Continuous
 62
   179
100
AcDbCircle
 10
68.2310460197
 20
116.637151885
 30
0.0
 40
2.0
  0
CIRCLE
  5
223
330
1F
100
AcDbEntity
  8
SLD-0
  6
Continuous
 62
   179
100
AcDbCircle
 10
68.2310460197
 20
180.6371671438
 30
0.0
 40
2.5
  0
CIRCLE
  5
224
330
1F
100
AcDbEntity
  8
SLD-0
  6
Continuous
 62
   179
100
AcDbCircle
 10
68.2310460197
 20
180.6371671438
 30
0.0
 40
2.0
  0
CIRCLE
  5
225
330
1F
100
AcDbEntity
  8
SLD-0
  6
Continuous
 62
   179
100
AcDbCircle
 10
84.2310460197
 20
180.6371671438
 30
0.0
 40
2.5
  0
CIRCLE
  5
226
330
1F
100
AcDbEntity
  8
SLD-0
  6
Continuous
 62
   179
100
AcDbCircle
 10
84.2310460197
 20
180.6371671438
 30
0.0
 40
2.0
  0
ARC
  5
227
330
1F
100
AcDbEntity
  8
SLD-0
  6
Continuous
 62
   179
100
AcDbCircle
 10
58.9310460197
 20
172.3730807875
 30
0.0
 40
0.2000000000000455
100
AcDbArc
 50
180.0
 51
270.0
  0
ARC
  5
228
330
1F
100
AcDbEntity
  8
SLD-0
  6
Continuous
 62
   179
100
AcDbCircle
 10
59.0310460197
 20
168.9730807875
 30
0.0
 40
0.2000000000001023
100
AcDbArc
 50
0.0
 51
90.0
  0
ARC
  5
229
330
1F
100
AcDbEntity
  8
SLD-0
  6
Continuous
 62
   179
100
AcDbCircle
 10
58.9310460197
 20
167.4730807875
 30
0.0
 40
0.2000000000001023
100
AcDbArc
 50
90.0
 51
180.0
  0
ARC
  5
22A
330
1F
100
AcDbEntity
  8
SLD-0
  6
Continuous
 62
   179
100
AcDbCircle
 10
58.9310460197
 20
173.4730807875
 30
0.0
 40
0.2000000000000739
100
AcDbArc
 50
90.0
 51
180.0
  0
ARC
  5
22B
330
1F
100
AcDbEntity
  8
SLD-0
  6
Continuous
 62
   179
100
AcDbCircle
 10
59.0310460197
 20
167.8730807875
 30
0.0
 40
0.2000000000000455
100
AcDbArc
 50
270.0
 51
0.0
  0
ARC
  5
22C
330
1F
100
AcDbEntity
  8
SLD-0
  6
Continuous
 62
   179
100
AcDbCircle
 10
59.0310460197
 20
170.8730807875
 30
0.0
 40
0.2000000000000455
100
AcDbArc
 50
270.0
 51
0.0
  0
ARC
  5
22D
330
1F
100
AcDbEntity
  8
SLD-0
  6
Continuous
 62
   179
100
AcDbCircle
 10
59.0310460197
 20
177.9730807875
 30
0.0
 40
0.2000000000001023
100
AcDbArc
 50
0.0
 51
90.0
  0
ARC
  5
22E
330
1F
100
AcDbEntity
  8
SLD-0
  6
Continuous
 62
   179
100
AcDbCircle
 10
59.0310460197
 20
171.9730807875
 30
0.0
 40
0.2000000000000739
100
AcDbArc
 50
0.0
 51
90.0
  0
ARC
  5
22F
330
1F
100
AcDbEntity
  8
SLD-0
  6
Continuous
 62
   179
100
AcDbCircle
 10
58.9310460197
 20
178.3730807875
 30
0.0
 40
0.2000000000000455
100
AcDbArc
 50
180.0
 51
270.0
  0
ARC
  5
230
330
1F
100
AcDbEntity
  8
SLD-0
  6
Continuous
 62
   179
100
AcDbCircle
 10
59.0310460197
 20
173.8730807875
 30
0.0
 40
0.2000000000000455
100
AcDbArc
 50
270.0
 51
0.0
  0
ARC
  5
231
330
1F
100
AcDbEntity
  8
SLD-0
  6
Continuous
 62
   179
100
AcDbCircle
 10
58.9310460197
 20
169.3730807875
 30
0.0
 40
0.2000000000000455
100
AcDbArc
 50
180.0
 51
270.0
  0
ARC
  5
232
330
1F
100
AcDbEntity
  8
SLD-0
  6
Continuous
 62
   179
100
AcDbCircle
 10
58.9310460197
 20
170.4730807875
 30
0.0
 40
0.2000000000000739
100
AcDbArc
 50
90.0
 51
180.0
  0
ARC
  5
233
330
1F
100
AcDbEntity
  8
SLD-0
  6
Continuous
 62
   179
100
AcDbCircle
 10
93.5310460197
 20
170.4730807875
 30
0.0
 40
0.2000000000000739
100
AcDbArc
 50
0.0
 51
90.0
  0
ARC
  5
234
330
1F
100
AcDbEntity
  8
SLD-0
  6
Continuous
 62
   179
100
AcDbCircle
 10
93.5310460197
 20
176.4730807875
 30
0.0
 40
0.2000000000001023
100
AcDbArc
 50
0.0
 51
90.0
  0
ARC
  5
235
330
1F
100
AcDbEntity
  8
SLD-0
  6
Continuous
 62
   179
100
AcDbCircle
 10
93.5310460197
 20
169.3730807875
 30
0.0
 40
0.2000000000000455
100
AcDbArc
 50
270.0
 51
0.0
  0
ARC
  5
236
330
1F
100
AcDbEntity
  8
SLD-0
  6
Continuous
 62
   179
100
AcDbCircle
 10
93.4310460197
 20
173.8730807875
 30
0.0
 40
0.2000000000000455
100
AcDbArc
 50
180.0
 51
270.0
  0
ARC
  5
237
330
1F
100
AcDbEntity
  8
SLD-0
  6
Continuous
 62
   179
100
AcDbCircle
 10
93.5310460197
 20
178.3730807875
 30
0.0
 40
0.2000000000000455
100
AcDbArc
 50
270.0
 51
0.0
  0
ARC
  5
238
330
1F
100
AcDbEntity
  8
SLD-0
  6
Continuous
 62
   179
100
AcDbCircle
 10
93.4310460197
 20
176.8730807875
 30
0.0
 40
0.2000000000000455
100
AcDbArc
 50
180.0
 51
270.0
  0
ARC
  5
239
330
1F
100
AcDbEntity
  8
SLD-0
  6
Continuous
 62
   179
100
AcDbCircle
 10
93.4310460197
 20
171.9730807875
 30
0.0
 40
0.2000000000000739
100
AcDbArc
 50
90.0
 51
180.0
  0
ARC
  5
23A
330
1F
100
AcDbEntity
  8
SLD-0
  6
Continuous
 62
   179
100
AcDbCircle
 10
93.4310460197
 20
177.9730807875
 30
0.0
 40
0.2000000000001023
100
AcDbArc
 50
90.0
 51
180.0
  0
ARC
  5
23B
330
1F
100
AcDbEntity
  8
SLD-0
  6
Continuous
 62
   179
100
AcDbCircle
 10
93.4310460197
 20
174.9730807875
 30
0.0
 40
0.2000000000001023
100
AcDbArc
 50
90.0
 51
180.0
  0
ARC
  5
23C
330
1F
100
AcDbEntity
  8
SLD-0
  6
Continuous
 62
   179
100
AcDbCircle
 10
93.4310460197
 20
170.8730807875
 30
0.0
 40
0.2000000000000455
100
AcDbArc
 50
180.0
 51
270.0
  0
ARC
  5
23D
330
1F
100
AcDbEntity
  8
SLD-0
  6
Continuous
 62
   179
100
AcDbCircle
 10
93.5310460197
 20
175.3730807875
 30
0.0
 40
0.2000000000000455
100
AcDbArc
 50
270.0
 51
0.0
  0
ARC
  5
23E
330
1F
100
AcDbEntity
  8
SLD-0
  6
Continuous
 62
   179
100
AcDbCircle
 10
93.4310460197
 20
167.8730807875
 30
0.0
 40
0.2000000000000455
100
AcDbArc
 50
180.0
 51
270.0
  0
ARC
  5
23F
330
1F
100
AcDbEntity
  8
SLD-0
  6
Continuous
 62
   179
100
AcDbCircle
 10
93.5310460197
 20
173.4730807875
 30
0.0
 40
0.2000000000000739
100
AcDbArc
 50
0.0
 51
90.0
  0
ARC
  5
240
330
1F
100
AcDbEntity
  8
SLD-0
  6
Continuous
 62
   179
100
AcDbCircle
 10
93.5310460197
 20
167.4730807875
 30
0.0
 40
0.2000000000001023
100
AcDbArc
 50
0.0
 51
90.0
  0
ARC
  5
241
330
1F
100
AcDbEntity
  8
SLD-0
  6
Continuous
 62
   179
100
AcDbCircle
 10
93.4310460197
 20
168.9730807875
 30
0.0
 40
0.2000000000001023
100
AcDbArc
 50
90.0
 51
180.0
  0
ARC
  5
242
330
1F
100
AcDbEntity
  8
SLD-0
  6
Continuous
 62
   179
100
AcDbCircle
 10
93.5310460197
 20
172.3730807875
 30
0.0
 40
0.2000000000000455
100
AcDbArc
 50
270.0
 51
0.0
  0
ARC
  5
243
330
1F
100
AcDbEntity
  8
SLD-0
  6
Continuous
 62
   179
100
AcDbCircle
 10
63.2310444299
 20
153.0871597251
 30
0.0
 40
2.049999952316284
100
AcDbArc
 50
90.0
 51
130.007762257
  0
ARC
  5
244
330
1F
100
AcDbEntity
  8
SLD-0
  6
Continuous
 62
   179
100
AcDbCircle
 10
63.2310444299
 20
144.1871698214
 30
0.0
 40
2.049999952316296
100
AcDbArc
 50
90.0
 51
130.0077588419
  0
ARC
  5
245
330
1F
100
AcDbEntity
  8
SLD-0
  6
Continuous
 62
   179
100
AcDbCircle
 10
58.9310460197
 20
124.9012535001
 30
0.0
 40
0.2000000000000455
100
AcDbArc
 50
90.0
 51
180.0
  0
ARC
  5
246
330
1F
100
AcDbEntity
  8
SLD-0
  6
Continuous
 62
   179
100
AcDbCircle
 10
59.0310460197
 20
128.3012535001
 30
0.0
 40
0.2000000000000455
100
AcDbArc
 50
270.0
 51
0.0
  0
ARC
  5
247
330
1F
100
AcDbEntity
  8
SLD-0
  6
Continuous
 62
   179
100
AcDbCircle
 10
58.9310460197
 20
129.8012535001
 30
0.0
 40
0.2000000000000455
100
AcDbArc
 50
180.0
 51
270.0
  0
ARC
  5
248
330
1F
100
AcDbEntity
  8
SLD-0
  6
Continuous
 62
   179
100
AcDbCircle
 10
58.9310460197
 20
123.8012535001
 30
0.0
 40
0.2000000000000455
100
AcDbArc
 50
180.0
 51
270.0
  0
ARC
  5
249
330
1F
100
AcDbEntity
  8
SLD-0
  6
Continuous
 62
   179
100
AcDbCircle
 10
59.0310460197
 20
129.4012535001
 30
0.0
 40
0.2000000000000455
100
AcDbArc
 50
0.0
 51
90.0
  0
ARC
  5
24A
330
1F
100
AcDbEntity
  8
SLD-0
  6
Continuous
 62
   179
100
AcDbCircle
 10
59.0310460197
 20
126.4012535001
 30
0.0
 40
0.2000000000000455
100
AcDbArc
 50
0.0
 51
90.0
  0
ARC
  5
24B
330
1F
100
AcDbEntity
  8
SLD-0
  6
Continuous
 62
   179
100
AcDbCircle
 10
59.0310460197
 20
119.3012535001
 30
0.0
 40
0.2000000000000455
100
AcDbArc
 50
270.0
 51
0.0
  0
ARC
  5
24C
330
1F
100
AcDbEntity
  8
SLD-0
  6
Continuous
 62
   179
100
AcDbCircle
 10
59.0310460197
 20
125.3012535001
 30
0.0
 40
0.2000000000000455
100
AcDbArc
 50
270.0
 51
0.0
  0
ARC
  5
24D
330
1F
100
AcDbEntity
  8
SLD-0
  6
Continuous
 62
   179
100
AcDbCircle
 10
58.9310460197
 20
118.9012535001
 30
0.0
 40
0.2000000000000455
100
AcDbArc
 50
90.0
 51
180.0
  0
ARC
  5
24E
330
1F
100
AcDbEntity
  8
SLD-0
  6
Continuous
 62
   179
100
AcDbCircle
 10
59.0310460197
 20
123.4012535001
 30
0.0
 40
0.2000000000000455
100
AcDbArc
 50
0.0
 51
90.0
  0
ARC
  5
24F
330
1F
100
AcDbEntity
  8
SLD-0
  6
Continuous
 62
   179
100
AcDbCircle
 10
58.9310460197
 20
127.9012535001
 30
0.0
 40
0.2000000000000455
100
AcDbArc
 50
90.0
 51
180.0
  0
ARC
  5
250
330
1F
100
AcDbEntity
  8
SLD-0
  6
Continuous
 62
   179
100
AcDbCircle
 10
58.9310460197
 20
126.8012535001
 30
0.0
 40
0.2000000000000455
100
AcDbArc
 50
180.0
 51
270.0
  0
ARC
  5
251
330
1F
100
AcDbEntity
  8
SLD-0
  6
Continuous
 62
   179
100
AcDbCircle
 10
93.5310460197
 20
126.8012535001
 30
0.0
 40
0.2000000000000455
100
AcDbArc
 50
270.0
 51
0.0
  0
ARC
  5
252
330
1F
100
AcDbEntity
  8
SLD-0
  6
Continuous
 62
   179
100
AcDbCircle
 10
93.5310460197
 20
120.8012535001
 30
0.0
 40
0.2000000000000455
100
AcDbArc
 50
270.0
 51
0.0
  0
ARC
  5
253
330
1F
100
AcDbEntity
  8
SLD-0
  6
Continuous
 62
   179
100
AcDbCircle
 10
93.5310460197
 20
127.9012535001
 30
0.0
 40
0.2000000000000455
100
AcDbArc
 50
0.0
 51
90.0
  0
ARC
  5
254
330
1F
100
AcDbEntity
  8
SLD-0
  6
Continuous
 62
   179
100
AcDbCircle
 10
93.4310460197
 20
123.4012535001
 30
0.0
 40
0.2000000000000455
100
AcDbArc
 50
90.0
 51
180.0
  0
ARC
  5
255
330
1F
100
AcDbEntity
  8
SLD-0
  6
Continuous
 62
   179
100
AcDbCircle
 10
93.5310460197
 20
118.9012535001
 30
0.0
 40
0.2000000000000455
100
AcDbArc
 50
0.0
 51
90.0
  0
ARC
  5
256
330
1F
100
AcDbEntity
  8
SLD-0
  6
Continuous
 62
   179
100
AcDbCircle
 10
93.4310460197
 20
120.4012535001
 30
0.0
 40
0.2000000000000455
100
AcDbArc
 50
90.0
 51
180.0
  0
ARC
  5
257
330
1F
100
AcDbEntity
  8
SLD-0
  6
Continuous
 62
   179
100
AcDbCircle
 10
93.4310460197
 20
125.3012535001
 30
0.0
 40
0.2000000000000455
100
AcDbArc
 50
180.0
 51
270.0
  0
ARC
  5
258
330
1F
100
AcDbEntity
  8
SLD-0
  6
Continuous
 62
   179
100
AcDbCircle
 10
93.4310460197
 20
119.3012535001
 30
0.0
 40
0.2000000000000455
100
AcDbArc
 50
180.0
 51
270.0
  0
ARC
  5
259
330
1F
100
AcDbEntity
  8
SLD-0
  6
Continuous
 62
   179
100
AcDbCircle
 10
93.4310460197
 20
122.3012535001
 30
0.0
 40
0.2000000000000455
100
AcDbArc
 50
180.0
 51
270.0
  0
ARC
  5
25A
330
1F
100
AcDbEntity
  8
SLD-0
  6
Continuous
 62
   179
100
AcDbCircle
 10
93.4310460197
 20
126.4012535001
 30
0.0
 40
0.2000000000000455
100
AcDbArc
 50
90.0
 51
180.0
  0
ARC
  5
25B
330
1F
100
AcDbEntity
  8
SLD-0
  6
Continuous
 62
   179
100
AcDbCircle
 10
93.5310460197
 20
121.9012535001
 30
0.0
 40
0.2000000000000455
100
AcDbArc
 50
0.0
 51
90.0
  0
ARC
  5
25C
330
1F
100
AcDbEntity
  8
SLD-0
  6
Continuous
 62
   179
100
AcDbCircle
 10
93.4310460197
 20
129.4012535001
 30
0.0
 40
0.2000000000000455
100
AcDbArc
 50
90.0
 51
180.0
  0
ARC
  5
25D
330
1F
100
AcDbEntity
  8
SLD-0
  6
Continuous
 62
   179
100
AcDbCircle
 10
93.5310460197
 20
123.8012535001
 30
0.0
 40
0.2000000000000455
100
AcDbArc
 50
270.0
 51
0.0
  0
ARC
  5
25E
330
1F
100
AcDbEntity
  8
SLD-0
  6
Continuous
 62
   179
100
AcDbCircle
 10
93.5310460197
 20
129.8012535001
 30
0.0
 40
0.2000000000000455
100
AcDbArc
 50
270.0
 51
0.0
  0
ARC
  5
25F
330
1F
100
AcDbEntity
  8
SLD-0
  6
Continuous
 62
   179
100
AcDbCircle
 10
93.4310460197
 20
128.3012535001
 30
0.0
 40
0.2000000000000455
100
AcDbArc
 50
180.0
 51
270.0
  0
ARC
  5
260
330
1F
100
AcDbEntity
  8
SLD-0
  6
Continuous
 62
   179
100
AcDbCircle
 10
93.5310460197
 20
124.9012535001
 30
0.0
 40
0.2000000000000455
100
AcDbArc
 50
0.0
 51
90.0
  0
ARC
  5
261
330
1F
100
AcDbEntity
  8
SLD-0
  6
Continuous
 62
   179
100
AcDbCircle
 10
60.5310338127
 20
151.2871625602
 30
0.0
 40
0.3000015318393707
100
AcDbArc
 50
90.0
 51
180.0
  0
ARC
  5
262
330
1F
100
AcDbEntity
  8
SLD-0
  6
Continuous
 62
   179
100
AcDbCircle
 10
60.5310338127
 20
142.3871686637
 30
0.0
 40
0.3000015318393139
100
AcDbArc
 50
90.0
 51
180.0
  0
ARC
  5
263
330
1F
100
AcDbEntity
  8
SLD-0
  6
Continuous
 62
   179
100
AcDbCircle
 10
59.2310460197
 20
155.6371671438
 30
0.0
 40
1.0
100
AcDbArc
 50
0.0
 51
90.0
  0
ARC
  5
264
330
1F
100
AcDbEntity
  8
SLD-0
  6
Continuous
 62
   179
100
AcDbCircle
 10
93.2310460197
 20
141.6371671438
 30
0.0
 40
1.0
100
AcDbArc
 50
180.0
 51
270.0
  0
ARC
  5
265
330
1F
100
AcDbEntity
  8
SLD-0
  6
Continuous
 62
   179
100
AcDbCircle
 10
93.2310460197
 20
155.6371671438
 30
0.0
 40
1.0
100
AcDbArc
 50
90.0
 51
180.0
  0
ARC
  5
266
330
1F
100
AcDbEntity
  8
SLD-0
  6
Continuous
 62
   179
100
AcDbCircle
 10
59.2310460197
 20
141.6371671438
 30
0.0
 40
1.0
100
AcDbArc
 50
270.0
 51
0.0
  0
ARC
  5
267
330
1F
100
AcDbEntity
  8
SLD-0
  6
Continuous
 62
   179
100
AcDbCircle
 10
91.9310582267
 20
142.3871686637
 30
0.0
 40
0.3000015318393315
100
AcDbArc
 50
0.0
 51
90.0
  0
ARC
  5
268
330
1F
100
AcDbEntity
  8
SLD-0
  6
Continuous
 62
   179
100
AcDbCircle
 10
91.9310582267
 20
151.2871625602
 30
0.0
 40
0.3000015318393992
100
AcDbArc
 50
360.0
 51
90.0
  0
ARC
  5
269
330
1F
100
AcDbEntity
  8
SLD-0
  6
Continuous
 62
   179
100
AcDbCircle
 10
89.2310476095
 20
144.1871658286
 30
0.0
 40
2.049999952316326
100
AcDbArc
 50
270.0
 51
310.0077604357
  0
ARC
  5
26A
330
1F
100
AcDbEntity
  8
SLD-0
  6
Continuous
 62
   179
100
AcDbCircle
 10
90.7418492424
 20
142.3871646709
 30
0.0
 40
0.3000055246141073
100
AcDbArc
 50
90.0
 51
130.0086116572
  0
ARC
  5
26B
330
1F
100
AcDbEntity
  8
SLD-0
  6
Continuous
 62
   179
100
AcDbCircle
 10
90.7418492424
 20
145.9871669863
 30
0.0
 40
0.3000015318393707
100
AcDbArc
 50
229.9922445732
 51
270.0
  0
ARC
  5
26C
330
1F
100
AcDbEntity
  8
SLD-0
  6
Continuous
 62
   179
100
AcDbCircle
 10
89.2310476095
 20
144.1871658286
 30
0.0
 40
2.050003945077015
100
AcDbArc
 50
49.9921142594
 51
90.0
  0
ARC
  5
26D
330
1F
100
AcDbEntity
  8
SLD-0
  6
Continuous
 62
   179
100
AcDbCircle
 10
91.9310582268
 20
145.9871669863
 30
0.0
 40
0.3000015318393742
100
AcDbArc
 50
270.0
 51
0.0
  0
ARC
  5
26E
330
1F
100
AcDbEntity
  8
SLD-0
  6
Continuous
 62
   179
100
AcDbCircle
 10
89.2310476095
 20
153.0871637179
 30
0.0
 40
2.049999952316284
100
AcDbArc
 50
49.9922395643
 51
90.0
  0
ARC
  5
26F
330
1F
100
AcDbEntity
  8
SLD-0
  6
Continuous
 62
   179
100
AcDbCircle
 10
90.7418492424
 20
151.2871625602
 30
0.0
 40
0.3000015318393707
100
AcDbArc
 50
90.0
 51
130.0077554268
  0
ARC
  5
270
330
1F
100
AcDbEntity
  8
SLD-0
  6
Continuous
 62
   179
100
AcDbCircle
 10
90.7418492423
 20
154.8871648756
 30
0.0
 40
0.3000055246141597
100
AcDbArc
 50
229.9913883428
 51
270.0
  0
ARC
  5
271
330
1F
100
AcDbEntity
  8
SLD-0
  6
Continuous
 62
   179
100
AcDbCircle
 10
89.2310476095
 20
153.0871637179
 30
0.0
 40
2.050003945077037
100
AcDbArc
 50
270.0
 51
310.0078857406
  0
ARC
  5
272
330
1F
100
AcDbEntity
  8
SLD-0
  6
Continuous
 62
   179
100
AcDbCircle
 10
61.7202427971
 20
145.9871709791
 30
0.0
 40
0.3000055246146474
100
AcDbArc
 50
270.0
 51
310.0086225483
  0
ARC
  5
273
330
1F
100
AcDbEntity
  8
SLD-0
  6
Continuous
 62
   179
100
AcDbCircle
 10
61.7202427971
 20
142.3871686637
 30
0.0
 40
0.3000015318393139
100
AcDbArc
 50
49.9922395642
 51
90.0
  0
ARC
  5
274
330
1F
100
AcDbEntity
  8
SLD-0
  6
Continuous
 62
   179
100
AcDbCircle
 10
91.9310582267
 20
154.8871608828
 30
0.0
 40
0.3000015318393173
100
AcDbArc
 50
270.0
 51
360.0
  0
ARC
  5
275
330
1F
100
AcDbEntity
  8
SLD-0
  6
Continuous
 62
   179
100
AcDbCircle
 10
63.2310444299
 20
144.1871698214
 30
0.0
 40
2.050003945076985
100
AcDbArc
 50
229.9921149924
 51
270.0
  0
ARC
  5
276
330
1F
100
AcDbEntity
  8
SLD-0
  6
Continuous
 62
   179
100
AcDbCircle
 10
60.5310338127
 20
145.9871669863
 30
0.0
 40
0.3000015318393781
100
AcDbArc
 50
180.0
 51
270.0
  0
ARC
  5
277
330
1F
100
AcDbEntity
  8
SLD-0
  6
Continuous
 62
   179
100
AcDbCircle
 10
63.2310444299
 20
153.0871597251
 30
0.0
 40
2.049999952316296
100
AcDbArc
 50
229.9922482157
 51
270.0
  0
ARC
  5
278
330
1F
100
AcDbEntity
  8
SLD-0
  6
Continuous
 62
   179
100
AcDbCircle
 10
61.7202427971
 20
151.2871585674
 30
0.0
 40
0.3000055246166085
100
AcDbArc
 50
49.9913292263
 51
90.0
  0
ARC
  5
279
330
1F
100
AcDbEntity
  8
SLD-0
  6
Continuous
 62
   179
100
AcDbCircle
 10
61.7202427971
 20
154.8871608828
 30
0.0
 40
0.3000055246136565
100
AcDbArc
 50
270.0
 51
310.0085992124
  0
ARC
  5
27A
330
1F
100
AcDbEntity
  8
SLD-0
  6
Continuous
 62
   179
100
AcDbCircle
 10
60.5310338127
 20
154.88715689
 30
0.0
 40
0.3000015318393142
100
AcDbArc
 50
180.0
 51
270.0
  0
CIRCLE
  5
27B
330
1F
100
AcDbEntity
  8
SLD-0
  6
Continuous
 62
   179
100
AcDbCircle
 10
234.4233677971
 20
134.637151885
 30
0.0
 40
2.549999952316284
  0
CIRCLE
  5
27C
330
1F
100
AcDbEntity
  8
SLD-0
  6
Continuous
 62
   179
100
AcDbCircle
 10
254.9233677971
 20
134.637151885
 30
0.0
 40
2.500000000000028
  0
CIRCLE
  5
27D
330
1F
100
AcDbEntity
  8
SLD-0
  6
Continuous
 62
   179
100
AcDbCircle
 10
234.4233677971
 20
134.637151885
 30
0.0
 40
4.5
  0
CIRCLE
  5
27E
330
1F
100
AcDbEntity
  8
SLD-0
  6
Continuous
 62
   179
100
AcDbCircle
 10
254.9233677971
 20
134.637151885
 30
0.0
 40
2.066999912261935
  0
CIRCLE
  5
27F
330
1F
100
AcDbEntity
  8
SLD-0
  6
Continuous
 62
   179
100
AcDbCircle
 10
242.4233677971
 20
47.637151885
 30
0.0
 40
2.5
  0
CIRCLE
  5
280
330
1F
100
AcDbEntity
  8
SLD-0
  6
Continuous
 62
   179
100
AcDbCircle
 10
242.4233677971
 20
47.637151885
 30
0.0
 40
2.0
  0
CIRCLE
  5
281
330
1F
100
AcDbEntity
  8
SLD-0
  6
Continuous
 62
   179
100
AcDbCircle
 10
157.4233677971
 20
47.637151885
 30
0.0
 40
2.5
  0
CIRCLE
  5
282
330
1F
100
AcDbEntity
  8
SLD-0
  6
Continuous
 62
   179
100
AcDbCircle
 10
157.4233677971
 20
47.637151885
 30
0.0
 40
2.0
  0
CIRCLE
  5
283
330
1F
100
AcDbEntity
  8
SLD-0
  6
Continuous
 62
   179
100
AcDbCircle
 10
245.9233677971
 20
71.637151885
 30
0.0
 40
3.900000095367432
  0
CIRCLE
  5
284
330
1F
100
AcDbEntity
  8
SLD-0
  6
Continuous
 62
   179
100
AcDbCircle
 10
165.4233677971
 20
71.637151885
 30
0.0
 40
3.900000095367432
  0
CIRCLE
  5
285
330
1F
100
AcDbEntity
  8
SLD-0
  6
Continuous
 62
   179
100
AcDbCircle
 10
234.4233677971
 20
162.6371824026
 30
0.0
 40
2.549999952316284
  0
CIRCLE
  5
286
330
1F
100
AcDbEntity
  8
SLD-0
  6
Continuous
 62
   179
100
AcDbCircle
 10
165.4233800041
 20
134.637151885
 30
0.0
 40
2.5
  0
CIRCLE
  5
287
330
1F
100
AcDbEntity
  8
SLD-0
  6
Continuous
 62
   179
100
AcDbCircle
 10
165.4233800041
 20
134.637151885
 30
0.0
 40
2.066999912261963
  0
CIRCLE
  5
288
330
1F
100
AcDbEntity
  8
SLD-0
  6
Continuous
 62
   179
100
AcDbCircle
 10
174.4233800041
 20
134.637151885
 30
0.0
 40
2.550000000000011
  0
CIRCLE
  5
289
330
1F
100
AcDbEntity
  8
SLD-0
  6
Continuous
 62
   179
100
AcDbCircle
 10
174.4233800041
 20
134.637151885
 30
0.0
 40
4.5
  0
CIRCLE
  5
28A
330
1F
100
AcDbEntity
  8
SLD-0
  6
Continuous
 62
   179
100
AcDbCircle
 10
140.4233983146
 20
165.6371671438
 30
0.0
 40
2.5
  0
CIRCLE
  5
28B
330
1F
100
AcDbEntity
  8
SLD-0
  6
Continuous
 62
   179
100
AcDbCircle
 10
140.4233983146
 20
165.6371671438
 30
0.0
 40
2.0
  0
CIRCLE
  5
28C
330
1F
100
AcDbEntity
  8
SLD-0
  6
Continuous
 62
   179
100
AcDbCircle
 10
140.4233983146
 20
131.6371671438
 30
0.0
 40
2.0
  0
CIRCLE
  5
28D
330
1F
100
AcDbEntity
  8
SLD-0
  6
Continuous
 62
   179
100
AcDbCircle
 10
140.4233983146
 20
131.6371671438
 30
0.0
 40
2.5
  0
CIRCLE
  5
28E
330
1F
100
AcDbEntity
  8
SLD-0
  6
Continuous
 62
   179
100
AcDbCircle
 10
234.4233677971
 20
162.6371824026
 30
0.0
 40
4.5
  0
CIRCLE
  5
28F
330
1F
100
AcDbEntity
  8
SLD-0
  6
Continuous
 62
   179
100
AcDbCircle
 10
174.4233800041
 20
162.6371824026
 30
0.0
 40
4.5
  0
CIRCLE
  5
290
330
1F
100
AcDbEntity
  8
SLD-0
  6
Continuous
 62
   179
100
AcDbCircle
 10
174.4233800041
 20
162.6371824026
 30
0.0
 40
2.550000000000011
  0
CIRCLE
  5
291
330
1F
100
AcDbEntity
  8
SLD-0
  6
Continuous
 62
   179
100
AcDbCircle
 10
76.2310460197
 20
121.637151885
 30
0.0
 40
5.0
  0
CIRCLE
  5
292
330
1F
100
AcDbEntity
  8
SLD-0
  6
Continuous
 62
   179
100
AcDbCircle
 10
76.2310460197
 20
121.637151885
 30
0.0
 40
4.400000000000006
  0
CIRCLE
  5
293
330
1F
100
AcDbEntity
  8
SLD-0
  6
Continuous
 62
   179
100
AcDbCircle
 10
76.2310460197
 20
175.6371671438
 30
0.0
 40
5.0
  0
CIRCLE
  5
294
330
1F
100
AcDbEntity
  8
SLD-0
  6
Continuous
 62
   179
100
AcDbCircle
 10
76.2310460197
 20
175.6371671438
 30
0.0
 40
4.400000000000006
  0
CIRCLE
  5
295
330
1F
100
AcDbEntity
  8
SLD-0
  6
Continuous
 62
   179
100
AcDbCircle
 10
76.2310460197
 20
148.6371671438
 30
0.0
 40
4.25
  0
ARC
  5
296
330
1F
100
AcDbEntity
  8
SLD-0
  6
Continuous
 62
   179
100
AcDbCircle
 10
331.6233800041
 20
151.2871625602
 30
0.0
 40
0.3000015318393992
100
AcDbArc
 50
360.0
 51
90.0
  0
ARC
  5
297
330
1F
100
AcDbEntity
  8
SLD-0
  6
Continuous
 62
   179
100
AcDbCircle
 10
331.6233800041
 20
142.3871686637
 30
0.0
 40
0.3000015318393142
100
AcDbArc
 50
0.0
 51
90.0
  0
ARC
  5
298
330
1F
100
AcDbEntity
  8
SLD-0
  6
Continuous
 62
   179
100
AcDbCircle
 10
332.9233677971
 20
155.6371671438
 30
0.0
 40
1.0
100
AcDbArc
 50
90.0
 51
180.0
  0
ARC
  5
299
330
1F
100
AcDbEntity
  8
SLD-0
  6
Continuous
 62
   179
100
AcDbCircle
 10
298.9233677971
 20
141.6371671438
 30
0.0
 40
1.0
100
AcDbArc
 50
270.0
 51
0.0
  0
ARC
  5
29A
330
1F
100
AcDbEntity
  8
SLD-0
  6
Continuous
 62
   179
100
AcDbCircle
 10
298.9233677971
 20
155.6371671438
 30
0.0
 40
1.0
100
AcDbArc
 50
0.0
 51
90.0
  0
ARC
  5
29B
330
1F
100
AcDbEntity
  8
SLD-0
  6
Continuous
 62
   179
100
AcDbCircle
 10
332.9233677971
 20
141.6371671438
 30
0.0
 40
1.0
100
AcDbArc
 50
180.0
 51
270.0
  0
ARC
  5
29C
330
1F
100
AcDbEntity
  8
SLD-0
  6
Continuous
 62
   179
100
AcDbCircle
 10
300.22335559
 20
142.3871686637
 30
0.0
 40
0.3000015318393139
100
AcDbArc
 50
90.0
 51
180.0
  0
ARC
  5
29D
330
1F
100
AcDbEntity
  8
SLD-0
  6
Continuous
 62
   179
100
AcDbCircle
 10
300.22335559
 20
151.2871625602
 30
0.0
 40
0.3000015318393992
100
AcDbArc
 50
90.0
 51
180.0
  0
ARC
  5
29E
330
1F
100
AcDbEntity
  8
SLD-0
  6
Continuous
 62
   179
100
AcDbCircle
 10
301.4125645744
 20
142.3871686637
 30
0.0
 40
0.3000015318393139
100
AcDbArc
 50
49.9922411581
 51
90.0
  0
ARC
  5
29F
330
1F
100
AcDbEntity
  8
SLD-0
  6
Continuous
 62
   179
100
AcDbCircle
 10
301.4125645744
 20
145.9871770956
 30
0.0
 40
0.3000015318393992
100
AcDbArc
 50
270.0
 51
310.0077554268
  0
ARC
  5
2A0
330
1F
100
AcDbEntity
  8
SLD-0
  6
Continuous
 62
   179
100
AcDbCircle
 10
302.9233687742
 20
144.1871728797
 30
0.0
 40
2.050007937837737
100
AcDbArc
 50
229.9921147592
 51
130.0078857406
  0
ARC
  5
2A1
330
1F
100
AcDbEntity
  8
SLD-0
  6
Continuous
 62
   179
100
AcDbCircle
 10
300.22335559
 20
145.9871770956
 30
0.0
 40
0.3000015318393742
100
AcDbArc
 50
180.0
 51
270.0
  0
ARC
  5
2A2
330
1F
100
AcDbEntity
  8
SLD-0
  6
Continuous
 62
   179
100
AcDbCircle
 10
302.9233662073
 20
153.0871597251
 30
0.0
 40
2.049999952316288
100
AcDbArc
 50
229.9922395643
 51
130.0077604357
  0
ARC
  5
2A3
330
1F
100
AcDbEntity
  8
SLD-0
  6
Continuous
 62
   179
100
AcDbCircle
 10
301.4125645744
 20
151.2871585674
 30
0.0
 40
0.3000055246141941
100
AcDbArc
 50
49.9913883428
 51
90.0
  0
ARC
  5
2A4
330
1F
100
AcDbEntity
  8
SLD-0
  6
Continuous
 62
   179
100
AcDbCircle
 10
301.4125645744
 20
154.8871608828
 30
0.0
 40
0.3000055246140789
100
AcDbArc
 50
270.0
 51
310.0086116572
  0
ARC
  5
2A5
330
1F
100
AcDbEntity
  8
SLD-0
  6
Continuous
 62
   179
100
AcDbCircle
 10
330.4341710197
 20
145.9871770956
 30
0.0
 40
0.3000015318393992
100
AcDbArc
 50
229.9922395643
 51
270.0
  0
CIRCLE
  5
2A6
330
1F
100
AcDbEntity
  8
SLD-0
  6
Continuous
 62
   179
100
AcDbCircle
 10
325.9233677971
 20
182.6371671438
 30
0.0
 40
2.066999912261963
  0
CIRCLE
  5
2A7
330
1F
100
AcDbEntity
  8
SLD-0
  6
Continuous
 62
   179
100
AcDbCircle
 10
325.9233677971
 20
182.6371671438
 30
0.0
 40
2.5
  0
CIRCLE
  5
2A8
330
1F
100
AcDbEntity
  8
SLD-0
  6
Continuous
 62
   179
100
AcDbCircle
 10
305.9233677971
 20
114.6371671438
 30
0.0
 40
2.066999912261906
  0
CIRCLE
  5
2A9
330
1F
100
AcDbEntity
  8
SLD-0
  6
Continuous
 62
   179
100
AcDbCircle
 10
305.9233677971
 20
182.6371671438
 30
0.0
 40
2.5
  0
CIRCLE
  5
2AA
330
1F
100
AcDbEntity
  8
SLD-0
  6
Continuous
 62
   179
100
AcDbCircle
 10
315.9233677971
 20
148.6371671438
 30
0.0
 40
10.0
  0
CIRCLE
  5
2AB
330
1F
100
AcDbEntity
  8
SLD-0
  6
Continuous
 62
   179
100
AcDbCircle
 10
325.9233677971
 20
114.6371671438
 30
0.0
 40
2.5
  0
CIRCLE
  5
2AC
330
1F
100
AcDbEntity
  8
SLD-0
  6
Continuous
 62
   179
100
AcDbCircle
 10
315.9233677971
 20
121.637151885
 30
0.0
 40
7.0
  0
CIRCLE
  5
2AD
330
1F
100
AcDbEntity
  8
SLD-0
  6
Continuous
 62
   179
100
AcDbCircle
 10
325.9233677971
 20
114.6371671438
 30
0.0
 40
2.066999912261963
  0
CIRCLE
  5
2AE
330
1F
100
AcDbEntity
  8
SLD-0
  6
Continuous
 62
   179
100
AcDbCircle
 10
315.9233677971
 20
175.6371671438
 30
0.0
 40
7.0
  0
CIRCLE
  5
2AF
330
1F
100
AcDbEntity
  8
SLD-0
  6
Continuous
 62
   179
100
AcDbCircle
 10
305.9233677971
 20
114.6371671438
 30
0.0
 40
2.5
  0
CIRCLE
  5
2B0
330
1F
100
AcDbEntity
  8
SLD-0
  6
Continuous
 62
   179
100
AcDbCircle
 10
305.9233677971
 20
182.6371671438
 30
0.0
 40
2.066999912261906
  0
ARC
  5
2B1
330
1F
100
AcDbEntity
  8
SLD-0
  6
Continuous
 62
   179
100
AcDbCircle
 10
333.1233677971
 20
129.4012535001
 30
0.0
 40
0.1999999999999318
100
AcDbArc
 50
90.0
 51
180.0
  0
ARC
  5
2B2
330
1F
100
AcDbEntity
  8
SLD-0
  6
Continuous
 62
   179
100
AcDbCircle
 10
333.2233677971
 20
120.8012535001
 30
0.0
 40
0.1999999999999886
100
AcDbArc
 50
270.0
 51
0.0
  0
ARC
  5
2B3
330
1F
100
AcDbEntity
  8
SLD-0
  6
Continuous
 62
   179
100
AcDbCircle
 10
333.1233677971
 20
126.4012535001
 30
0.0
 40
0.1999999999999318
100
AcDbArc
 50
90.0
 51
180.0
  0
ARC
  5
2B4
330
1F
100
AcDbEntity
  8
SLD-0
  6
Continuous
 62
   179
100
AcDbCircle
 10
333.1233677971
 20
125.3012535001
 30
0.0
 40
0.1999999999999318
100
AcDbArc
 50
180.0
 51
270.0
  0
ARC
  5
2B5
330
1F
100
AcDbEntity
  8
SLD-0
  6
Continuous
 62
   179
100
AcDbCircle
 10
333.2233677971
 20
121.9012535001
 30
0.0
 40
0.1999999999999886
100
AcDbArc
 50
0.0
 51
90.0
  0
ARC
  5
2B6
330
1F
100
AcDbEntity
  8
SLD-0
  6
Continuous
 62
   179
100
AcDbCircle
 10
333.1233677971
 20
120.4012535001
 30
0.0
 40
0.1999999999999318
100
AcDbArc
 50
90.0
 51
180.0
  0
ARC
  5
2B7
330
1F
100
AcDbEntity
  8
SLD-0
  6
Continuous
 62
   179
100
AcDbCircle
 10
333.1233677971
 20
122.3012535001
 30
0.0
 40
0.1999999999999318
100
AcDbArc
 50
180.0
 51
270.0
  0
ARC
  5
2B8
330
1F
100
AcDbEntity
  8
SLD-0
  6
Continuous
 62
   179
100
AcDbCircle
 10
333.2233677971
 20
126.8012535001
 30
0.0
 40
0.1999999999999886
100
AcDbArc
 50
270.0
 51
0.0
  0
ARC
  5
2B9
330
1F
100
AcDbEntity
  8
SLD-0
  6
Continuous
 62
   179
100
AcDbCircle
 10
333.2233677971
 20
169.3730807875
 30
0.0
 40
0.2000000000000171
100
AcDbArc
 50
270.0
 51
0.0
  0
ARC
  5
2BA
330
1F
100
AcDbEntity
  8
SLD-0
  6
Continuous
 62
   179
100
AcDbCircle
 10
333.1233677971
 20
123.4012535001
 30
0.0
 40
0.1999999999999318
100
AcDbArc
 50
90.0
 51
180.0
  0
ARC
  5
2BB
330
1F
100
AcDbEntity
  8
SLD-0
  6
Continuous
 62
   179
100
AcDbCircle
 10
333.2233677971
 20
118.9012535001
 30
0.0
 40
0.1999999999999886
100
AcDbArc
 50
0.0
 51
90.0
  0
ARC
  5
2BC
330
1F
100
AcDbEntity
  8
SLD-0
  6
Continuous
 62
   179
100
AcDbCircle
 10
333.1233677971
 20
177.9730807875
 30
0.0
 40
0.2000000000001023
100
AcDbArc
 50
90.0
 51
180.0
  0
ARC
  5
2BD
330
1F
100
AcDbEntity
  8
SLD-0
  6
Continuous
 62
   179
100
AcDbCircle
 10
333.2233677971
 20
178.3730807875
 30
0.0
 40
0.1999999999999886
100
AcDbArc
 50
270.0
 51
0.0
  0
ARC
  5
2BE
330
1F
100
AcDbEntity
  8
SLD-0
  6
Continuous
 62
   179
100
AcDbCircle
 10
333.1233677971
 20
119.3012535001
 30
0.0
 40
0.1999999999999318
100
AcDbArc
 50
180.0
 51
270.0
  0
ARC
  5
2BF
330
1F
100
AcDbEntity
  8
SLD-0
  6
Continuous
 62
   179
100
AcDbCircle
 10
333.1233677971
 20
173.8730807875
 30
0.0
 40
0.1999999999999886
100
AcDbArc
 50
180.0
 51
270.0
  0
ARC
  5
2C0
330
1F
100
AcDbEntity
  8
SLD-0
  6
Continuous
 62
   179
100
AcDbCircle
 10
333.2233677971
 20
170.4730807875
 30
0.0
 40
0.2000000000000739
100
AcDbArc
 50
0.0
 51
90.0
  0
ARC
  5
2C1
330
1F
100
AcDbEntity
  8
SLD-0
  6
Continuous
 62
   179
100
AcDbCircle
 10
333.1233677971
 20
174.9730807875
 30
0.0
 40
0.2000000000001023
100
AcDbArc
 50
90.0
 51
180.0
  0
ARC
  5
2C2
330
1F
100
AcDbEntity
  8
SLD-0
  6
Continuous
 62
   179
100
AcDbCircle
 10
333.1233677971
 20
176.8730807875
 30
0.0
 40
0.1999999999999886
100
AcDbArc
 50
180.0
 51
270.0
  0
ARC
  5
2C3
330
1F
100
AcDbEntity
  8
SLD-0
  6
Continuous
 62
   179
100
AcDbCircle
 10
333.2233677971
 20
175.3730807875
 30
0.0
 40
0.1999999999999886
100
AcDbArc
 50
270.0
 51
0.0
  0
ARC
  5
2C4
330
1F
100
AcDbEntity
  8
SLD-0
  6
Continuous
 62
   179
100
AcDbCircle
 10
333.1233677971
 20
171.9730807875
 30
0.0
 40
0.2000000000000739
100
AcDbArc
 50
90.0
 51
180.0
  0
ARC
  5
2C5
330
1F
100
AcDbEntity
  8
SLD-0
  6
Continuous
 62
   179
100
AcDbCircle
 10
333.1233677971
 20
170.8730807875
 30
0.0
 40
0.1999999999999886
100
AcDbArc
 50
180.0
 51
270.0
  0
ARC
  5
2C6
330
1F
100
AcDbEntity
  8
SLD-0
  6
Continuous
 62
   179
100
AcDbCircle
 10
333.2233677971
 20
176.4730807875
 30
0.0
 40
0.2000000000001023
100
AcDbArc
 50
0.0
 51
90.0
  0
ARC
  5
2C7
330
1F
100
AcDbEntity
  8
SLD-0
  6
Continuous
 62
   179
100
AcDbCircle
 10
333.1233677971
 20
167.8730807875
 30
0.0
 40
0.2000000000000171
100
AcDbArc
 50
180.0
 51
270.0
  0
ARC
  5
2C8
330
1F
100
AcDbEntity
  8
SLD-0
  6
Continuous
 62
   179
100
AcDbCircle
 10
298.6233677971
 20
170.4730807875
 30
0.0
 40
0.2000000000001023
100
AcDbArc
 50
90.0
 51
180.0
  0
ARC
  5
2C9
330
1F
100
AcDbEntity
  8
SLD-0
  6
Continuous
 62
   179
100
AcDbCircle
 10
298.6233677971
 20
176.4730807875
 30
0.0
 40
0.2000000000001023
100
AcDbArc
 50
90.0
 51
180.0
  0
ARC
  5
2CA
330
1F
100
AcDbEntity
  8
SLD-0
  6
Continuous
 62
   179
100
AcDbCircle
 10
298.6233677971
 20
169.3730807875
 30
0.0
 40
0.2000000000001023
100
AcDbArc
 50
180.0
 51
270.0
  0
ARC
  5
2CB
330
1F
100
AcDbEntity
  8
SLD-0
  6
Continuous
 62
   179
100
AcDbCircle
 10
298.7233677971
 20
173.8730807875
 30
0.0
 40
0.1999999999999886
100
AcDbArc
 50
270.0
 51
0.0
  0
ARC
  5
2CC
330
1F
100
AcDbEntity
  8
SLD-0
  6
Continuous
 62
   179
100
AcDbCircle
 10
298.6233677971
 20
178.3730807875
 30
0.0
 40
0.2000000000001023
100
AcDbArc
 50
180.0
 51
270.0
  0
ARC
  5
2CD
330
1F
100
AcDbEntity
  8
SLD-0
  6
Continuous
 62
   179
100
AcDbCircle
 10
298.7233677971
 20
176.8730807875
 30
0.0
 40
0.1999999999999886
100
AcDbArc
 50
270.0
 51
0.0
  0
ARC
  5
2CE
330
1F
100
AcDbEntity
  8
SLD-0
  6
Continuous
 62
   179
100
AcDbCircle
 10
298.7233677971
 20
171.9730807875
 30
0.0
 40
0.2000000000000739
100
AcDbArc
 50
0.0
 51
90.0
  0
ARC
  5
2CF
330
1F
100
AcDbEntity
  8
SLD-0
  6
Continuous
 62
   179
100
AcDbCircle
 10
298.7233677971
 20
177.9730807875
 30
0.0
 40
0.2000000000001023
100
AcDbArc
 50
0.0
 51
90.0
  0
ARC
  5
2D0
330
1F
100
AcDbEntity
  8
SLD-0
  6
Continuous
 62
   179
100
AcDbCircle
 10
298.7233677971
 20
174.9730807875
 30
0.0
 40
0.2000000000001023
100
AcDbArc
 50
0.0
 51
90.0
  0
ARC
  5
2D1
330
1F
100
AcDbEntity
  8
SLD-0
  6
Continuous
 62
   179
100
AcDbCircle
 10
298.7233677971
 20
170.8730807875
 30
0.0
 40
0.1999999999999886
100
AcDbArc
 50
270.0
 51
0.0
  0
ARC
  5
2D2
330
1F
100
AcDbEntity
  8
SLD-0
  6
Continuous
 62
   179
100
AcDbCircle
 10
298.6233677971
 20
175.3730807875
 30
0.0
 40
0.2000000000001023
100
AcDbArc
 50
180.0
 51
270.0
  0
ARC
  5
2D3
330
1F
100
AcDbEntity
  8
SLD-0
  6
Continuous
 62
   179
100
AcDbCircle
 10
298.7233677971
 20
167.8730807875
 30
0.0
 40
0.2000000000000171
100
AcDbArc
 50
270.0
 51
0.0
  0
ARC
  5
2D4
330
1F
100
AcDbEntity
  8
SLD-0
  6
Continuous
 62
   179
100
AcDbCircle
 10
298.6233677971
 20
173.4730807875
 30
0.0
 40
0.2000000000001023
100
AcDbArc
 50
90.0
 51
180.0
  0
ARC
  5
2D5
330
1F
100
AcDbEntity
  8
SLD-0
  6
Continuous
 62
   179
100
AcDbCircle
 10
298.6233677971
 20
167.4730807875
 30
0.0
 40
0.2000000000001023
100
AcDbArc
 50
90.0
 51
180.0
  0
ARC
  5
2D6
330
1F
100
AcDbEntity
  8
SLD-0
  6
Continuous
 62
   179
100
AcDbCircle
 10
298.7233677971
 20
168.9730807875
 30
0.0
 40
0.2000000000001023
100
AcDbArc
 50
0.0
 51
90.0
  0
ARC
  5
2D7
330
1F
100
AcDbEntity
  8
SLD-0
  6
Continuous
 62
   179
100
AcDbCircle
 10
298.6233677971
 20
172.3730807875
 30
0.0
 40
0.2000000000001023
100
AcDbArc
 50
180.0
 51
270.0
  0
ARC
  5
2D8
330
1F
100
AcDbEntity
  8
SLD-0
  6
Continuous
 62
   179
100
AcDbCircle
 10
298.6233677971
 20
124.9012535001
 30
0.0
 40
0.2000000000001023
100
AcDbArc
 50
90.0
 51
180.0
  0
ARC
  5
2D9
330
1F
100
AcDbEntity
  8
SLD-0
  6
Continuous
 62
   179
100
AcDbCircle
 10
298.7233677971
 20
128.3012535001
 30
0.0
 40
0.1999999999999318
100
AcDbArc
 50
270.0
 51
0.0
  0
ARC
  5
2DA
330
1F
100
AcDbEntity
  8
SLD-0
  6
Continuous
 62
   179
100
AcDbCircle
 10
298.6233677971
 20
129.8012535001
 30
0.0
 40
0.2000000000001023
100
AcDbArc
 50
180.0
 51
270.0
  0
ARC
  5
2DB
330
1F
100
AcDbEntity
  8
SLD-0
  6
Continuous
 62
   179
100
AcDbCircle
 10
298.6233677971
 20
123.8012535001
 30
0.0
 40
0.2000000000001023
100
AcDbArc
 50
180.0
 51
270.0
  0
ARC
  5
2DC
330
1F
100
AcDbEntity
  8
SLD-0
  6
Continuous
 62
   179
100
AcDbCircle
 10
298.7233677971
 20
129.4012535001
 30
0.0
 40
0.1999999999999318
100
AcDbArc
 50
0.0
 51
90.0
  0
ARC
  5
2DD
330
1F
100
AcDbEntity
  8
SLD-0
  6
Continuous
 62
   179
100
AcDbCircle
 10
298.6233677971
 20
121.9012535001
 30
0.0
 40
0.2000000000001023
100
AcDbArc
 50
90.0
 51
180.0
  0
ARC
  5
2DE
330
1F
100
AcDbEntity
  8
SLD-0
  6
Continuous
 62
   179
100
AcDbCircle
 10
298.7233677971
 20
126.4012535001
 30
0.0
 40
0.1999999999999318
100
AcDbArc
 50
0.0
 51
90.0
  0
ARC
  5
2DF
330
1F
100
AcDbEntity
  8
SLD-0
  6
Continuous
 62
   179
100
AcDbCircle
 10
298.7233677971
 20
122.3012535001
 30
0.0
 40
0.1999999999999318
100
AcDbArc
 50
270.0
 51
0.0
  0
ARC
  5
2E0
330
1F
100
AcDbEntity
  8
SLD-0
  6
Continuous
 62
   179
100
AcDbCircle
 10
298.7233677971
 20
119.3012535001
 30
0.0
 40
0.1999999999999318
100
AcDbArc
 50
270.0
 51
0.0
  0
ARC
  5
2E1
330
1F
100
AcDbEntity
  8
SLD-0
  6
Continuous
 62
   179
100
AcDbCircle
 10
298.7233677971
 20
125.3012535001
 30
0.0
 40
0.1999999999999318
100
AcDbArc
 50
270.0
 51
0.0
  0
ARC
  5
2E2
330
1F
100
AcDbEntity
  8
SLD-0
  6
Continuous
 62
   179
100
AcDbCircle
 10
298.6233677971
 20
118.9012535001
 30
0.0
 40
0.2000000000001023
100
AcDbArc
 50
90.0
 51
180.0
  0
ARC
  5
2E3
330
1F
100
AcDbEntity
  8
SLD-0
  6
Continuous
 62
   179
100
AcDbCircle
 10
298.7233677971
 20
120.4012535001
 30
0.0
 40
0.1999999999999318
100
AcDbArc
 50
0.0
 51
90.0
  0
ARC
  5
2E4
330
1F
100
AcDbEntity
  8
SLD-0
  6
Continuous
 62
   179
100
AcDbCircle
 10
298.7233677971
 20
123.4012535001
 30
0.0
 40
0.1999999999999318
100
AcDbArc
 50
0.0
 51
90.0
  0
ARC
  5
2E5
330
1F
100
AcDbEntity
  8
SLD-0
  6
Continuous
 62
   179
100
AcDbCircle
 10
298.6233677971
 20
127.9012535001
 30
0.0
 40
0.2000000000001023
100
AcDbArc
 50
90.0
 51
180.0
  0
ARC
  5
2E6
330
1F
100
AcDbEntity
  8
SLD-0
  6
Continuous
 62
   179
100
AcDbCircle
 10
298.6233677971
 20
120.8012535001
 30
0.0
 40
0.2000000000001023
100
AcDbArc
 50
180.0
 51
270.0
  0
ARC
  5
2E7
330
1F
100
AcDbEntity
  8
SLD-0
  6
Continuous
 62
   179
100
AcDbCircle
 10
298.6233677971
 20
126.8012535001
 30
0.0
 40
0.2000000000001023
100
AcDbArc
 50
180.0
 51
270.0
  0
ARC
  5
2E8
330
1F
100
AcDbEntity
  8
SLD-0
  6
Continuous
 62
   179
100
AcDbCircle
 10
333.2233677971
 20
127.9012535001
 30
0.0
 40
0.1999999999999886
100
AcDbArc
 50
0.0
 51
90.0
  0
ARC
  5
2E9
330
1F
100
AcDbEntity
  8
SLD-0
  6
Continuous
 62
   179
100
AcDbCircle
 10
330.4341710197
 20
142.3871686637
 30
0.0
 40
0.3000015318393333
100
AcDbArc
 50
90.0
 51
130.0077604358
  0
ARC
  5
2EA
330
1F
100
AcDbEntity
  8
SLD-0
  6
Continuous
 62
   179
100
AcDbCircle
 10
300.22335559
 20
154.88715689
 30
0.0
 40
0.3000015318393173
100
AcDbArc
 50
180.0
 51
270.0
  0
ARC
  5
2EB
330
1F
100
AcDbEntity
  8
SLD-0
  6
Continuous
 62
   179
100
AcDbCircle
 10
328.9233668199
 20
144.1871728797
 30
0.0
 40
2.050007937837738
100
AcDbArc
 50
49.9921149924
 51
310.0078850076
  0
ARC
  5
2EC
330
1F
100
AcDbEntity
  8
SLD-0
  6
Continuous
 62
   179
100
AcDbCircle
 10
331.6233800041
 20
145.9871770956
 30
0.0
 40
0.3000015318393707
100
AcDbArc
 50
270.0
 51
0.0
  0
ARC
  5
2ED
330
1F
100
AcDbEntity
  8
SLD-0
  6
Continuous
 62
   179
100
AcDbCircle
 10
328.9233693869
 20
153.0871597251
 30
0.0
 40
2.049999952316324
100
AcDbArc
 50
49.992237743
 51
310.0077517843
  0
ARC
  5
2EE
330
1F
100
AcDbEntity
  8
SLD-0
  6
Continuous
 62
   179
100
AcDbCircle
 10
330.4341710197
 20
151.2871585674
 30
0.0
 40
0.3000055246166369
100
AcDbArc
 50
90.0
 51
130.0086707737
  0
ARC
  5
2EF
330
1F
100
AcDbEntity
  8
SLD-0
  6
Continuous
 62
   179
100
AcDbCircle
 10
330.4341710197
 20
154.8871608828
 30
0.0
 40
0.3000055246136657
100
AcDbArc
 50
229.9914007876
 51
270.0
  0
ARC
  5
2F0
330
1F
100
AcDbEntity
  8
SLD-0
  6
Continuous
 62
   179
100
AcDbCircle
 10
331.6233800041
 20
154.88715689
 30
0.0
 40
0.3000015318393142
100
AcDbArc
 50
270.0
 51
360.0
  0
ARC
  5
2F1
330
1F
100
AcDbEntity
  8
SLD-0
  6
Continuous
 62
   179
100
AcDbCircle
 10
333.2233677971
 20
172.3730807875
 30
0.0
 40
0.1999999999999886
100
AcDbArc
 50
270.0
 51
0.0
  0
ARC
  5
2F2
330
1F
100
AcDbEntity
  8
SLD-0
  6
Continuous
 62
   179
100
AcDbCircle
 10
333.2233677971
 20
167.4730807875
 30
0.0
 40
0.2000000000001023
100
AcDbArc
 50
0.0
 51
90.0
  0
ARC
  5
2F3
330
1F
100
AcDbEntity
  8
SLD-0
  6
Continuous
 62
   179
100
AcDbCircle
 10
333.1233677971
 20
168.9730807875
 30
0.0
 40
0.2000000000001023
100
AcDbArc
 50
90.0
 51
180.0
  0
ARC
  5
2F4
330
1F
100
AcDbEntity
  8
SLD-0
  6
Continuous
 62
   179
100
AcDbCircle
 10
333.2233677971
 20
173.4730807875
 30
0.0
 40
0.2000000000000739
100
AcDbArc
 50
0.0
 51
90.0
  0
ARC
  5
2F5
330
1F
100
AcDbEntity
  8
SLD-0
  6
Continuous
 62
   179
100
AcDbCircle
 10
333.2233677971
 20
123.8012535001
 30
0.0
 40
0.1999999999999886
100
AcDbArc
 50
270.0
 51
0.0
  0
ARC
  5
2F6
330
1F
100
AcDbEntity
  8
SLD-0
  6
Continuous
 62
   179
100
AcDbCircle
 10
333.1233677971
 20
128.3012535001
 30
0.0
 40
0.1999999999999318
100
AcDbArc
 50
180.0
 51
270.0
  0
ARC
  5
2F7
330
1F
100
AcDbEntity
  8
SLD-0
  6
Continuous
 62
   179
100
AcDbCircle
 10
333.2233677971
 20
129.8012535001
 30
0.0
 40
0.1999999999999886
100
AcDbArc
 50
270.0
 51
0.0
  0
ARC
  5
2F8
330
1F
100
AcDbEntity
  8
SLD-0
  6
Continuous
 62
   179
100
AcDbCircle
 10
333.2233677971
 20
124.9012535001
 30
0.0
 40
0.1999999999999886
100
AcDbArc
 50
0.0
 51
90.0
  0
ARC
  5
2F9
330
1F
100
AcDbEntity
  8
SLD-0
  6
Continuous
 62
   179
100
AcDbCircle
 10
301.1906906965
 20
186.6371671438
 30
0.0
 40
1.000000000000265
100
AcDbArc
 50
90.0
 51
165.0
  0
ARC
  5
2FA
330
1F
100
AcDbEntity
  8
SLD-0
  6
Continuous
 62
   179
100
AcDbCircle
 10
301.190694785
 20
110.637151885
 30
0.0
 40
1.000000000000228
100
AcDbArc
 50
195.0
 51
270.0
  0
ARC
  5
2FB
330
1F
100
AcDbEntity
  8
SLD-0
  6
Continuous
 62
   179
100
AcDbCircle
 10
330.6560408091
 20
110.637151885
 30
0.0
 40
1.0
100
AcDbArc
 50
270.0
 51
344.9999999999
  0
ARC
  5
2FC
330
1F
100
AcDbEntity
  8
SLD-0
  6
Continuous
 62
   179
100
AcDbCircle
 10
330.6560448977
 20
186.6371671438
 30
0.0
 40
1.000000000000023
100
AcDbArc
 50
15.0
 51
90.0
  0
CIRCLE
  5
2FD
330
1F
100
AcDbEntity
  8
SLD-0
  6
Continuous
 62
   179
100
AcDbCircle
 10
320.1044861953
 20
141.4843405354
 30
0.0
 40
1.0
  0
ARC
  5
2FE
330
1F
100
AcDbEntity
  8
SLD-0
  6
Continuous
 62
   179
100
AcDbCircle
 10
320.1044861953
 20
141.4843405354
 30
0.0
 40
1.840000000000726
100
AcDbArc
 50
30.509292061
 51
194.5119757515
  0
ARC
  5
2FF
330
1F
100
AcDbEntity
  8
SLD-0
  6
Continuous
 62
   179
100
AcDbCircle
 10
315.9233677971
 20
147.9283953972
 30
0.0
 40
8.961506785174199
100
AcDbArc
 50
321.3448293301
 51
218.6551706699
  0
ARC
  5
300
330
1F
100
AcDbEntity
  8
SLD-0
  6
Continuous
 62
   179
100
AcDbCircle
 10
309.5108430884
 20
142.7992267956
 30
0.0
 40
0.7500000000000798
100
AcDbArc
 50
218.6551706699
 51
329.490707939
  0
CIRCLE
  5
301
330
1F
100
AcDbEntity
  8
SLD-0
  6
Continuous
 62
   179
100
AcDbCircle
 10
311.7422493989
 20
141.4843405354
 30
0.0
 40
1.0
  0
ARC
  5
302
330
1F
100
AcDbEntity
  8
SLD-0
  6
Continuous
 62
   179
100
AcDbCircle
 10
311.7422493989
 20
141.4843405354
 30
0.0
 40
1.839999999999989
100
AcDbArc
 50
345.4880242485
 51
149.490707939
  0
ARC
  5
303
330
1F
100
AcDbEntity
  8
SLD-0
  6
Continuous
 62
   179
100
AcDbCircle
 10
322.3358925058
 20
142.7992267956
 30
0.0
 40
0.7500000000002042
100
AcDbArc
 50
210.509292061
 51
321.3448293301
  0
CIRCLE
  5
304
330
1F
100
AcDbEntity
  8
SLD-0
  6
Continuous
 62
   179
100
AcDbCircle
 10
242.4233677971
 20
238.1371671438
 30
0.0
 40
2.5
  0
CIRCLE
  5
305
330
1F
100
AcDbEntity
  8
SLD-0
  6
Continuous
 62
   179
100
AcDbCircle
 10
157.4233677971
 20
238.1371671438
 30
0.0
 40
2.5
  0
CIRCLE
  5
306
330
1F
100
AcDbEntity
  8
SLD-0
  6
Continuous
 62
   179
100
AcDbCircle
 10
157.4233677971
 20
238.1371671438
 30
0.0
 40
2.0
  0
CIRCLE
  5
307
330
1F
100
AcDbEntity
  8
SLD-0
  6
Continuous
 62
   179
100
AcDbCircle
 10
242.4233677971
 20
238.1371671438
 30
0.0
 40
2.0
  0
CIRCLE
  5
308
330
1F
100
AcDbEntity
  8
SLD-0
  6
Continuous
 62
   179
100
AcDbCircle
 10
242.4233677971
 20
262.1371671438
 30
0.0
 40
2.5
  0
CIRCLE
  5
309
330
1F
100
AcDbEntity
  8
SLD-0
  6
Continuous
 62
   179
100
AcDbCircle
 10
242.4233677971
 20
262.1371671438
 30
0.0
 40
2.0
  0
CIRCLE
  5
30A
330
1F
100
AcDbEntity
  8
SLD-0
  6
Continuous
 62
   179
100
AcDbCircle
 10
157.4233677971
 20
262.1371671438
 30
0.0
 40
2.5
  0
CIRCLE
  5
30B
330
1F
100
AcDbEntity
  8
SLD-0
  6
Continuous
 62
   179
100
AcDbCircle
 10
157.4233677971
 20
262.1371671438
 30
0.0
 40
2.0
  0
MTEXT
  5
30D
330
1F
100
AcDbEntity
  8
SLD-0
 62
     7
100
AcDbMText
 10
173.3215889494
 20
61.1098885429
 30
0.0
 40
5.0
 41
0.0
 71
     1
 72
     1
  1
ＳＴＡＲ
  7
SLDTEXTSTYLE5
 73
     1
 44
1.0
  0
MTEXT
  5
30F
330
1F
100
AcDbEntity
  8
SLD-0
 62
     7
100
AcDbMText
 10
192.2683316006
 20
62.5870504406
 30
0.0
 40
2.0
 41
0.0
 71
     1
 72
     1
  1
ＧＣＹＬ－２０Ｘ７５
  7
SLDTEXTSTYLE6
 73
     1
 44
1.0
  0
MTEXT
  5
310
330
1F
100
AcDbEntity
  8
SLD-0
 62
     7
100
AcDbMText
 10
192.5642605556
 20
57.7537641552
 30
0.0
 40
2.0
 41
0.0
 71
     1
 72
     1
  1
ＳＴＡＲＴＥＣＨＮＯ
  7
SLDTEXTSTYLE6
 73
     1
 44
1.0
  0
MTEXT
  5
312
330
1F
100
AcDbEntity
  8
SLD-0
 62
     7
100
AcDbMText
 10
337.5527948774
 20
47.5350714947
 30
0.0
 40
4.8000001907
 41
0.0
 71
     1
 72
     1
  1
コンテナシリンダーガイド付
  7
SLDTEXTSTYLE7
 73
     1
 44
1.0
  0
MTEXT
  5
314
330
1F
100
AcDbEntity
  8
SLD-0
 62
     7
100
AcDbMText
 10
358.6238480652
 20
41.2186247188
 30
0.0
 40
3.2000000477
 41
0.0
 71
     1
 72
     1
  1
（複動型）
  7
SLDTEXTSTYLE8
 73
     1
 44
1.0
  0
MTEXT
  5
316
330
1F
100
AcDbEntity
  8
SLD-0
 62
     7
100
AcDbMText
 10
344.8866217367
 20
32.3570252408
 30
0.0
 40
4.8000001907
 41
0.0
 71
     1
 72
     1
  1
ＧＣＹＬ－２０ｘ７５
  7
SLDTEXTSTYLE9
 73
     1
 44
1.0
  0
MTEXT
  5
318
330
1F
100
AcDbEntity
  8
SLD-0
 62
     7
100
AcDbMText
 10
354.0171741572
 20
20.3078609101
 30
0.0
 40
4.8000001907
 41
0.0
 71
     1
 72
     1
  1
０６０４９９
  7
SLDTEXTSTYLE10
 73
     1
 44
1.0
  0
INSERT
  5
319
330
1F
100
AcDbEntity
  8
0
  6
Continuous
 62
     7
370
     0
100
AcDbBlockReference
  2
KOZU0001
 10
327.0300330494
 20
184.8788834548
 30
0.0
  0
INSERT
  5
31A
330
1F
100
AcDbEntity
  8
0
  6
Continuous
 62
     7
370
     0
100
AcDbBlockReference
  2
KOZU0002
 10
331.1923409695
 20
153.087164092
 30
0.0
  0
INSERT
  5
31B
330
1F
100
AcDbEntity
  8
0
  6
Continuous
 62
     7
370
     0
100
AcDbBlockReference
  2
KOZU0003
 10
243.589357095
 20
235.9257266727
 30
0.0
  0
INSERT
  5
31C
330
1F
100
AcDbEntity
  8
0
  6
Continuous
 62
     7
370
     0
100
AcDbBlockReference
  2
KOZU0004
 10
139.5746107146
 20
167.9886687088
 30
0.0
  0
INSERT
  5
31D
330
1F
100
AcDbEntity
  8
0
  6
Continuous
 62
     7
370
     0
100
AcDbBlockReference
  2
KOZU0005
 10
85.459309914
 20
114.4596836749
 30
0.0
  0
INSERT
  5
31E
330
1F
100
AcDbEntity
  8
0
  6
Continuous
 62
     7
370
     0
100
AcDbBlockReference
  2
KOZU0006
 10
243.8291386115
 20
45.5698327473
 30
0.0
  0
INSERT
  5
31F
330
1F
100
AcDbEntity
  8
0
  6
Continuous
 62
     7
370
     0
100
AcDbBlockReference
  2
KOZU0007
 10
175.3875094836
 20
164.9978929623
 30
0.0
  0
INSERT
  5
320
330
1F
100
AcDbEntity
  8
0
  6
Continuous
 62
     7
370
     0
100
AcDbBlockReference
  2
KOZU0008
 10
253.9492109381
 20
132.3347578236
 30
0.0
  0
ENDSEC
  0
SECTION
  2
OBJECTS
  0
DICTIONARY
  5
C
330
0
100
AcDbDictionary
281
     1
  3
ACAD_GROUP
350
D
  3
ACAD_LAYOUT
350
1A
  3
ACAD_MLINESTYLE
350
17
  3
ACAD_PLOTSETTINGS
350
19
  3
ACAD_PLOTSTYLENAME
350
E
  0
DICTIONARY
  5
D
102
{ACAD_REACTORS
330
C
102
}
330
C
100
AcDbDictionary
281
     1
  0
DICTIONARY
  5
1A
102
{ACAD_REACTORS
330
C
102
}
330
C
100
AcDbDictionary
281
     1
  3
Layout1
350
1E
  3
Layout2
350
26
  3
Model
350
22
  0
DICTIONARY
  5
17
102
{ACAD_REACTORS
330
C
102
}
330
C
100
AcDbDictionary
281
     1
  3
Standard
350
18
  0
DICTIONARY
  5
19
102
{ACAD_REACTORS
330
C
102
}
330
C
100
AcDbDictionary
281
     1
  0
ACDBDICTIONARYWDFLT
  5
E
102
{ACAD_REACTORS
330
C
102
}
330
C
100
AcDbDictionary
281
     1
  3
Normal
350
F
100
AcDbDictionaryWithDefault
340
F
  0
LAYOUT
  5
1E
102
{ACAD_REACTORS
330
1A
102
}
330
1A
100
AcDbPlotSettings
  1

  2

  4

  6

 40
0.0
 41
0.0
 42
0.0
 43
0.0
 44
0.0
 45
0.0
 46
0.0
 47
0.0
 48
0.0
 49
0.0
140
0.0
141
0.0
142
1.0
143
1.0
 70
   688
 72
     0
 73
     0
 74
     5
  7

 75
    16
147
1.0
148
0.0
149
0.0
100
AcDbLayout
  1
Layout1
 70
     1
 71
     1
 10
0.0
 20
0.0
 11
0.0
 21
0.0
 12
0.0
 22
0.0
 32
0.0
 14
0.0
 24
0.0
 34
0.0
 15
0.0
 25
0.0
 35
0.0
146
0.0
 13
0.0
 23
0.0
 33
0.0
 16
1.0
 26
0.0
 36
0.0
 17
0.0
 27
1.0
 37
0.0
 76
     0
330
1B
  0
LAYOUT
  5
26
102
{ACAD_REACTORS
330
1A
102
}
330
1A
100
AcDbPlotSettings
  1

  2

  4

  6

 40
0.0
 41
0.0
 42
0.0
 43
0.0
 44
0.0
 45
0.0
 46
0.0
 47
0.0
 48
0.0
 49
0.0
140
0.0
141
0.0
142
1.0
143
1.0
 70
   688
 72
     0
 73
     0
 74
     5
  7

 75
    16
147
1.0
148
0.0
149
0.0
100
AcDbLayout
  1
Layout2
 70
     1
 71
     2
 10
0.0
 20
0.0
 11
0.0
 21
0.0
 12
0.0
 22
0.0
 32
0.0
 14
0.0
 24
0.0
 34
0.0
 15
0.0
 25
0.0
 35
0.0
146
0.0
 13
0.0
 23
0.0
 33
0.0
 16
1.0
 26
0.0
 36
0.0
 17
0.0
 27
1.0
 37
0.0
 76
     0
330
23
  0
LAYOUT
  5
22
102
{ACAD_REACTORS
330
1A
102
}
330
1A
100
AcDbPlotSettings
  1

  2

  4

  6

 40
0.0
 41
0.0
 42
0.0
 43
0.0
 44
0.0
 45
0.0
 46
0.0
 47
0.0
 48
0.0
 49
0.0
140
0.0
141
0.0
142
1.0
143
1.0
 70
  1712
 72
     0
 73
     0
 74
     0
  7

 75
     0
147
1.0
148
0.0
149
0.0
100
AcDbLayout
  1
Model
 70
     1
 71
     0
 10
0.0
 20
0.0
 11
0.0
 21
0.0
 12
0.0
 22
0.0
 32
0.0
 14
0.0
 24
0.0
 34
0.0
 15
420.0
 25
297.0
 35
0.0
146
0.0
 13
0.0
 23
0.0
 33
0.0
 16
1.0
 26
0.0
 36
0.0
 17
0.0
 27
1.0
 37
0.0
 76
     0
330
1F
  0
MLINESTYLE
  5
18
102
{ACAD_REACTORS
330
17
102
}
330
17
100
AcDbMlineStyle
  2
Standard
 70
     0
  3

 62
   256
 51
90.0
 52
90.0
 71
     2
 49
0.5
 62
   256
  6
BYLAYER
 49
-0.5
 62
   256
  6
BYLAYER
  0
ACDBPLACEHOLDER
  5
F
102
{ACAD_REACTORS
330
E
102
}
330
E
  0
ENDSEC
  0
EOF
