  0
SECTION
  2
HEADER
  9
$EXTMAX
 10
1.2182922
 20
274.528
 30
0
  9
$EXTMIN
 10
-177.2301
 20
-1.0560455
 30
0
  9
$LIMMAX
 10
1.2182922
 20
274.528
  9
$LIMMIN
 10
-177.2301
 20
-1.0560455
  9
$PLIMMAX
 10
1.2182922
 20
274.528
  9
$PLIMMIN
 10
-177.2301
 20
-1.0560455
  9
$PEXTMAX
 10
1.2182922
 20
274.528
 30
0
  9
$PEXTMIN
 10
-177.2301
 20
-1.0560455
 30
0
  9
$TEXTSIZE
 40
3.2
  9
$DIMSHO
 70
     0
  9
$DIMASZ
 40
1.0
  9
$DIMTAD
 70
     1
  9
$DIMTIH
 70
     0
  9
$DIMTOH
 70
     0
  9
$DIMEXE
 40
2.54
  9
$DIMEXO
 40
2.54
  9
$DIMTVP
 40
1.0
  9
$DIMSAH
 70
     1
  9
$DIMDLE
 40
0.0
  9
$DIMTXT
 40
3.2
  9
$DIMGAP
 40
1.6
  0
ENDSEC
  0
SECTION
  2
TABLES
  0
TABLE
  2
LTYPE
 70
     39
  0
LTYPE
  2
CONTINUOUS
 70
    64
  3
Solid line
 72
    65
 73
     0
 40
0.0
  0
LTYPE
  2
ACAD_ISO02W100
 70
     0
  3
ISO dash __ __ __ __ __ __ __ __ __ __ __ __ __
 72
    65
 73
     2
 40
15.0
 49
12.0
 49
-3.0
  0
LTYPE
  2
ACAD_ISO03W100
 70
     0
  3
ISO dash space __    __    __    __    __    __
 72
    65
 73
     2
 40
30.0
 49
12.0
 49
-18.0
  0
LTYPE
  2
ACAD_ISO04W100
 70
     0
  3
ISO long-dash dot ____ . ____ . ____ . ____ . _
 72
    65
 73
     4
 40
30.0
 49
24.0
 49
-3.0
 49
0.0
 49
-3.0
  0
LTYPE
  2
ACAD_ISO05W100
 70
     0
  3
ISO long-dash double-dot ____ .. ____ .. ____ .
 72
    65
 73
     6
 40
33.0
 49
24.0
 49
-3.0
 49
0.0
 49
-3.0
 49
0.0
 49
-3.0
  0
LTYPE
  2
ACAD_ISO06W100
 70
     0
  3
ISO long-dash triple-dot ____ ... ____ ... ____
 72
    65
 73
     8
 40
36.0
 49
24.0
 49
-3.0
 49
0.0
 49
-3.0
 49
0.0
 49
-3.0
 49
0.0
 49
-3.0
  0
LTYPE
  2
ACAD_ISO07W100
 70
     0
  3
ISO dot . . . . . . . . . . . . . . . . . . . .
 72
    65
 73
     2
 40
3.0
 49
0.0
 49
-3.0
  0
LTYPE
  2
ACAD_ISO08W100
 70
     0
  3
ISO long-dash short-dash ____ __ ____ __ ____ _
 72
    65
 73
     4
 40
36.0
 49
24.0
 49
-3.0
 49
6.0
 49
-3.0
  0
LTYPE
  2
ACAD_ISO09W100
 70
     0
  3
ISO long-dash double-short-dash ____ __ __ ____
 72
    65
 73
     6
 40
45.0
 49
24.0
 49
-3.0
 49
6.0
 49
-3.0
 49
6.0
 49
-3.0
  0
LTYPE
  2
ACAD_ISO10W100
 70
     0
  3
ISO dash dot __ . __ . __ . __ . __ . __ . __ .
 72
    65
 73
     4
 40
18.0
 49
12.0
 49
-3.0
 49
0.0
 49
-3.0
  0
LTYPE
  2
ACAD_ISO11W100
 70
     0
  3
ISO double-dash dot __ __ . __ __ . __ __ . __ 
 72
    65
 73
     6
 40
33.0
 49
12.0
 49
-3.0
 49
12.0
 49
-3.0
 49
0.0
 49
-3.0
  0
LTYPE
  2
ACAD_ISO12W100
 70
     0
  3
ISO dash double-dot __ . . __ . . __ . . __ . .
 72
    65
 73
     6
 40
21.0
 49
12.0
 49
-3.0
 49
0.0
 49
-3.0
 49
0.0
 49
-3.0
  0
LTYPE
  2
ACAD_ISO13W100
 70
     0
  3
ISO double-dash double-dot __ __ . . __ __ . . 
 72
    65
 73
     8
 40
36.0
 49
12.0
 49
-3.0
 49
12.0
 49
-3.0
 49
0.0
 49
-3.0
 49
0.0
 49
-3.0
  0
LTYPE
  2
ACAD_ISO14W100
 70
     0
  3
ISO dash triple-dot __ . . . __ . . . __ . . . 
 72
    65
 73
     8
 40
24.0
 49
12.0
 49
-3.0
 49
0.0
 49
-3.0
 49
0.0
 49
-3.0
 49
0.0
 49
-3.0
  0
LTYPE
  2
ACAD_ISO15W100
 70
     0
  3
ISO double-dash triple-dot __ __ . . . __ __ . 
 72
    65
 73
    10
 40
39.0
 49
12.0
 49
-3.0
 49
12.0
 49
-3.0
 49
0.0
 49
-3.0
 49
0.0
 49
-3.0
 49
0.0
 49
-3.0
  0
LTYPE
  2
BORDER
 70
    64
  3
Border __ __ . __ __ . __ __ . __ __ . __ __ .
 72
    65
 73
     6
 40
3.5
 49
1.0
 49
-0.5
 49
1.0
 49
-0.5
 49
0.0
 49
-0.5
  0
LTYPE
  2
BORDER2
 70
    64
  3
Border (.5x) __.__.__.__.__.__.__.__.__.__.__.
 72
    65
 73
     6
 40
1.75
 49
0.5
 49
-0.25
 49
0.5
 49
-0.25
 49
0.0
 49
-0.25
  0
LTYPE
  2
BORDERX2
 70
    64
  3
Border (2x) ____  ____  .  ____  ____  .  ___
 72
    65
 73
     6
 40
7.0
 49
2.0
 49
-1.0
 49
2.0
 49
-1.0
 49
0.0
 49
-1.0
  0
LTYPE
  2
CENTER
 70
    64
  3
Center ____ _ ____ _ ____ _ ____ _ ____ _ ____
 72
    65
 73
     4
 40
12.0
 49
7.5
 49
-1.5
 49
1.5
 49
-1.5
  0
LTYPE
  2
CENTER2
 70
    64
  3
Center (.5x) ___ _ ___ _ ___ _ ___ _ ___ _ ___
 72
    65
 73
     4
 40
6.0
 49
3.75
 49
-0.75
 49
0.75
 49
-0.75
  0
LTYPE
  2
CENTERX2
 70
    64
  3
Center (2x) ________  __  ________  __  _____
 72
    65
 73
     4
 40
24.0
 49
15.0
 49
-3.0
 49
3.0
 49
-3.0
  0
LTYPE
  2
DASHDOT
 70
    64
  3
Dash dot __ . __ . __ . __ . __ . __ . __ . __
 72
    65
 73
     4
 40
6.0
 49
3.0
 49
-1.5
 49
0.0
 49
-1.5
  0
LTYPE
  2
DASHDOT2
 70
    64
  3
Dash dot (.5x) _._._._._._._._._._._._._._._.
 72
    65
 73
     4
 40
3.0
 49
1.5
 49
-0.75
 49
0.0
 49
-0.75
  0
LTYPE
  2
DASHDOTX2
 70
    64
  3
Dash dot (2x) ____  .  ____  .  ____  .  ___
 72
    65
 73
     4
 40
12.0
 49
6.0
 49
-3.0
 49
0.0
 49
-3.0
  0
LTYPE
  2
DASHED
 70
    64
  3
Dashed __ __ __ __ __ __ __ __ __ __ __ __ __ _
 72
    65
 73
     2
 40
4.5
 49
3.0
 49
-1.5
  0
LTYPE
  2
DASHED2
 70
    64
  3
Dashed (.5x) _ _ _ _ _ _ _ _ _ _ _ _ _ _ _ _ _
 72
    65
 73
     2
 40
2.25
 49
1.5
 49
-0.75
  0
LTYPE
  2
DASHEDX2
 70
    64
  3
Dashed (2x) ____  ____  ____  ____  ____  ___
 72
    65
 73
     2
 40
9.0
 49
6.0
 49
-3.0
  0
LTYPE
  2
DIVIDE
 70
    64
  3
Divide ____ . . ____ . . ____ . . ____ . . ____
 72
    65
 73
     6
 40
7.5
 49
3.0
 49
-1.5
 49
0.0
 49
-1.5
 49
0.0
 49
-1.5
  0
LTYPE
  2
DIVIDE2
 70
    64
  3
Divide (.5x) __..__..__..__..__..__..__..__.._
 72
    65
 73
     6
 40
3.75
 49
1.5
 49
-0.75
 49
0.0
 49
-0.75
 49
0.0
 49
-0.75
  0
LTYPE
  2
DIVIDEX2
 70
    64
  3
Divide (2x) ________  .  .  ________  .  .  _
 72
    65
 73
     6
 40
15.0
 49
6.0
 49
-3.0
 49
0.0
 49
-3.0
 49
0.0
 49
-3.0
  0
LTYPE
  2
DOT
 70
    64
  3
Dot . . . . . . . . . . . . . . . . . . . . . .
 72
    65
 73
     2
 40
1.5
 49
0.0
 49
-1.5
  0
LTYPE
  2
DOT2
 70
    64
  3
Dot (.5x) .....................................
 72
    65
 73
     2
 40
0.75
 49
0.0
 49
-0.75
  0
LTYPE
  2
DOTX2
 70
    64
  3
Dot (2x) .  .  .  .  .  .  .  .  .  .  .  .  . 
 72
    65
 73
     2
 40
3.0
 49
0.0
 49
-3.0
  0
LTYPE
  2
HIDDEN
 70
    64
  3
Hidden __ __ __ __ __ __ __ __ __ __ __ __ __ _
 72
    65
 73
     2
 40
4.5
 49
3.0
 49
-1.5
  0
LTYPE
  2
HIDDEN2
 70
    64
  3
Hidden (.5x) _ _ _ _ _ _ _ _ _ _ _ _ _ _ _ _ _
 72
    65
 73
     2
 40
2.25
 49
1.5
 49
-0.75
  0
LTYPE
  2
HIDDENX2
 70
    64
  3
Hidden (2x) ____ ____ ____ ____ ____ ____ ____
 72
    65
 73
     2
 40
9.0
 49
6.0
 49
-3.0
  0
LTYPE
  2
PHANTOM
 70
    64
  3
Phantom ______  __  __  ______  __  __  ______
 72
    65
 73
     6
 40
15.0
 49
7.5
 49
-1.5
 49
1.5
 49
-1.5
 49
1.5
 49
-1.5
  0
LTYPE
  2
PHANTOM2
 70
    64
  3
Phantom (.5x) ___ _ _ ___ _ _ ___ _ _ ___ _ _
 72
    65
 73
     6
 40
7.5
 49
3.75
 49
-0.75
 49
0.75
 49
-0.75
 49
0.75
 49
-0.75
  0
LTYPE
  2
PHANTOMX2
 70
    64
  3
Phantom (2x) ____________    ____    ____   _
 72
    65
 73
     6
 40
30.0
 49
15.0
 49
-3.0
 49
3.0
 49
-3.0
 49
3.0
 49
-3.0
  0
ENDTAB
  0
TABLE
  2
LAYER
 70
     1
  0
LAYER
  2
0
 70
     0
 62
     7
  6
CONTINUOUS
  0
ENDTAB
  0
TABLE
  2
STYLE
 70
     1
  0
STYLE
  2
STANDARD
 70
     0
 40
0.0
 41
1.0
 50
0.0
 71
     0
 42
0.2
  3
txt
  4
BIGFONT
  0
ENDTAB
  0
TABLE
  2
DIMSTYLE
 70
     0
  0
ENDTAB
  0
ENDSEC
  0
SECTION
  2
BLOCKS
  0
ENDSEC
  0
SECTION
  2
ENTITIES
  0
LINE
  8
0
  6
CONTINUOUS
 62
     7
 10
-112.335
 20
115.94
 11
-62.334999
 21
115.94
  0
LINE
  8
0
  6
CONTINUOUS
 62
     7
 10
-112.335
 20
123.94
 11
-62.334999
 21
123.94
  0
LINE
  8
0
  6
CONTINUOUS
 62
     7
 10
-112.335
 20
123.94
 11
-112.335
 21
115.94
  0
LINE
  8
0
  6
CONTINUOUS
 62
     7
 10
-62.334999
 20
123.94
 11
-62.334999
 21
115.94
  0
LINE
  8
0
  6
CONTINUOUS
 62
     7
 10
-87.334999
 20
125.70695
 11
-87.334999
 21
113.97353
  0
LINE
  8
0
  6
CONTINUOUS
 62
     7
 10
-112.335
 20
119.14
 11
-62.334999
 21
119.14
  0
LINE
  8
0
  6
CONTINUOUS
 62
     7
 10
-89.434998
 20
119.14
 11
-89.434998
 21
115.94
  0
LINE
  8
0
  6
CONTINUOUS
 62
     7
 10
-85.235001
 20
119.14
 11
-85.235001
 21
115.94
  0
LINE
  8
0
  6
CONTINUOUS
 62
     7
 10
-91.334999
 20
123.94
 11
-91.334999
 21
119.14
  0
LINE
  8
0
  6
CONTINUOUS
 62
     7
 10
-83.334999
 20
123.94
 11
-83.334999
 21
119.14
  0
LINE
  8
0
  6
CONTINUOUS
 62
     7
 10
-111.835
 20
184.91252
 11
-112.20969
 21
184.91252
  0
LINE
  8
0
  6
CONTINUOUS
 62
     7
 10
-111.835
 20
182.43759
 11
-111.835
 21
184.91252
  0
LINE
  8
0
  6
CONTINUOUS
 62
     7
 10
-112.17335
 20
184.57417
 11
-111.835
 21
184.91252
  0
LINE
  8
0
  6
CONTINUOUS
 62
     7
 10
-88.584999
 20
208.16253
 11
-87.835003
 21
208.91252
  0
LINE
  8
0
  6
CONTINUOUS
 62
     7
 10
-87.834999
 20
181.91252
 11
-90.834999
 21
181.91252
  0
LINE
  8
0
  6
CONTINUOUS
 62
     7
 10
-88.584999
 20
182.66252
 11
-90.084999
 21
182.66252
  0
LINE
  8
0
  6
CONTINUOUS
 62
     7
 10
-88.585005
 20
182.66253
 11
-87.835
 21
181.91252
  0
LINE
  8
0
  6
CONTINUOUS
 62
     7
 10
-87.834999
 20
183.44389
 11
-87.834999
 21
181.91252
  0
LINE
  8
0
  6
CONTINUOUS
 62
     7
 10
-88.584999
 20
183.61285
 11
-88.584999
 21
182.66252
  0
LINE
  8
0
  6
CONTINUOUS
 62
     7
 10
-90.084999
 20
184.16252
 11
-90.084999
 21
182.66252
  0
LINE
  8
0
  6
CONTINUOUS
 62
     7
 10
-90.084996
 20
182.66252
 11
-90.834997
 21
181.91252
  0
LINE
  8
0
  6
CONTINUOUS
 62
     7
 10
-90.834999
 20
184.91252
 11
-90.834999
 21
181.91252
  0
LINE
  8
0
  6
CONTINUOUS
 62
     7
 10
-90.085004
 20
184.16253
 11
-90.834992
 21
184.91252
  0
LINE
  8
0
  6
CONTINUOUS
 62
     7
 10
-89.666847
 20
184.16252
 11
-90.084999
 21
184.16252
  0
LINE
  8
0
  6
CONTINUOUS
 62
     7
 10
-90.457497
 20
184.91252
 11
-90.834999
 21
184.91252
  0
LINE
  8
0
  6
CONTINUOUS
 62
     7
 10
-88.584999
 20
162.66252
 11
-90.084999
 21
162.66252
  0
LINE
  8
0
  6
CONTINUOUS
 62
     7
 10
-88.584996
 20
162.66252
 11
-88.355847
 21
162.43337
  0
LINE
  8
0
  6
CONTINUOUS
 62
     7
 10
-87.834999
 20
164.91252
 11
-87.834999
 21
162.41753
  0
LINE
  8
0
  6
CONTINUOUS
 62
     7
 10
-88.584999
 20
164.16252
 11
-88.584999
 21
162.66252
  0
LINE
  8
0
  6
CONTINUOUS
 62
     7
 10
-90.084999
 20
164.16252
 11
-90.084999
 21
162.66252
  0
LINE
  8
0
  6
CONTINUOUS
 62
     7
 10
-90.084998
 20
162.66252
 11
-90.173348
 21
162.57417
  0
LINE
  8
0
  6
CONTINUOUS
 62
     7
 10
-90.834999
 20
164.91252
 11
-90.834999
 21
162.65874
  0
LINE
  8
0
  6
CONTINUOUS
 62
     7
 10
-90.085
 20
164.16252
 11
-90.834998
 21
164.91252
  0
LINE
  8
0
  6
CONTINUOUS
 62
     7
 10
-88.584999
 20
164.16252
 11
-90.084999
 21
164.16252
  0
LINE
  8
0
  6
CONTINUOUS
 62
     7
 10
-87.834999
 20
164.91252
 11
-90.834999
 21
164.91252
  0
LINE
  8
0
  6
CONTINUOUS
 62
     7
 10
-88.584994
 20
164.16252
 11
-87.834996
 21
164.91252
  0
LINE
  8
0
  6
CONTINUOUS
 62
     7
 10
-87.834999
 20
177.91252
 11
-90.834999
 21
177.91252
  0
LINE
  8
0
  6
CONTINUOUS
 62
     7
 10
-88.584999
 20
178.66252
 11
-90.084999
 21
178.66252
  0
LINE
  8
0
  6
CONTINUOUS
 62
     7
 10
-88.584999
 20
180.16252
 11
-88.584999
 21
178.66252
  0
LINE
  8
0
  6
CONTINUOUS
 62
     7
 10
-87.834999
 20
180.91252
 11
-87.834999
 21
177.91252
  0
LINE
  8
0
  6
CONTINUOUS
 62
     7
 10
-88.584993
 20
180.16252
 11
-87.834993
 21
180.91252
  0
LINE
  8
0
  6
CONTINUOUS
 62
     7
 10
-87.834999
 20
180.91252
 11
-90.834999
 21
180.91252
  0
LINE
  8
0
  6
CONTINUOUS
 62
     7
 10
-88.584999
 20
180.16252
 11
-90.084999
 21
180.16252
  0
LINE
  8
0
  6
CONTINUOUS
 62
     7
 10
-90.085002
 20
180.16252
 11
-90.834996
 21
180.91252
  0
LINE
  8
0
  6
CONTINUOUS
 62
     7
 10
-90.084999
 20
180.16252
 11
-90.084999
 21
178.66252
  0
LINE
  8
0
  6
CONTINUOUS
 62
     7
 10
-90.834999
 20
180.91252
 11
-90.834999
 21
177.91252
  0
LINE
  8
0
  6
CONTINUOUS
 62
     7
 10
-90.084996
 20
178.66252
 11
-90.834995
 21
177.91252
  0
LINE
  8
0
  6
CONTINUOUS
 62
     7
 10
-88.584997
 20
178.66252
 11
-87.834998
 21
177.91253
  0
LINE
  8
0
  6
CONTINUOUS
 62
     7
 10
-87.834999
 20
173.91252
 11
-90.834999
 21
173.91252
  0
LINE
  8
0
  6
CONTINUOUS
 62
     7
 10
-88.584999
 20
174.66252
 11
-90.084999
 21
174.66252
  0
LINE
  8
0
  6
CONTINUOUS
 62
     7
 10
-88.584999
 20
176.16252
 11
-88.584999
 21
174.66252
  0
LINE
  8
0
  6
CONTINUOUS
 62
     7
 10
-87.834999
 20
176.91252
 11
-87.834999
 21
173.91252
  0
LINE
  8
0
  6
CONTINUOUS
 62
     7
 10
-88.584996
 20
176.16252
 11
-87.834997
 21
176.91253
  0
LINE
  8
0
  6
CONTINUOUS
 62
     7
 10
-87.834999
 20
176.91252
 11
-90.834999
 21
176.91252
  0
LINE
  8
0
  6
CONTINUOUS
 62
     7
 10
-88.584999
 20
176.16252
 11
-90.084999
 21
176.16252
  0
LINE
  8
0
  6
CONTINUOUS
 62
     7
 10
-90.084996
 20
176.16252
 11
-90.834989
 21
176.91252
  0
LINE
  8
0
  6
CONTINUOUS
 62
     7
 10
-90.084999
 20
176.16252
 11
-90.084999
 21
174.66252
  0
LINE
  8
0
  6
CONTINUOUS
 62
     7
 10
-90.834999
 20
176.91252
 11
-90.834999
 21
173.91252
  0
LINE
  8
0
  6
CONTINUOUS
 62
     7
 10
-90.085005
 20
174.66253
 11
-90.835004
 21
173.91253
  0
LINE
  8
0
  6
CONTINUOUS
 62
     7
 10
-88.584994
 20
174.66252
 11
-87.835002
 21
173.91252
  0
LINE
  8
0
  6
CONTINUOUS
 62
     7
 10
-87.834999
 20
169.91252
 11
-90.834999
 21
169.91252
  0
LINE
  8
0
  6
CONTINUOUS
 62
     7
 10
-88.584999
 20
170.66252
 11
-90.084999
 21
170.66252
  0
LINE
  8
0
  6
CONTINUOUS
 62
     7
 10
-88.584999
 20
172.16252
 11
-88.584999
 21
170.66252
  0
LINE
  8
0
  6
CONTINUOUS
 62
     7
 10
-87.834999
 20
172.91252
 11
-87.834999
 21
169.91252
  0
LINE
  8
0
  6
CONTINUOUS
 62
     7
 10
-88.585001
 20
172.16252
 11
-87.835003
 21
172.91252
  0
LINE
  8
0
  6
CONTINUOUS
 62
     7
 10
-87.834999
 20
172.91252
 11
-90.834999
 21
172.91252
  0
LINE
  8
0
  6
CONTINUOUS
 62
     7
 10
-88.584999
 20
172.16252
 11
-90.084999
 21
172.16252
  0
LINE
  8
0
  6
CONTINUOUS
 62
     7
 10
-90.084999
 20
172.16252
 11
-90.835008
 21
172.91252
  0
LINE
  8
0
  6
CONTINUOUS
 62
     7
 10
-90.084999
 20
172.16252
 11
-90.084999
 21
170.66252
  0
LINE
  8
0
  6
CONTINUOUS
 62
     7
 10
-90.834999
 20
172.91252
 11
-90.834999
 21
169.91252
  0
LINE
  8
0
  6
CONTINUOUS
 62
     7
 10
-90.084996
 20
170.66252
 11
-90.834997
 21
169.91252
  0
LINE
  8
0
  6
CONTINUOUS
 62
     7
 10
-88.584997
 20
170.66252
 11
-87.835004
 21
169.91252
  0
LINE
  8
0
  6
CONTINUOUS
 62
     7
 10
-87.834999
 20
165.91252
 11
-90.834999
 21
165.91252
  0
LINE
  8
0
  6
CONTINUOUS
 62
     7
 10
-88.584999
 20
166.66252
 11
-90.084999
 21
166.66252
  0
LINE
  8
0
  6
CONTINUOUS
 62
     7
 10
-88.584999
 20
168.16252
 11
-88.584999
 21
166.66252
  0
LINE
  8
0
  6
CONTINUOUS
 62
     7
 10
-87.834999
 20
168.91252
 11
-87.834999
 21
165.91252
  0
LINE
  8
0
  6
CONTINUOUS
 62
     7
 10
-88.584993
 20
168.16252
 11
-87.834992
 21
168.91252
  0
LINE
  8
0
  6
CONTINUOUS
 62
     7
 10
-87.834999
 20
168.91252
 11
-90.834999
 21
168.91252
  0
LINE
  8
0
  6
CONTINUOUS
 62
     7
 10
-88.584999
 20
168.16252
 11
-90.084999
 21
168.16252
  0
LINE
  8
0
  6
CONTINUOUS
 62
     7
 10
-90.084999
 20
168.16252
 11
-90.834998
 21
168.91251
  0
LINE
  8
0
  6
CONTINUOUS
 62
     7
 10
-90.084999
 20
168.16252
 11
-90.084999
 21
166.66252
  0
LINE
  8
0
  6
CONTINUOUS
 62
     7
 10
-90.834999
 20
168.91252
 11
-90.834999
 21
165.91252
  0
LINE
  8
0
  6
CONTINUOUS
 62
     7
 10
-90.085005
 20
166.66252
 11
-90.835005
 21
165.91252
  0
LINE
  8
0
  6
CONTINUOUS
 62
     7
 10
-88.585007
 20
166.66253
 11
-87.835002
 21
165.91252
  0
LINE
  8
0
  6
CONTINUOUS
 62
     7
 10
-87.834999
 20
192.91252
 11
-90.834999
 21
192.91252
  0
LINE
  8
0
  6
CONTINUOUS
 62
     7
 10
-88.584999
 20
192.16252
 11
-90.084999
 21
192.16252
  0
LINE
  8
0
  6
CONTINUOUS
 62
     7
 10
-88.584995
 20
192.16252
 11
-87.834997
 21
192.91252
  0
LINE
  8
0
  6
CONTINUOUS
 62
     7
 10
-87.834999
 20
191.38115
 11
-87.834999
 21
192.91252
  0
LINE
  8
0
  6
CONTINUOUS
 62
     7
 10
-88.584999
 20
191.21219
 11
-88.584999
 21
192.16252
  0
LINE
  8
0
  6
CONTINUOUS
 62
     7
 10
-90.084999
 20
190.66252
 11
-90.084999
 21
192.16252
  0
LINE
  8
0
  6
CONTINUOUS
 62
     7
 10
-90.085003
 20
192.16252
 11
-90.835007
 21
192.91253
  0
LINE
  8
0
  6
CONTINUOUS
 62
     7
 10
-90.834999
 20
189.91252
 11
-90.834999
 21
192.91252
  0
LINE
  8
0
  6
CONTINUOUS
 62
     7
 10
-90.085001
 20
190.66252
 11
-90.835003
 21
189.91252
  0
LINE
  8
0
  6
CONTINUOUS
 62
     7
 10
-89.666847
 20
190.66252
 11
-90.084999
 21
190.66252
  0
LINE
  8
0
  6
CONTINUOUS
 62
     7
 10
-90.457497
 20
189.91252
 11
-90.834999
 21
189.91252
  0
LINE
  8
0
  6
CONTINUOUS
 62
     7
 10
-88.584999
 20
212.16252
 11
-90.084999
 21
212.16252
  0
LINE
  8
0
  6
CONTINUOUS
 62
     7
 10
-88.584998
 20
212.16253
 11
-88.355852
 21
212.39167
  0
LINE
  8
0
  6
CONTINUOUS
 62
     7
 10
-87.834999
 20
209.91252
 11
-87.834999
 21
212.40752
  0
LINE
  8
0
  6
CONTINUOUS
 62
     7
 10
-88.584999
 20
210.66252
 11
-88.584999
 21
212.16252
  0
LINE
  8
0
  6
CONTINUOUS
 62
     7
 10
-90.084999
 20
210.66252
 11
-90.084999
 21
212.16252
  0
LINE
  8
0
  6
CONTINUOUS
 62
     7
 10
-90.084995
 20
212.16252
 11
-90.173349
 21
212.25088
  0
LINE
  8
0
  6
CONTINUOUS
 62
     7
 10
-90.834999
 20
209.91252
 11
-90.834999
 21
212.16631
  0
LINE
  8
0
  6
CONTINUOUS
 62
     7
 10
-90.085004
 20
210.66253
 11
-90.835005
 21
209.91253
  0
LINE
  8
0
  6
CONTINUOUS
 62
     7
 10
-88.584999
 20
210.66252
 11
-90.084999
 21
210.66252
  0
LINE
  8
0
  6
CONTINUOUS
 62
     7
 10
-87.834999
 20
209.91252
 11
-90.834999
 21
209.91252
  0
LINE
  8
0
  6
CONTINUOUS
 62
     7
 10
-88.584993
 20
210.66252
 11
-87.835
 21
209.91252
  0
LINE
  8
0
  6
CONTINUOUS
 62
     7
 10
-87.834999
 20
196.91252
 11
-90.834999
 21
196.91252
  0
LINE
  8
0
  6
CONTINUOUS
 62
     7
 10
-88.584999
 20
196.16252
 11
-90.084999
 21
196.16252
  0
LINE
  8
0
  6
CONTINUOUS
 62
     7
 10
-88.584999
 20
194.66252
 11
-88.584999
 21
196.16252
  0
LINE
  8
0
  6
CONTINUOUS
 62
     7
 10
-87.834999
 20
193.91252
 11
-87.834999
 21
196.91252
  0
LINE
  8
0
  6
CONTINUOUS
 62
     7
 10
-88.585
 20
194.66252
 11
-87.835006
 21
193.91252
  0
LINE
  8
0
  6
CONTINUOUS
 62
     7
 10
-87.834999
 20
193.91252
 11
-90.834999
 21
193.91252
  0
LINE
  8
0
  6
CONTINUOUS
 62
     7
 10
-88.584999
 20
194.66252
 11
-90.084999
 21
194.66252
  0
LINE
  8
0
  6
CONTINUOUS
 62
     7
 10
-90.085005
 20
194.66252
 11
-90.835003
 21
193.91253
  0
LINE
  8
0
  6
CONTINUOUS
 62
     7
 10
-90.084999
 20
194.66252
 11
-90.084999
 21
196.16252
  0
LINE
  8
0
  6
CONTINUOUS
 62
     7
 10
-90.834999
 20
193.91252
 11
-90.834999
 21
196.91252
  0
LINE
  8
0
  6
CONTINUOUS
 62
     7
 10
-90.084998
 20
196.16251
 11
-90.834997
 21
196.91251
  0
LINE
  8
0
  6
CONTINUOUS
 62
     7
 10
-88.585002
 20
196.16252
 11
-87.835
 21
196.91253
  0
LINE
  8
0
  6
CONTINUOUS
 62
     7
 10
-87.834999
 20
200.91252
 11
-90.834999
 21
200.91252
  0
LINE
  8
0
  6
CONTINUOUS
 62
     7
 10
-88.584999
 20
200.16252
 11
-90.084999
 21
200.16252
  0
LINE
  8
0
  6
CONTINUOUS
 62
     7
 10
-88.584999
 20
198.66252
 11
-88.584999
 21
200.16252
  0
LINE
  8
0
  6
CONTINUOUS
 62
     7
 10
-87.834999
 20
197.91252
 11
-87.834999
 21
200.91252
  0
LINE
  8
0
  6
CONTINUOUS
 62
     7
 10
-88.585007
 20
198.66252
 11
-87.835008
 21
197.91253
  0
LINE
  8
0
  6
CONTINUOUS
 62
     7
 10
-87.834999
 20
197.91252
 11
-90.834999
 21
197.91252
  0
LINE
  8
0
  6
CONTINUOUS
 62
     7
 10
-88.584999
 20
198.66252
 11
-90.084999
 21
198.66252
  0
LINE
  8
0
  6
CONTINUOUS
 62
     7
 10
-90.085001
 20
198.66252
 11
-90.834997
 21
197.91253
  0
LINE
  8
0
  6
CONTINUOUS
 62
     7
 10
-90.084999
 20
198.66252
 11
-90.084999
 21
200.16252
  0
LINE
  8
0
  6
CONTINUOUS
 62
     7
 10
-90.834999
 20
197.91252
 11
-90.834999
 21
200.91252
  0
LINE
  8
0
  6
CONTINUOUS
 62
     7
 10
-90.084998
 20
200.16251
 11
-90.835002
 21
200.91252
  0
LINE
  8
0
  6
CONTINUOUS
 62
     7
 10
-88.584993
 20
200.16252
 11
-87.834993
 21
200.91252
  0
LINE
  8
0
  6
CONTINUOUS
 62
     7
 10
-87.834999
 20
204.91252
 11
-90.834999
 21
204.91252
  0
LINE
  8
0
  6
CONTINUOUS
 62
     7
 10
-88.584999
 20
204.16252
 11
-90.084999
 21
204.16252
  0
LINE
  8
0
  6
CONTINUOUS
 62
     7
 10
-88.584999
 20
202.66252
 11
-88.584999
 21
204.16252
  0
LINE
  8
0
  6
CONTINUOUS
 62
     7
 10
-87.834999
 20
201.91252
 11
-87.834999
 21
204.91252
  0
LINE
  8
0
  6
CONTINUOUS
 62
     7
 10
-88.585006
 20
202.66252
 11
-87.835001
 21
201.91251
  0
LINE
  8
0
  6
CONTINUOUS
 62
     7
 10
-87.834999
 20
201.91252
 11
-90.834999
 21
201.91252
  0
LINE
  8
0
  6
CONTINUOUS
 62
     7
 10
-88.584999
 20
202.66252
 11
-90.084999
 21
202.66252
  0
LINE
  8
0
  6
CONTINUOUS
 62
     7
 10
-90.084988
 20
202.66252
 11
-90.834989
 21
201.91252
  0
LINE
  8
0
  6
CONTINUOUS
 62
     7
 10
-90.084999
 20
202.66252
 11
-90.084999
 21
204.16252
  0
LINE
  8
0
  6
CONTINUOUS
 62
     7
 10
-90.834999
 20
201.91252
 11
-90.834999
 21
204.91252
  0
LINE
  8
0
  6
CONTINUOUS
 62
     7
 10
-90.085011
 20
204.16253
 11
-90.835004
 21
204.91252
  0
LINE
  8
0
  6
CONTINUOUS
 62
     7
 10
-88.585001
 20
204.16252
 11
-87.835
 21
204.91252
  0
LINE
  8
0
  6
CONTINUOUS
 62
     7
 10
-87.834999
 20
208.91252
 11
-90.834999
 21
208.91252
  0
LINE
  8
0
  6
CONTINUOUS
 62
     7
 10
-88.584999
 20
208.16252
 11
-90.084999
 21
208.16252
  0
LINE
  8
0
  6
CONTINUOUS
 62
     7
 10
-88.584999
 20
206.66252
 11
-88.584999
 21
208.16252
  0
LINE
  8
0
  6
CONTINUOUS
 62
     7
 10
-87.834999
 20
205.91252
 11
-87.834999
 21
208.91252
  0
LINE
  8
0
  6
CONTINUOUS
 62
     7
 10
-88.585011
 20
206.66253
 11
-87.835007
 21
205.91252
  0
LINE
  8
0
  6
CONTINUOUS
 62
     7
 10
-87.834999
 20
205.91252
 11
-90.834999
 21
205.91252
  0
LINE
  8
0
  6
CONTINUOUS
 62
     7
 10
-88.584999
 20
206.66252
 11
-90.084999
 21
206.66252
  0
LINE
  8
0
  6
CONTINUOUS
 62
     7
 10
-90.085001
 20
206.66253
 11
-90.835003
 21
205.91253
  0
LINE
  8
0
  6
CONTINUOUS
 62
     7
 10
-90.084999
 20
206.66252
 11
-90.084999
 21
208.16252
  0
LINE
  8
0
  6
CONTINUOUS
 62
     7
 10
-90.834999
 20
205.91252
 11
-90.834999
 21
208.91252
  0
LINE
  8
0
  6
CONTINUOUS
 62
     7
 10
-90.084992
 20
208.16252
 11
-90.835001
 21
208.91252
  0
LINE
  8
0
  6
CONTINUOUS
 62
     7
 10
-112.17335
 20
190.25087
 11
-111.835
 21
189.91252
  0
LINE
  8
0
  6
CONTINUOUS
 62
     7
 10
-111.835
 20
189.91252
 11
-111.835
 21
192.38745
  0
LINE
  8
0
  6
CONTINUOUS
 62
     7
 10
-111.835
 20
189.91252
 11
-112.20969
 21
189.91252
  0
LINE
  8
0
  6
CONTINUOUS
 62
     7
 10
-112.31414
 20
186.39167
 11
-111.835
 21
185.91253
  0
LINE
  8
0
  6
CONTINUOUS
 62
     7
 10
-111.835
 20
185.91252
 11
-111.835
 21
188.91252
  0
LINE
  8
0
  6
CONTINUOUS
 62
     7
 10
-111.835
 20
185.91252
 11
-112.28996
 21
185.91252
  0
LINE
  8
0
  6
CONTINUOUS
 62
     7
 10
-112.31415
 20
188.43338
 11
-111.835
 21
188.91252
  0
LINE
  8
0
  6
CONTINUOUS
 62
     7
 10
-111.835
 20
188.91252
 11
-112.28996
 21
188.91252
  0
LINE
  8
0
  6
CONTINUOUS
 62
     7
 10
-91.834999
 20
164.91252
 11
-91.834999
 21
162.82086
  0
LINE
  8
0
  6
CONTINUOUS
 62
     7
 10
-92.584999
 20
164.16252
 11
-92.584999
 21
162.96999
  0
LINE
  8
0
  6
CONTINUOUS
 62
     7
 10
-94.084999
 20
164.16252
 11
-94.084999
 21
163.34102
  0
LINE
  8
0
  6
CONTINUOUS
 62
     7
 10
-94.834999
 20
164.91252
 11
-94.834999
 21
163.56404
  0
LINE
  8
0
  6
CONTINUOUS
 62
     7
 10
-94.084993
 20
164.16252
 11
-94.835002
 21
164.91252
  0
LINE
  8
0
  6
CONTINUOUS
 62
     7
 10
-92.584999
 20
164.16252
 11
-94.084999
 21
164.16252
  0
LINE
  8
0
  6
CONTINUOUS
 62
     7
 10
-91.834999
 20
164.91252
 11
-94.834999
 21
164.91252
  0
LINE
  8
0
  6
CONTINUOUS
 62
     7
 10
-92.584995
 20
164.16251
 11
-91.834998
 21
164.91251
  0
LINE
  8
0
  6
CONTINUOUS
 62
     7
 10
-91.834999
 20
177.91252
 11
-94.834999
 21
177.91252
  0
LINE
  8
0
  6
CONTINUOUS
 62
     7
 10
-92.584999
 20
178.66252
 11
-94.084999
 21
178.66252
  0
LINE
  8
0
  6
CONTINUOUS
 62
     7
 10
-92.584999
 20
180.16252
 11
-92.584999
 21
178.66252
  0
LINE
  8
0
  6
CONTINUOUS
 62
     7
 10
-91.834999
 20
180.91252
 11
-91.834999
 21
177.91252
  0
LINE
  8
0
  6
CONTINUOUS
 62
     7
 10
-92.584998
 20
180.16252
 11
-91.834999
 21
180.91252
  0
LINE
  8
0
  6
CONTINUOUS
 62
     7
 10
-91.834999
 20
180.91252
 11
-94.834999
 21
180.91252
  0
LINE
  8
0
  6
CONTINUOUS
 62
     7
 10
-92.584999
 20
180.16252
 11
-94.084999
 21
180.16252
  0
LINE
  8
0
  6
CONTINUOUS
 62
     7
 10
-94.085003
 20
180.16253
 11
-94.835001
 21
180.91252
  0
LINE
  8
0
  6
CONTINUOUS
 62
     7
 10
-94.084999
 20
180.16252
 11
-94.084999
 21
178.66252
  0
LINE
  8
0
  6
CONTINUOUS
 62
     7
 10
-94.834999
 20
180.91252
 11
-94.834999
 21
177.91252
  0
LINE
  8
0
  6
CONTINUOUS
 62
     7
 10
-94.084997
 20
178.66252
 11
-94.834997
 21
177.91252
  0
LINE
  8
0
  6
CONTINUOUS
 62
     7
 10
-92.585004
 20
178.66252
 11
-91.834994
 21
177.91252
  0
LINE
  8
0
  6
CONTINUOUS
 62
     7
 10
-91.834999
 20
173.91252
 11
-94.834999
 21
173.91252
  0
LINE
  8
0
  6
CONTINUOUS
 62
     7
 10
-92.584999
 20
174.66252
 11
-94.084999
 21
174.66252
  0
LINE
  8
0
  6
CONTINUOUS
 62
     7
 10
-92.584999
 20
176.16252
 11
-92.584999
 21
174.66252
  0
LINE
  8
0
  6
CONTINUOUS
 62
     7
 10
-91.834999
 20
176.91252
 11
-91.834999
 21
173.91252
  0
LINE
  8
0
  6
CONTINUOUS
 62
     7
 10
-92.584998
 20
176.16252
 11
-91.834996
 21
176.91252
  0
LINE
  8
0
  6
CONTINUOUS
 62
     7
 10
-91.834999
 20
176.91252
 11
-94.834999
 21
176.91252
  0
LINE
  8
0
  6
CONTINUOUS
 62
     7
 10
-92.584999
 20
176.16252
 11
-94.084999
 21
176.16252
  0
LINE
  8
0
  6
CONTINUOUS
 62
     7
 10
-94.085006
 20
176.16253
 11
-94.834999
 21
176.91252
  0
LINE
  8
0
  6
CONTINUOUS
 62
     7
 10
-94.084999
 20
176.16252
 11
-94.084999
 21
174.66252
  0
LINE
  8
0
  6
CONTINUOUS
 62
     7
 10
-94.834999
 20
176.91252
 11
-94.834999
 21
173.91252
  0
LINE
  8
0
  6
CONTINUOUS
 62
     7
 10
-94.084998
 20
174.66252
 11
-94.834999
 21
173.91252
  0
LINE
  8
0
  6
CONTINUOUS
 62
     7
 10
-92.585004
 20
174.66252
 11
-91.835
 21
173.91252
  0
LINE
  8
0
  6
CONTINUOUS
 62
     7
 10
-91.834999
 20
169.91252
 11
-94.834999
 21
169.91252
  0
LINE
  8
0
  6
CONTINUOUS
 62
     7
 10
-92.584999
 20
170.66252
 11
-94.084999
 21
170.66252
  0
LINE
  8
0
  6
CONTINUOUS
 62
     7
 10
-92.584999
 20
172.16252
 11
-92.584999
 21
170.66252
  0
LINE
  8
0
  6
CONTINUOUS
 62
     7
 10
-91.834999
 20
172.91252
 11
-91.834999
 21
169.91252
  0
LINE
  8
0
  6
CONTINUOUS
 62
     7
 10
-92.585006
 20
172.16253
 11
-91.835004
 21
172.91253
  0
LINE
  8
0
  6
CONTINUOUS
 62
     7
 10
-91.834999
 20
172.91252
 11
-94.834999
 21
172.91252
  0
LINE
  8
0
  6
CONTINUOUS
 62
     7
 10
-92.584999
 20
172.16252
 11
-94.084999
 21
172.16252
  0
LINE
  8
0
  6
CONTINUOUS
 62
     7
 10
-94.085006
 20
172.16252
 11
-94.835
 21
172.91252
  0
LINE
  8
0
  6
CONTINUOUS
 62
     7
 10
-94.084999
 20
172.16252
 11
-94.084999
 21
170.66252
  0
LINE
  8
0
  6
CONTINUOUS
 62
     7
 10
-94.834999
 20
172.91252
 11
-94.834999
 21
169.91252
  0
LINE
  8
0
  6
CONTINUOUS
 62
     7
 10
-94.085013
 20
170.66252
 11
-94.83501
 21
169.91253
  0
LINE
  8
0
  6
CONTINUOUS
 62
     7
 10
-92.585003
 20
170.66252
 11
-91.834999
 21
169.91251
  0
LINE
  8
0
  6
CONTINUOUS
 62
     7
 10
-91.834999
 20
165.91252
 11
-94.834999
 21
165.91252
  0
LINE
  8
0
  6
CONTINUOUS
 62
     7
 10
-92.584999
 20
166.66252
 11
-94.084999
 21
166.66252
  0
LINE
  8
0
  6
CONTINUOUS
 62
     7
 10
-92.584999
 20
168.16252
 11
-92.584999
 21
166.66252
  0
LINE
  8
0
  6
CONTINUOUS
 62
     7
 10
-91.834999
 20
168.91252
 11
-91.834999
 21
165.91252
  0
LINE
  8
0
  6
CONTINUOUS
 62
     7
 10
-92.585001
 20
168.16252
 11
-91.835004
 21
168.91252
  0
LINE
  8
0
  6
CONTINUOUS
 62
     7
 10
-91.834999
 20
168.91252
 11
-94.834999
 21
168.91252
  0
LINE
  8
0
  6
CONTINUOUS
 62
     7
 10
-92.584999
 20
168.16252
 11
-94.084999
 21
168.16252
  0
LINE
  8
0
  6
CONTINUOUS
 62
     7
 10
-94.084993
 20
168.16252
 11
-94.835002
 21
168.91252
  0
LINE
  8
0
  6
CONTINUOUS
 62
     7
 10
-94.084999
 20
168.16252
 11
-94.084999
 21
166.66252
  0
LINE
  8
0
  6
CONTINUOUS
 62
     7
 10
-94.834999
 20
168.91252
 11
-94.834999
 21
165.91252
  0
LINE
  8
0
  6
CONTINUOUS
 62
     7
 10
-94.085
 20
166.66251
 11
-94.834997
 21
165.91252
  0
LINE
  8
0
  6
CONTINUOUS
 62
     7
 10
-92.585001
 20
166.66252
 11
-91.834997
 21
165.91251
  0
LINE
  8
0
  6
CONTINUOUS
 62
     7
 10
-91.834999
 20
209.91252
 11
-91.834999
 21
212.00418
  0
LINE
  8
0
  6
CONTINUOUS
 62
     7
 10
-92.584999
 20
210.66252
 11
-92.584999
 21
211.85506
  0
LINE
  8
0
  6
CONTINUOUS
 62
     7
 10
-94.084999
 20
210.66252
 11
-94.084999
 21
211.48402
  0
LINE
  8
0
  6
CONTINUOUS
 62
     7
 10
-94.834999
 20
209.91252
 11
-94.834999
 21
211.261
  0
LINE
  8
0
  6
CONTINUOUS
 62
     7
 10
-94.084998
 20
210.66252
 11
-94.834999
 21
209.91252
  0
LINE
  8
0
  6
CONTINUOUS
 62
     7
 10
-92.584999
 20
210.66252
 11
-94.084999
 21
210.66252
  0
LINE
  8
0
  6
CONTINUOUS
 62
     7
 10
-91.834999
 20
209.91252
 11
-94.834999
 21
209.91252
  0
LINE
  8
0
  6
CONTINUOUS
 62
     7
 10
-92.585005
 20
210.66252
 11
-91.835001
 21
209.91251
  0
LINE
  8
0
  6
CONTINUOUS
 62
     7
 10
-91.834999
 20
184.91252
 11
-94.834999
 21
184.91252
  0
LINE
  8
0
  6
CONTINUOUS
 62
     7
 10
-92.584999
 20
184.16252
 11
-94.084999
 21
184.16252
  0
LINE
  8
0
  6
CONTINUOUS
 62
     7
 10
-92.584999
 20
182.66252
 11
-92.584999
 21
184.16252
  0
LINE
  8
0
  6
CONTINUOUS
 62
     7
 10
-91.834999
 20
181.91252
 11
-91.834999
 21
184.91252
  0
LINE
  8
0
  6
CONTINUOUS
 62
     7
 10
-92.585001
 20
182.66253
 11
-91.834997
 21
181.91252
  0
LINE
  8
0
  6
CONTINUOUS
 62
     7
 10
-91.834999
 20
181.91252
 11
-94.834999
 21
181.91252
  0
LINE
  8
0
  6
CONTINUOUS
 62
     7
 10
-92.584999
 20
182.66252
 11
-94.084999
 21
182.66252
  0
LINE
  8
0
  6
CONTINUOUS
 62
     7
 10
-94.085
 20
182.66253
 11
-94.835002
 21
181.91252
  0
LINE
  8
0
  6
CONTINUOUS
 62
     7
 10
-94.084999
 20
182.66252
 11
-94.084999
 21
184.16252
  0
LINE
  8
0
  6
CONTINUOUS
 62
     7
 10
-94.834999
 20
181.91252
 11
-94.834999
 21
184.91252
  0
LINE
  8
0
  6
CONTINUOUS
 62
     7
 10
-94.08499
 20
184.16252
 11
-94.834999
 21
184.91252
  0
LINE
  8
0
  6
CONTINUOUS
 62
     7
 10
-92.584998
 20
184.16253
 11
-91.834996
 21
184.91253
  0
LINE
  8
0
  6
CONTINUOUS
 62
     7
 10
-91.834999
 20
200.91252
 11
-94.834999
 21
200.91252
  0
LINE
  8
0
  6
CONTINUOUS
 62
     7
 10
-92.584999
 20
200.16252
 11
-94.084999
 21
200.16252
  0
LINE
  8
0
  6
CONTINUOUS
 62
     7
 10
-92.584999
 20
198.66252
 11
-92.584999
 21
200.16252
  0
LINE
  8
0
  6
CONTINUOUS
 62
     7
 10
-91.834999
 20
197.91252
 11
-91.834999
 21
200.91252
  0
LINE
  8
0
  6
CONTINUOUS
 62
     7
 10
-92.585
 20
198.66252
 11
-91.835002
 21
197.91253
  0
LINE
  8
0
  6
CONTINUOUS
 62
     7
 10
-91.834999
 20
197.91252
 11
-94.834999
 21
197.91252
  0
LINE
  8
0
  6
CONTINUOUS
 62
     7
 10
-92.584999
 20
198.66252
 11
-94.084999
 21
198.66252
  0
LINE
  8
0
  6
CONTINUOUS
 62
     7
 10
-94.084993
 20
198.66252
 11
-94.834992
 21
197.91252
  0
LINE
  8
0
  6
CONTINUOUS
 62
     7
 10
-94.084999
 20
198.66252
 11
-94.084999
 21
200.16252
  0
LINE
  8
0
  6
CONTINUOUS
 62
     7
 10
-94.834999
 20
197.91252
 11
-94.834999
 21
200.91252
  0
LINE
  8
0
  6
CONTINUOUS
 62
     7
 10
-94.085002
 20
200.16252
 11
-94.834995
 21
200.91252
  0
LINE
  8
0
  6
CONTINUOUS
 62
     7
 10
-92.584992
 20
200.16252
 11
-91.834991
 21
200.91252
  0
LINE
  8
0
  6
CONTINUOUS
 62
     7
 10
-91.834999
 20
204.91252
 11
-94.834999
 21
204.91252
  0
LINE
  8
0
  6
CONTINUOUS
 62
     7
 10
-92.584999
 20
204.16252
 11
-94.084999
 21
204.16252
  0
LINE
  8
0
  6
CONTINUOUS
 62
     7
 10
-92.584999
 20
202.66252
 11
-92.584999
 21
204.16252
  0
LINE
  8
0
  6
CONTINUOUS
 62
     7
 10
-91.834999
 20
201.91252
 11
-91.834999
 21
204.91252
  0
LINE
  8
0
  6
CONTINUOUS
 62
     7
 10
-92.58501
 20
202.66253
 11
-91.835006
 21
201.91252
  0
LINE
  8
0
  6
CONTINUOUS
 62
     7
 10
-91.834999
 20
201.91252
 11
-94.834999
 21
201.91252
  0
LINE
  8
0
  6
CONTINUOUS
 62
     7
 10
-92.584999
 20
202.66252
 11
-94.084999
 21
202.66252
  0
LINE
  8
0
  6
CONTINUOUS
 62
     7
 10
-94.084992
 20
202.66252
 11
-94.834993
 21
201.91252
  0
LINE
  8
0
  6
CONTINUOUS
 62
     7
 10
-94.084999
 20
202.66252
 11
-94.084999
 21
204.16252
  0
LINE
  8
0
  6
CONTINUOUS
 62
     7
 10
-94.834999
 20
201.91252
 11
-94.834999
 21
204.91252
  0
LINE
  8
0
  6
CONTINUOUS
 62
     7
 10
-94.084997
 20
204.16252
 11
-94.834995
 21
204.91252
  0
LINE
  8
0
  6
CONTINUOUS
 62
     7
 10
-92.584995
 20
204.16251
 11
-91.834994
 21
204.91252
  0
LINE
  8
0
  6
CONTINUOUS
 62
     7
 10
-91.834999
 20
208.91252
 11
-94.834999
 21
208.91252
  0
LINE
  8
0
  6
CONTINUOUS
 62
     7
 10
-92.584999
 20
208.16252
 11
-94.084999
 21
208.16252
  0
LINE
  8
0
  6
CONTINUOUS
 62
     7
 10
-92.584999
 20
206.66252
 11
-92.584999
 21
208.16252
  0
LINE
  8
0
  6
CONTINUOUS
 62
     7
 10
-91.834999
 20
205.91252
 11
-91.834999
 21
208.91252
  0
LINE
  8
0
  6
CONTINUOUS
 62
     7
 10
-92.585
 20
206.66252
 11
-91.835001
 21
205.91252
  0
LINE
  8
0
  6
CONTINUOUS
 62
     7
 10
-91.834999
 20
205.91252
 11
-94.834999
 21
205.91252
  0
LINE
  8
0
  6
CONTINUOUS
 62
     7
 10
-92.584999
 20
206.66252
 11
-94.084999
 21
206.66252
  0
LINE
  8
0
  6
CONTINUOUS
 62
     7
 10
-94.084995
 20
206.66253
 11
-94.834997
 21
205.91252
  0
LINE
  8
0
  6
CONTINUOUS
 62
     7
 10
-94.084999
 20
206.66252
 11
-94.084999
 21
208.16252
  0
LINE
  8
0
  6
CONTINUOUS
 62
     7
 10
-94.834999
 20
205.91252
 11
-94.834999
 21
208.91252
  0
LINE
  8
0
  6
CONTINUOUS
 62
     7
 10
-94.084997
 20
208.16251
 11
-94.835006
 21
208.91252
  0
LINE
  8
0
  6
CONTINUOUS
 62
     7
 10
-92.585008
 20
208.16252
 11
-91.835007
 21
208.91252
  0
LINE
  8
0
  6
CONTINUOUS
 62
     7
 10
-92.584999
 20
194.66252
 11
-94.084999
 21
194.66252
  0
LINE
  8
0
  6
CONTINUOUS
 62
     7
 10
-92.584999
 20
194.66252
 11
-92.584999
 21
196.16252
  0
LINE
  8
0
  6
CONTINUOUS
 62
     7
 10
-92.585
 20
194.66252
 11
-91.835002
 21
193.91253
  0
LINE
  8
0
  6
CONTINUOUS
 62
     7
 10
-91.834999
 20
193.91252
 11
-91.834999
 21
196.91252
  0
LINE
  8
0
  6
CONTINUOUS
 62
     7
 10
-91.834999
 20
193.91252
 11
-94.834999
 21
193.91252
  0
LINE
  8
0
  6
CONTINUOUS
 62
     7
 10
-94.084992
 20
194.66252
 11
-94.834993
 21
193.91252
  0
LINE
  8
0
  6
CONTINUOUS
 62
     7
 10
-94.084999
 20
194.66252
 11
-94.084999
 21
196.16252
  0
LINE
  8
0
  6
CONTINUOUS
 62
     7
 10
-92.584999
 20
196.16252
 11
-94.084999
 21
196.16252
  0
LINE
  8
0
  6
CONTINUOUS
 62
     7
 10
-94.084996
 20
196.16252
 11
-94.835001
 21
196.91252
  0
LINE
  8
0
  6
CONTINUOUS
 62
     7
 10
-92.584992
 20
196.16252
 11
-91.834999
 21
196.91251
  0
LINE
  8
0
  6
CONTINUOUS
 62
     7
 10
-91.834999
 20
196.91252
 11
-94.834999
 21
196.91252
  0
LINE
  8
0
  6
CONTINUOUS
 62
     7
 10
-94.834999
 20
193.91252
 11
-94.834999
 21
196.91252
  0
LINE
  8
0
  6
CONTINUOUS
 62
     7
 10
-92.584999
 20
190.66252
 11
-94.084999
 21
190.66252
  0
LINE
  8
0
  6
CONTINUOUS
 62
     7
 10
-92.584999
 20
190.66252
 11
-92.584999
 21
192.16252
  0
LINE
  8
0
  6
CONTINUOUS
 62
     7
 10
-92.584999
 20
190.66252
 11
-91.835005
 21
189.91252
  0
LINE
  8
0
  6
CONTINUOUS
 62
     7
 10
-91.834999
 20
189.91252
 11
-91.834999
 21
192.91252
  0
LINE
  8
0
  6
CONTINUOUS
 62
     7
 10
-91.834999
 20
189.91252
 11
-94.834999
 21
189.91252
  0
LINE
  8
0
  6
CONTINUOUS
 62
     7
 10
-94.085006
 20
190.66252
 11
-94.835007
 21
189.91252
  0
LINE
  8
0
  6
CONTINUOUS
 62
     7
 10
-94.084999
 20
190.66252
 11
-94.084999
 21
192.16252
  0
LINE
  8
0
  6
CONTINUOUS
 62
     7
 10
-92.584999
 20
192.16252
 11
-94.084999
 21
192.16252
  0
LINE
  8
0
  6
CONTINUOUS
 62
     7
 10
-94.085002
 20
192.16252
 11
-94.834995
 21
192.91251
  0
LINE
  8
0
  6
CONTINUOUS
 62
     7
 10
-92.584998
 20
192.16253
 11
-91.834996
 21
192.91253
  0
LINE
  8
0
  6
CONTINUOUS
 62
     7
 10
-91.834999
 20
192.91252
 11
-94.834999
 21
192.91252
  0
LINE
  8
0
  6
CONTINUOUS
 62
     7
 10
-94.834999
 20
189.91252
 11
-94.834999
 21
192.91252
  0
LINE
  8
0
  6
CONTINUOUS
 62
     7
 10
-92.584999
 20
186.66252
 11
-94.084999
 21
186.66252
  0
LINE
  8
0
  6
CONTINUOUS
 62
     7
 10
-92.584999
 20
186.66252
 11
-92.584999
 21
188.16252
  0
LINE
  8
0
  6
CONTINUOUS
 62
     7
 10
-92.584995
 20
186.66251
 11
-91.835008
 21
185.91252
  0
LINE
  8
0
  6
CONTINUOUS
 62
     7
 10
-91.834999
 20
185.91252
 11
-91.834999
 21
188.91252
  0
LINE
  8
0
  6
CONTINUOUS
 62
     7
 10
-91.834999
 20
185.91252
 11
-94.834999
 21
185.91252
  0
LINE
  8
0
  6
CONTINUOUS
 62
     7
 10
-94.084989
 20
186.66253
 11
-94.834991
 21
185.91252
  0
LINE
  8
0
  6
CONTINUOUS
 62
     7
 10
-94.084999
 20
186.66252
 11
-94.084999
 21
188.16252
  0
LINE
  8
0
  6
CONTINUOUS
 62
     7
 10
-92.584999
 20
188.16252
 11
-94.084999
 21
188.16252
  0
LINE
  8
0
  6
CONTINUOUS
 62
     7
 10
-94.085006
 20
188.16252
 11
-94.835015
 21
188.91252
  0
LINE
  8
0
  6
CONTINUOUS
 62
     7
 10
-92.585
 20
188.16252
 11
-91.835004
 21
188.91252
  0
LINE
  8
0
  6
CONTINUOUS
 62
     7
 10
-91.834999
 20
188.91252
 11
-94.834999
 21
188.91252
  0
LINE
  8
0
  6
CONTINUOUS
 62
     7
 10
-94.834999
 20
185.91252
 11
-94.834999
 21
188.91252
  0
LINE
  8
0
  6
CONTINUOUS
 62
     7
 10
-95.834999
 20
164.91252
 11
-95.834999
 21
163.90189
  0
LINE
  8
0
  6
CONTINUOUS
 62
     7
 10
-96.584999
 20
164.18672
 11
-96.584999
 21
164.16252
  0
LINE
  8
0
  6
CONTINUOUS
 62
     7
 10
-95.834999
 20
164.91252
 11
-98.232246
 21
164.91252
  0
LINE
  8
0
  6
CONTINUOUS
 62
     7
 10
-96.585002
 20
164.16252
 11
-95.835001
 21
164.91252
  0
LINE
  8
0
  6
CONTINUOUS
 62
     7
 10
-95.834999
 20
177.91252
 11
-98.834999
 21
177.91252
  0
LINE
  8
0
  6
CONTINUOUS
 62
     7
 10
-96.584999
 20
178.66252
 11
-98.084999
 21
178.66252
  0
LINE
  8
0
  6
CONTINUOUS
 62
     7
 10
-96.584999
 20
180.16252
 11
-96.584999
 21
178.66252
  0
LINE
  8
0
  6
CONTINUOUS
 62
     7
 10
-95.834999
 20
180.91252
 11
-95.834999
 21
177.91252
  0
LINE
  8
0
  6
CONTINUOUS
 62
     7
 10
-96.584999
 20
180.16252
 11
-95.834999
 21
180.91252
  0
LINE
  8
0
  6
CONTINUOUS
 62
     7
 10
-95.834999
 20
180.91252
 11
-98.834999
 21
180.91252
  0
LINE
  8
0
  6
CONTINUOUS
 62
     7
 10
-96.584999
 20
180.16252
 11
-98.084999
 21
180.16252
  0
LINE
  8
0
  6
CONTINUOUS
 62
     7
 10
-98.084997
 20
180.16252
 11
-98.835006
 21
180.91252
  0
LINE
  8
0
  6
CONTINUOUS
 62
     7
 10
-98.084999
 20
180.16252
 11
-98.084999
 21
178.66252
  0
LINE
  8
0
  6
CONTINUOUS
 62
     7
 10
-98.834999
 20
180.91252
 11
-98.834999
 21
177.91252
  0
LINE
  8
0
  6
CONTINUOUS
 62
     7
 10
-98.084994
 20
178.66252
 11
-98.834992
 21
177.91252
  0
LINE
  8
0
  6
CONTINUOUS
 62
     7
 10
-96.585011
 20
178.66252
 11
-95.835001
 21
177.91252
  0
LINE
  8
0
  6
CONTINUOUS
 62
     7
 10
-95.834999
 20
173.91252
 11
-98.834999
 21
173.91252
  0
LINE
  8
0
  6
CONTINUOUS
 62
     7
 10
-96.584999
 20
174.66252
 11
-98.084999
 21
174.66252
  0
LINE
  8
0
  6
CONTINUOUS
 62
     7
 10
-96.584999
 20
176.16252
 11
-96.584999
 21
174.66252
  0
LINE
  8
0
  6
CONTINUOUS
 62
     7
 10
-95.834999
 20
176.91252
 11
-95.834999
 21
173.91252
  0
LINE
  8
0
  6
CONTINUOUS
 62
     7
 10
-96.585002
 20
176.16253
 11
-95.835001
 21
176.91253
  0
LINE
  8
0
  6
CONTINUOUS
 62
     7
 10
-95.834999
 20
176.91252
 11
-98.834999
 21
176.91252
  0
LINE
  8
0
  6
CONTINUOUS
 62
     7
 10
-96.584999
 20
176.16252
 11
-98.084999
 21
176.16252
  0
LINE
  8
0
  6
CONTINUOUS
 62
     7
 10
-98.085005
 20
176.16252
 11
-98.834998
 21
176.91252
  0
LINE
  8
0
  6
CONTINUOUS
 62
     7
 10
-98.084999
 20
176.16252
 11
-98.084999
 21
174.66252
  0
LINE
  8
0
  6
CONTINUOUS
 62
     7
 10
-98.834999
 20
176.91252
 11
-98.834999
 21
173.91252
  0
LINE
  8
0
  6
CONTINUOUS
 62
     7
 10
-98.084996
 20
174.66251
 11
-98.834994
 21
173.91252
  0
LINE
  8
0
  6
CONTINUOUS
 62
     7
 10
-96.584997
 20
174.66252
 11
-95.834999
 21
173.91252
  0
LINE
  8
0
  6
CONTINUOUS
 62
     7
 10
-95.834999
 20
169.91252
 11
-98.834999
 21
169.91252
  0
LINE
  8
0
  6
CONTINUOUS
 62
     7
 10
-96.584999
 20
170.66252
 11
-98.084999
 21
170.66252
  0
LINE
  8
0
  6
CONTINUOUS
 62
     7
 10
-96.584999
 20
172.16252
 11
-96.584999
 21
170.66252
  0
LINE
  8
0
  6
CONTINUOUS
 62
     7
 10
-95.834999
 20
172.91252
 11
-95.834999
 21
169.91252
  0
LINE
  8
0
  6
CONTINUOUS
 62
     7
 10
-96.584991
 20
172.16251
 11
-95.834994
 21
172.91251
  0
LINE
  8
0
  6
CONTINUOUS
 62
     7
 10
-95.834999
 20
172.91252
 11
-98.834999
 21
172.91252
  0
LINE
  8
0
  6
CONTINUOUS
 62
     7
 10
-96.584999
 20
172.16252
 11
-98.084999
 21
172.16252
  0
LINE
  8
0
  6
CONTINUOUS
 62
     7
 10
-98.085
 20
172.16252
 11
-98.834992
 21
172.91251
  0
LINE
  8
0
  6
CONTINUOUS
 62
     7
 10
-98.084999
 20
172.16252
 11
-98.084999
 21
170.66252
  0
LINE
  8
0
  6
CONTINUOUS
 62
     7
 10
-98.834999
 20
172.91252
 11
-98.834999
 21
169.91252
  0
LINE
  8
0
  6
CONTINUOUS
 62
     7
 10
-98.085002
 20
170.66252
 11
-98.834999
 21
169.91252
  0
LINE
  8
0
  6
CONTINUOUS
 62
     7
 10
-96.584993
 20
170.66252
 11
-95.835006
 21
169.91253
  0
LINE
  8
0
  6
CONTINUOUS
 62
     7
 10
-95.834999
 20
165.91252
 11
-98.834999
 21
165.91252
  0
LINE
  8
0
  6
CONTINUOUS
 62
     7
 10
-96.584999
 20
166.66252
 11
-98.084999
 21
166.66252
  0
LINE
  8
0
  6
CONTINUOUS
 62
     7
 10
-96.584999
 20
168.16252
 11
-96.584999
 21
166.66252
  0
LINE
  8
0
  6
CONTINUOUS
 62
     7
 10
-95.834999
 20
168.91252
 11
-95.834999
 21
165.91252
  0
LINE
  8
0
  6
CONTINUOUS
 62
     7
 10
-96.585007
 20
168.16253
 11
-95.835011
 21
168.91252
  0
LINE
  8
0
  6
CONTINUOUS
 62
     7
 10
-95.834999
 20
168.91252
 11
-98.834999
 21
168.91252
  0
LINE
  8
0
  6
CONTINUOUS
 62
     7
 10
-96.584999
 20
168.16252
 11
-98.084999
 21
168.16252
  0
LINE
  8
0
  6
CONTINUOUS
 62
     7
 10
-98.085005
 20
168.16252
 11
-98.834998
 21
168.91252
  0
LINE
  8
0
  6
CONTINUOUS
 62
     7
 10
-98.084999
 20
168.16252
 11
-98.084999
 21
166.66252
  0
LINE
  8
0
  6
CONTINUOUS
 62
     7
 10
-98.834999
 20
168.91252
 11
-98.834999
 21
165.91252
  0
LINE
  8
0
  6
CONTINUOUS
 62
     7
 10
-98.085002
 20
166.66253
 11
-98.835003
 21
165.91252
  0
LINE
  8
0
  6
CONTINUOUS
 62
     7
 10
-96.585002
 20
166.66252
 11
-95.834998
 21
165.91251
  0
LINE
  8
0
  6
CONTINUOUS
 62
     7
 10
-95.834999
 20
209.91252
 11
-95.834999
 21
210.92316
  0
LINE
  8
0
  6
CONTINUOUS
 62
     7
 10
-95.834999
 20
209.91252
 11
-98.232246
 21
209.91252
  0
LINE
  8
0
  6
CONTINUOUS
 62
     7
 10
-96.567687
 20
210.6452
 11
-95.835009
 21
209.91252
  0
LINE
  8
0
  6
CONTINUOUS
 62
     7
 10
-95.834999
 20
184.91252
 11
-98.834999
 21
184.91252
  0
LINE
  8
0
  6
CONTINUOUS
 62
     7
 10
-96.584999
 20
184.16252
 11
-98.084999
 21
184.16252
  0
LINE
  8
0
  6
CONTINUOUS
 62
     7
 10
-96.584999
 20
182.66252
 11
-96.584999
 21
184.16252
  0
LINE
  8
0
  6
CONTINUOUS
 62
     7
 10
-95.834999
 20
181.91252
 11
-95.834999
 21
184.91252
  0
LINE
  8
0
  6
CONTINUOUS
 62
     7
 10
-96.58499
 20
182.66252
 11
-95.834997
 21
181.91252
  0
LINE
  8
0
  6
CONTINUOUS
 62
     7
 10
-95.834999
 20
181.91252
 11
-98.834999
 21
181.91252
  0
LINE
  8
0
  6
CONTINUOUS
 62
     7
 10
-96.584999
 20
182.66252
 11
-98.084999
 21
182.66252
  0
LINE
  8
0
  6
CONTINUOUS
 62
     7
 10
-98.084994
 20
182.66252
 11
-98.834995
 21
181.91252
  0
LINE
  8
0
  6
CONTINUOUS
 62
     7
 10
-98.084999
 20
182.66252
 11
-98.084999
 21
184.16252
  0
LINE
  8
0
  6
CONTINUOUS
 62
     7
 10
-98.834999
 20
181.91252
 11
-98.834999
 21
184.91252
  0
LINE
  8
0
  6
CONTINUOUS
 62
     7
 10
-98.085003
 20
184.16252
 11
-98.835007
 21
184.91253
  0
LINE
  8
0
  6
CONTINUOUS
 62
     7
 10
-96.585005
 20
184.16253
 11
-95.835003
 21
184.91253
  0
LINE
  8
0
  6
CONTINUOUS
 62
     7
 10
-95.834999
 20
200.91252
 11
-98.834999
 21
200.91252
  0
LINE
  8
0
  6
CONTINUOUS
 62
     7
 10
-96.584999
 20
200.16252
 11
-98.084999
 21
200.16252
  0
LINE
  8
0
  6
CONTINUOUS
 62
     7
 10
-96.584999
 20
198.66252
 11
-96.584999
 21
200.16252
  0
LINE
  8
0
  6
CONTINUOUS
 62
     7
 10
-95.834999
 20
197.91252
 11
-95.834999
 21
200.91252
  0
LINE
  8
0
  6
CONTINUOUS
 62
     7
 10
-96.585009
 20
198.66253
 11
-95.835004
 21
197.91252
  0
LINE
  8
0
  6
CONTINUOUS
 62
     7
 10
-95.834999
 20
197.91252
 11
-98.834999
 21
197.91252
  0
LINE
  8
0
  6
CONTINUOUS
 62
     7
 10
-96.584999
 20
198.66252
 11
-98.084999
 21
198.66252
  0
LINE
  8
0
  6
CONTINUOUS
 62
     7
 10
-98.084994
 20
198.66252
 11
-98.834995
 21
197.91252
  0
LINE
  8
0
  6
CONTINUOUS
 62
     7
 10
-98.084999
 20
198.66252
 11
-98.084999
 21
200.16252
  0
LINE
  8
0
  6
CONTINUOUS
 62
     7
 10
-98.834999
 20
197.91252
 11
-98.834999
 21
200.91252
  0
LINE
  8
0
  6
CONTINUOUS
 62
     7
 10
-98.08499
 20
200.16252
 11
-98.835
 21
200.91252
  0
LINE
  8
0
  6
CONTINUOUS
 62
     7
 10
-96.584994
 20
200.16252
 11
-95.835001
 21
200.91252
  0
LINE
  8
0
  6
CONTINUOUS
 62
     7
 10
-95.834999
 20
204.91252
 11
-98.834999
 21
204.91252
  0
LINE
  8
0
  6
CONTINUOUS
 62
     7
 10
-96.584999
 20
204.16252
 11
-98.084999
 21
204.16252
  0
LINE
  8
0
  6
CONTINUOUS
 62
     7
 10
-96.584999
 20
202.66252
 11
-96.584999
 21
204.16252
  0
LINE
  8
0
  6
CONTINUOUS
 62
     7
 10
-95.834999
 20
201.91252
 11
-95.834999
 21
204.91252
  0
LINE
  8
0
  6
CONTINUOUS
 62
     7
 10
-96.584998
 20
202.66251
 11
-95.835005
 21
201.91252
  0
LINE
  8
0
  6
CONTINUOUS
 62
     7
 10
-95.834999
 20
201.91252
 11
-98.834999
 21
201.91252
  0
LINE
  8
0
  6
CONTINUOUS
 62
     7
 10
-96.584999
 20
202.66252
 11
-98.084999
 21
202.66252
  0
LINE
  8
0
  6
CONTINUOUS
 62
     7
 10
-98.085003
 20
202.66252
 11
-98.834996
 21
201.91253
  0
LINE
  8
0
  6
CONTINUOUS
 62
     7
 10
-98.084999
 20
202.66252
 11
-98.084999
 21
204.16252
  0
LINE
  8
0
  6
CONTINUOUS
 62
     7
 10
-98.834999
 20
201.91252
 11
-98.834999
 21
204.91252
  0
LINE
  8
0
  6
CONTINUOUS
 62
     7
 10
-98.084996
 20
204.16251
 11
-98.835005
 21
204.91252
  0
LINE
  8
0
  6
CONTINUOUS
 62
     7
 10
-96.584999
 20
204.16252
 11
-95.834998
 21
204.91252
  0
LINE
  8
0
  6
CONTINUOUS
 62
     7
 10
-95.834999
 20
208.91252
 11
-98.834999
 21
208.91252
  0
LINE
  8
0
  6
CONTINUOUS
 62
     7
 10
-96.584999
 20
208.16252
 11
-98.084999
 21
208.16252
  0
LINE
  8
0
  6
CONTINUOUS
 62
     7
 10
-96.584999
 20
206.66252
 11
-96.584999
 21
208.16252
  0
LINE
  8
0
  6
CONTINUOUS
 62
     7
 10
-95.834999
 20
205.91252
 11
-95.834999
 21
208.91252
  0
LINE
  8
0
  6
CONTINUOUS
 62
     7
 10
-96.585004
 20
206.66252
 11
-95.834999
 21
205.91251
  0
LINE
  8
0
  6
CONTINUOUS
 62
     7
 10
-95.834999
 20
205.91252
 11
-98.834999
 21
205.91252
  0
LINE
  8
0
  6
CONTINUOUS
 62
     7
 10
-96.584999
 20
206.66252
 11
-98.084999
 21
206.66252
  0
LINE
  8
0
  6
CONTINUOUS
 62
     7
 10
-98.085004
 20
206.66254
 11
-98.835005
 21
205.91252
  0
LINE
  8
0
  6
CONTINUOUS
 62
     7
 10
-98.084999
 20
206.66252
 11
-98.084999
 21
208.16252
  0
LINE
  8
0
  6
CONTINUOUS
 62
     7
 10
-98.834999
 20
205.91252
 11
-98.834999
 21
208.91252
  0
LINE
  8
0
  6
CONTINUOUS
 62
     7
 10
-98.085007
 20
208.16252
 11
-98.835
 21
208.91252
  0
LINE
  8
0
  6
CONTINUOUS
 62
     7
 10
-96.585007
 20
208.16253
 11
-95.835006
 21
208.91253
  0
LINE
  8
0
  6
CONTINUOUS
 62
     7
 10
-96.584999
 20
194.66252
 11
-98.084999
 21
194.66252
  0
LINE
  8
0
  6
CONTINUOUS
 62
     7
 10
-96.584999
 20
194.66252
 11
-96.584999
 21
196.16252
  0
LINE
  8
0
  6
CONTINUOUS
 62
     7
 10
-96.585005
 20
194.66252
 11
-95.834995
 21
193.91252
  0
LINE
  8
0
  6
CONTINUOUS
 62
     7
 10
-95.834999
 20
193.91252
 11
-95.834999
 21
196.91252
  0
LINE
  8
0
  6
CONTINUOUS
 62
     7
 10
-95.834999
 20
193.91252
 11
-98.834999
 21
193.91252
  0
LINE
  8
0
  6
CONTINUOUS
 62
     7
 10
-98.084996
 20
194.66252
 11
-98.834998
 21
193.91252
  0
LINE
  8
0
  6
CONTINUOUS
 62
     7
 10
-98.084999
 20
194.66252
 11
-98.084999
 21
196.16252
  0
LINE
  8
0
  6
CONTINUOUS
 62
     7
 10
-96.584999
 20
196.16252
 11
-98.084999
 21
196.16252
  0
LINE
  8
0
  6
CONTINUOUS
 62
     7
 10
-98.085003
 20
196.16252
 11
-98.834996
 21
196.91252
  0
LINE
  8
0
  6
CONTINUOUS
 62
     7
 10
-96.584994
 20
196.16252
 11
-95.834992
 21
196.91252
  0
LINE
  8
0
  6
CONTINUOUS
 62
     7
 10
-95.834999
 20
196.91252
 11
-98.834999
 21
196.91252
  0
LINE
  8
0
  6
CONTINUOUS
 62
     7
 10
-98.834999
 20
193.91252
 11
-98.834999
 21
196.91252
  0
LINE
  8
0
  6
CONTINUOUS
 62
     7
 10
-96.584999
 20
190.66252
 11
-98.084999
 21
190.66252
  0
LINE
  8
0
  6
CONTINUOUS
 62
     7
 10
-96.584999
 20
190.66252
 11
-96.584999
 21
192.16252
  0
LINE
  8
0
  6
CONTINUOUS
 62
     7
 10
-96.585009
 20
190.66252
 11
-95.835005
 21
189.91251
  0
LINE
  8
0
  6
CONTINUOUS
 62
     7
 10
-95.834999
 20
189.91252
 11
-95.834999
 21
192.91252
  0
LINE
  8
0
  6
CONTINUOUS
 62
     7
 10
-95.834999
 20
189.91252
 11
-98.834999
 21
189.91252
  0
LINE
  8
0
  6
CONTINUOUS
 62
     7
 10
-98.084994
 20
190.66252
 11
-98.834995
 21
189.91252
  0
LINE
  8
0
  6
CONTINUOUS
 62
     7
 10
-98.084999
 20
190.66252
 11
-98.084999
 21
192.16252
  0
LINE
  8
0
  6
CONTINUOUS
 62
     7
 10
-96.584999
 20
192.16252
 11
-98.084999
 21
192.16252
  0
LINE
  8
0
  6
CONTINUOUS
 62
     7
 10
-98.085011
 20
192.16252
 11
-98.835004
 21
192.91252
  0
LINE
  8
0
  6
CONTINUOUS
 62
     7
 10
-96.584992
 20
192.16251
 11
-95.83499
 21
192.91252
  0
LINE
  8
0
  6
CONTINUOUS
 62
     7
 10
-95.834999
 20
192.91252
 11
-98.834999
 21
192.91252
  0
LINE
  8
0
  6
CONTINUOUS
 62
     7
 10
-98.834999
 20
189.91252
 11
-98.834999
 21
192.91252
  0
LINE
  8
0
  6
CONTINUOUS
 62
     7
 10
-96.584999
 20
186.66252
 11
-98.084999
 21
186.66252
  0
LINE
  8
0
  6
CONTINUOUS
 62
     7
 10
-96.584999
 20
186.66252
 11
-96.584999
 21
188.16252
  0
LINE
  8
0
  6
CONTINUOUS
 62
     7
 10
-96.584997
 20
186.66252
 11
-95.835004
 21
185.91252
  0
LINE
  8
0
  6
CONTINUOUS
 62
     7
 10
-95.834999
 20
185.91252
 11
-95.834999
 21
188.91252
  0
LINE
  8
0
  6
CONTINUOUS
 62
     7
 10
-95.834999
 20
185.91252
 11
-98.834999
 21
185.91252
  0
LINE
  8
0
  6
CONTINUOUS
 62
     7
 10
-98.085003
 20
186.66253
 11
-98.835004
 21
185.91252
  0
LINE
  8
0
  6
CONTINUOUS
 62
     7
 10
-98.084999
 20
186.66252
 11
-98.084999
 21
188.16252
  0
LINE
  8
0
  6
CONTINUOUS
 62
     7
 10
-96.584999
 20
188.16252
 11
-98.084999
 21
188.16252
  0
LINE
  8
0
  6
CONTINUOUS
 62
     7
 10
-98.085
 20
188.16252
 11
-98.834994
 21
188.91251
  0
LINE
  8
0
  6
CONTINUOUS
 62
     7
 10
-96.584999
 20
188.16253
 11
-95.834998
 21
188.91253
  0
LINE
  8
0
  6
CONTINUOUS
 62
     7
 10
-95.834999
 20
188.91252
 11
-98.834999
 21
188.91252
  0
LINE
  8
0
  6
CONTINUOUS
 62
     7
 10
-98.834999
 20
185.91252
 11
-98.834999
 21
188.91252
  0
LINE
  8
0
  6
CONTINUOUS
 62
     7
 10
-99.834999
 20
177.91252
 11
-102.835
 21
177.91252
  0
LINE
  8
0
  6
CONTINUOUS
 62
     7
 10
-100.585
 20
178.66252
 11
-102.085
 21
178.66252
  0
LINE
  8
0
  6
CONTINUOUS
 62
     7
 10
-100.585
 20
180.16252
 11
-100.585
 21
178.66252
  0
LINE
  8
0
  6
CONTINUOUS
 62
     7
 10
-99.834999
 20
180.91252
 11
-99.834999
 21
177.91252
  0
LINE
  8
0
  6
CONTINUOUS
 62
     7
 10
-100.585
 20
180.16252
 11
-99.835003
 21
180.91252
  0
LINE
  8
0
  6
CONTINUOUS
 62
     7
 10
-99.834999
 20
180.91252
 11
-102.835
 21
180.91252
  0
LINE
  8
0
  6
CONTINUOUS
 62
     7
 10
-100.585
 20
180.16252
 11
-102.085
 21
180.16252
  0
LINE
  8
0
  6
CONTINUOUS
 62
     7
 10
-102.085
 20
180.16252
 11
-102.835
 21
180.91252
  0
LINE
  8
0
  6
CONTINUOUS
 62
     7
 10
-102.085
 20
180.16252
 11
-102.085
 21
178.66252
  0
LINE
  8
0
  6
CONTINUOUS
 62
     7
 10
-102.835
 20
180.91252
 11
-102.835
 21
177.91252
  0
LINE
  8
0
  6
CONTINUOUS
 62
     7
 10
-102.085
 20
178.66252
 11
-102.835
 21
177.91252
  0
LINE
  8
0
  6
CONTINUOUS
 62
     7
 10
-100.585
 20
178.66252
 11
-99.835
 21
177.91252
  0
LINE
  8
0
  6
CONTINUOUS
 62
     7
 10
-99.834999
 20
173.91252
 11
-102.835
 21
173.91252
  0
LINE
  8
0
  6
CONTINUOUS
 62
     7
 10
-100.585
 20
174.66252
 11
-102.085
 21
174.66252
  0
LINE
  8
0
  6
CONTINUOUS
 62
     7
 10
-100.585
 20
176.16252
 11
-100.585
 21
174.66252
  0
LINE
  8
0
  6
CONTINUOUS
 62
     7
 10
-99.834999
 20
176.91252
 11
-99.834999
 21
173.91252
  0
LINE
  8
0
  6
CONTINUOUS
 62
     7
 10
-100.585
 20
176.16252
 11
-99.835
 21
176.91252
  0
LINE
  8
0
  6
CONTINUOUS
 62
     7
 10
-99.834999
 20
176.91252
 11
-102.835
 21
176.91252
  0
LINE
  8
0
  6
CONTINUOUS
 62
     7
 10
-100.585
 20
176.16252
 11
-102.085
 21
176.16252
  0
LINE
  8
0
  6
CONTINUOUS
 62
     7
 10
-102.08499
 20
176.16252
 11
-102.835
 21
176.91252
  0
LINE
  8
0
  6
CONTINUOUS
 62
     7
 10
-102.085
 20
176.16252
 11
-102.085
 21
174.66252
  0
LINE
  8
0
  6
CONTINUOUS
 62
     7
 10
-102.835
 20
176.91252
 11
-102.835
 21
173.91252
  0
LINE
  8
0
  6
CONTINUOUS
 62
     7
 10
-102.085
 20
174.66252
 11
-102.835
 21
173.91252
  0
LINE
  8
0
  6
CONTINUOUS
 62
     7
 10
-100.585
 20
174.66253
 11
-99.834996
 21
173.91252
  0
LINE
  8
0
  6
CONTINUOUS
 62
     7
 10
-99.834999
 20
169.91252
 11
-102.835
 21
169.91252
  0
LINE
  8
0
  6
CONTINUOUS
 62
     7
 10
-100.585
 20
170.66252
 11
-102.085
 21
170.66252
  0
LINE
  8
0
  6
CONTINUOUS
 62
     7
 10
-100.585
 20
172.16252
 11
-100.585
 21
170.66252
  0
LINE
  8
0
  6
CONTINUOUS
 62
     7
 10
-99.834999
 20
172.91252
 11
-99.834999
 21
169.91252
  0
LINE
  8
0
  6
CONTINUOUS
 62
     7
 10
-100.585
 20
172.16252
 11
-99.834996
 21
172.91252
  0
LINE
  8
0
  6
CONTINUOUS
 62
     7
 10
-99.834999
 20
172.91252
 11
-102.835
 21
172.91252
  0
LINE
  8
0
  6
CONTINUOUS
 62
     7
 10
-100.585
 20
172.16252
 11
-102.085
 21
172.16252
  0
LINE
  8
0
  6
CONTINUOUS
 62
     7
 10
-102.08499
 20
172.16253
 11
-102.83499
 21
172.91252
  0
LINE
  8
0
  6
CONTINUOUS
 62
     7
 10
-102.085
 20
172.16252
 11
-102.085
 21
170.66252
  0
LINE
  8
0
  6
CONTINUOUS
 62
     7
 10
-102.835
 20
172.91252
 11
-102.835
 21
169.91252
  0
LINE
  8
0
  6
CONTINUOUS
 62
     7
 10
-102.085
 20
170.66252
 11
-102.835
 21
169.91252
  0
LINE
  8
0
  6
CONTINUOUS
 62
     7
 10
-100.585
 20
170.66252
 11
-99.834991
 21
169.91252
  0
LINE
  8
0
  6
CONTINUOUS
 62
     7
 10
-99.834999
 20
165.91252
 11
-100.09235
 21
165.91252
  0
LINE
  8
0
  6
CONTINUOUS
 62
     7
 10
-100.585
 20
166.66252
 11
-101.27908
 21
166.66252
  0
LINE
  8
0
  6
CONTINUOUS
 62
     7
 10
-100.585
 20
168.16252
 11
-100.585
 21
166.66252
  0
LINE
  8
0
  6
CONTINUOUS
 62
     7
 10
-99.834999
 20
168.91252
 11
-99.834999
 21
165.91252
  0
LINE
  8
0
  6
CONTINUOUS
 62
     7
 10
-100.585
 20
168.16252
 11
-99.834999
 21
168.91252
  0
LINE
  8
0
  6
CONTINUOUS
 62
     7
 10
-99.834999
 20
168.91252
 11
-102.835
 21
168.91252
  0
LINE
  8
0
  6
CONTINUOUS
 62
     7
 10
-100.585
 20
168.16252
 11
-102.085
 21
168.16252
  0
LINE
  8
0
  6
CONTINUOUS
 62
     7
 10
-102.085
 20
168.16252
 11
-102.835
 21
168.91252
  0
LINE
  8
0
  6
CONTINUOUS
 62
     7
 10
-102.085
 20
168.16252
 11
-102.085
 21
167.22745
  0
LINE
  8
0
  6
CONTINUOUS
 62
     7
 10
-102.835
 20
168.91252
 11
-102.835
 21
167.79747
  0
LINE
  8
0
  6
CONTINUOUS
 62
     7
 10
-100.58501
 20
166.66252
 11
-99.835008
 21
165.91253
  0
LINE
  8
0
  6
CONTINUOUS
 62
     7
 10
-99.834999
 20
184.91252
 11
-102.835
 21
184.91252
  0
LINE
  8
0
  6
CONTINUOUS
 62
     7
 10
-100.585
 20
184.16252
 11
-102.085
 21
184.16252
  0
LINE
  8
0
  6
CONTINUOUS
 62
     7
 10
-100.585
 20
182.66252
 11
-100.585
 21
184.16252
  0
LINE
  8
0
  6
CONTINUOUS
 62
     7
 10
-99.834999
 20
181.91252
 11
-99.834999
 21
184.91252
  0
LINE
  8
0
  6
CONTINUOUS
 62
     7
 10
-100.585
 20
182.66252
 11
-99.834994
 21
181.91252
  0
LINE
  8
0
  6
CONTINUOUS
 62
     7
 10
-99.834999
 20
181.91252
 11
-102.835
 21
181.91252
  0
LINE
  8
0
  6
CONTINUOUS
 62
     7
 10
-100.585
 20
182.66252
 11
-102.085
 21
182.66252
  0
LINE
  8
0
  6
CONTINUOUS
 62
     7
 10
-102.085
 20
182.66253
 11
-102.835
 21
181.91253
  0
LINE
  8
0
  6
CONTINUOUS
 62
     7
 10
-102.085
 20
182.66252
 11
-102.085
 21
184.16252
  0
LINE
  8
0
  6
CONTINUOUS
 62
     7
 10
-102.835
 20
181.91252
 11
-102.835
 21
184.91252
  0
LINE
  8
0
  6
CONTINUOUS
 62
     7
 10
-102.085
 20
184.16252
 11
-102.835
 21
184.91252
  0
LINE
  8
0
  6
CONTINUOUS
 62
     7
 10
-100.585
 20
184.16252
 11
-99.835005
 21
184.91252
  0
LINE
  8
0
  6
CONTINUOUS
 62
     7
 10
-99.834999
 20
200.91252
 11
-102.835
 21
200.91252
  0
LINE
  8
0
  6
CONTINUOUS
 62
     7
 10
-100.585
 20
200.16252
 11
-102.085
 21
200.16252
  0
LINE
  8
0
  6
CONTINUOUS
 62
     7
 10
-100.585
 20
198.66252
 11
-100.585
 21
200.16252
  0
LINE
  8
0
  6
CONTINUOUS
 62
     7
 10
-99.834999
 20
197.91252
 11
-99.834999
 21
200.91252
  0
LINE
  8
0
  6
CONTINUOUS
 62
     7
 10
-100.585
 20
198.66252
 11
-99.835
 21
197.91252
  0
LINE
  8
0
  6
CONTINUOUS
 62
     7
 10
-99.834999
 20
197.91252
 11
-102.835
 21
197.91252
  0
LINE
  8
0
  6
CONTINUOUS
 62
     7
 10
-100.585
 20
198.66252
 11
-102.085
 21
198.66252
  0
LINE
  8
0
  6
CONTINUOUS
 62
     7
 10
-102.085
 20
198.66252
 11
-102.835
 21
197.91252
  0
LINE
  8
0
  6
CONTINUOUS
 62
     7
 10
-102.085
 20
198.66252
 11
-102.085
 21
200.16252
  0
LINE
  8
0
  6
CONTINUOUS
 62
     7
 10
-102.835
 20
197.91252
 11
-102.835
 21
200.91252
  0
LINE
  8
0
  6
CONTINUOUS
 62
     7
 10
-102.085
 20
200.16252
 11
-102.835
 21
200.91252
  0
LINE
  8
0
  6
CONTINUOUS
 62
     7
 10
-100.585
 20
200.16252
 11
-99.835
 21
200.91252
  0
LINE
  8
0
  6
CONTINUOUS
 62
     7
 10
-99.834999
 20
204.91252
 11
-102.835
 21
204.91252
  0
LINE
  8
0
  6
CONTINUOUS
 62
     7
 10
-100.585
 20
204.16252
 11
-102.085
 21
204.16252
  0
LINE
  8
0
  6
CONTINUOUS
 62
     7
 10
-100.585
 20
202.66252
 11
-100.585
 21
204.16252
  0
LINE
  8
0
  6
CONTINUOUS
 62
     7
 10
-99.834999
 20
201.91252
 11
-99.834999
 21
204.91252
  0
LINE
  8
0
  6
CONTINUOUS
 62
     7
 10
-100.585
 20
202.66253
 11
-99.835001
 21
201.91254
  0
LINE
  8
0
  6
CONTINUOUS
 62
     7
 10
-99.834999
 20
201.91252
 11
-102.835
 21
201.91252
  0
LINE
  8
0
  6
CONTINUOUS
 62
     7
 10
-100.585
 20
202.66252
 11
-102.085
 21
202.66252
  0
LINE
  8
0
  6
CONTINUOUS
 62
     7
 10
-102.085
 20
202.66253
 11
-102.835
 21
201.91253
  0
LINE
  8
0
  6
CONTINUOUS
 62
     7
 10
-102.085
 20
202.66252
 11
-102.085
 21
204.16252
  0
LINE
  8
0
  6
CONTINUOUS
 62
     7
 10
-102.835
 20
201.91252
 11
-102.835
 21
204.91252
  0
LINE
  8
0
  6
CONTINUOUS
 62
     7
 10
-102.08501
 20
204.16252
 11
-102.835
 21
204.91252
  0
LINE
  8
0
  6
CONTINUOUS
 62
     7
 10
-100.585
 20
204.16253
 11
-99.835012
 21
204.91252
  0
LINE
  8
0
  6
CONTINUOUS
 62
     7
 10
-100.585
 20
208.16252
 11
-101.27908
 21
208.16252
  0
LINE
  8
0
  6
CONTINUOUS
 62
     7
 10
-100.585
 20
206.66252
 11
-100.585
 21
208.16252
  0
LINE
  8
0
  6
CONTINUOUS
 62
     7
 10
-99.834999
 20
205.91252
 11
-99.834999
 21
209.06316
  0
LINE
  8
0
  6
CONTINUOUS
 62
     7
 10
-100.585
 20
206.66252
 11
-99.835001
 21
205.91251
  0
LINE
  8
0
  6
CONTINUOUS
 62
     7
 10
-99.834999
 20
205.91252
 11
-102.835
 21
205.91252
  0
LINE
  8
0
  6
CONTINUOUS
 62
     7
 10
-100.585
 20
206.66252
 11
-102.085
 21
206.66252
  0
LINE
  8
0
  6
CONTINUOUS
 62
     7
 10
-102.085
 20
206.66251
 11
-102.83499
 21
205.91252
  0
LINE
  8
0
  6
CONTINUOUS
 62
     7
 10
-102.085
 20
206.66252
 11
-102.085
 21
207.5976
  0
LINE
  8
0
  6
CONTINUOUS
 62
     7
 10
-102.835
 20
205.91252
 11
-102.835
 21
207.02757
  0
LINE
  8
0
  6
CONTINUOUS
 62
     7
 10
-100.585
 20
208.16252
 11
-99.834995
 21
208.91252
  0
LINE
  8
0
  6
CONTINUOUS
 62
     7
 10
-100.585
 20
194.66252
 11
-102.085
 21
194.66252
  0
LINE
  8
0
  6
CONTINUOUS
 62
     7
 10
-100.585
 20
194.66252
 11
-100.585
 21
196.16252
  0
LINE
  8
0
  6
CONTINUOUS
 62
     7
 10
-100.58501
 20
194.66252
 11
-99.834997
 21
193.91252
  0
LINE
  8
0
  6
CONTINUOUS
 62
     7
 10
-99.834999
 20
193.91252
 11
-99.834999
 21
196.91252
  0
LINE
  8
0
  6
CONTINUOUS
 62
     7
 10
-99.834999
 20
193.91252
 11
-102.835
 21
193.91252
  0
LINE
  8
0
  6
CONTINUOUS
 62
     7
 10
-102.085
 20
194.66252
 11
-102.835
 21
193.91252
  0
LINE
  8
0
  6
CONTINUOUS
 62
     7
 10
-102.085
 20
194.66252
 11
-102.085
 21
196.16252
  0
LINE
  8
0
  6
CONTINUOUS
 62
     7
 10
-100.585
 20
196.16252
 11
-102.085
 21
196.16252
  0
LINE
  8
0
  6
CONTINUOUS
 62
     7
 10
-102.085
 20
196.16251
 11
-102.835
 21
196.91252
  0
LINE
  8
0
  6
CONTINUOUS
 62
     7
 10
-100.585
 20
196.16252
 11
-99.835
 21
196.91252
  0
LINE
  8
0
  6
CONTINUOUS
 62
     7
 10
-99.834999
 20
196.91252
 11
-102.835
 21
196.91252
  0
LINE
  8
0
  6
CONTINUOUS
 62
     7
 10
-102.835
 20
193.91252
 11
-102.835
 21
196.91252
  0
LINE
  8
0
  6
CONTINUOUS
 62
     7
 10
-100.585
 20
190.66252
 11
-102.085
 21
190.66252
  0
LINE
  8
0
  6
CONTINUOUS
 62
     7
 10
-100.585
 20
190.66252
 11
-100.585
 21
192.16252
  0
LINE
  8
0
  6
CONTINUOUS
 62
     7
 10
-100.585
 20
190.66252
 11
-99.834993
 21
189.91252
  0
LINE
  8
0
  6
CONTINUOUS
 62
     7
 10
-99.834999
 20
189.91252
 11
-99.834999
 21
192.91252
  0
LINE
  8
0
  6
CONTINUOUS
 62
     7
 10
-99.834999
 20
189.91252
 11
-102.835
 21
189.91252
  0
LINE
  8
0
  6
CONTINUOUS
 62
     7
 10
-102.085
 20
190.66252
 11
-102.835
 21
189.91252
  0
LINE
  8
0
  6
CONTINUOUS
 62
     7
 10
-102.085
 20
190.66252
 11
-102.085
 21
192.16252
  0
LINE
  8
0
  6
CONTINUOUS
 62
     7
 10
-100.585
 20
192.16252
 11
-102.085
 21
192.16252
  0
LINE
  8
0
  6
CONTINUOUS
 62
     7
 10
-102.085
 20
192.16253
 11
-102.835
 21
192.91252
  0
LINE
  8
0
  6
CONTINUOUS
 62
     7
 10
-100.585
 20
192.16252
 11
-99.834994
 21
192.91251
  0
LINE
  8
0
  6
CONTINUOUS
 62
     7
 10
-99.834999
 20
192.91252
 11
-102.835
 21
192.91252
  0
LINE
  8
0
  6
CONTINUOUS
 62
     7
 10
-102.835
 20
189.91252
 11
-102.835
 21
192.91252
  0
LINE
  8
0
  6
CONTINUOUS
 62
     7
 10
-100.585
 20
186.66252
 11
-102.085
 21
186.66252
  0
LINE
  8
0
  6
CONTINUOUS
 62
     7
 10
-100.585
 20
186.66252
 11
-100.585
 21
188.16252
  0
LINE
  8
0
  6
CONTINUOUS
 62
     7
 10
-100.585
 20
186.66252
 11
-99.835009
 21
185.91253
  0
LINE
  8
0
  6
CONTINUOUS
 62
     7
 10
-99.834999
 20
185.91252
 11
-99.834999
 21
188.91252
  0
LINE
  8
0
  6
CONTINUOUS
 62
     7
 10
-99.834999
 20
185.91252
 11
-102.835
 21
185.91252
  0
LINE
  8
0
  6
CONTINUOUS
 62
     7
 10
-102.08499
 20
186.66252
 11
-102.835
 21
185.91252
  0
LINE
  8
0
  6
CONTINUOUS
 62
     7
 10
-102.085
 20
186.66252
 11
-102.085
 21
188.16252
  0
LINE
  8
0
  6
CONTINUOUS
 62
     7
 10
-100.585
 20
188.16252
 11
-102.085
 21
188.16252
  0
LINE
  8
0
  6
CONTINUOUS
 62
     7
 10
-102.085
 20
188.16252
 11
-102.835
 21
188.91252
  0
LINE
  8
0
  6
CONTINUOUS
 62
     7
 10
-100.585
 20
188.16252
 11
-99.834997
 21
188.91252
  0
LINE
  8
0
  6
CONTINUOUS
 62
     7
 10
-99.834999
 20
188.91252
 11
-102.835
 21
188.91252
  0
LINE
  8
0
  6
CONTINUOUS
 62
     7
 10
-102.835
 20
185.91252
 11
-102.835
 21
188.91252
  0
LINE
  8
0
  6
CONTINUOUS
 62
     7
 10
-103.835
 20
177.91252
 11
-106.835
 21
177.91252
  0
LINE
  8
0
  6
CONTINUOUS
 62
     7
 10
-104.585
 20
178.66252
 11
-106.085
 21
178.66252
  0
LINE
  8
0
  6
CONTINUOUS
 62
     7
 10
-104.585
 20
180.16252
 11
-104.585
 21
178.66252
  0
LINE
  8
0
  6
CONTINUOUS
 62
     7
 10
-103.835
 20
180.91252
 11
-103.835
 21
177.91252
  0
LINE
  8
0
  6
CONTINUOUS
 62
     7
 10
-104.585
 20
180.16252
 11
-103.835
 21
180.91251
  0
LINE
  8
0
  6
CONTINUOUS
 62
     7
 10
-103.835
 20
180.91252
 11
-106.835
 21
180.91252
  0
LINE
  8
0
  6
CONTINUOUS
 62
     7
 10
-104.585
 20
180.16252
 11
-106.085
 21
180.16252
  0
LINE
  8
0
  6
CONTINUOUS
 62
     7
 10
-106.085
 20
180.16252
 11
-106.83499
 21
180.91252
  0
LINE
  8
0
  6
CONTINUOUS
 62
     7
 10
-106.085
 20
180.16252
 11
-106.085
 21
178.66252
  0
LINE
  8
0
  6
CONTINUOUS
 62
     7
 10
-106.835
 20
180.91252
 11
-106.835
 21
177.91252
  0
LINE
  8
0
  6
CONTINUOUS
 62
     7
 10
-106.085
 20
178.66252
 11
-106.835
 21
177.91253
  0
LINE
  8
0
  6
CONTINUOUS
 62
     7
 10
-104.585
 20
178.66252
 11
-103.835
 21
177.91252
  0
LINE
  8
0
  6
CONTINUOUS
 62
     7
 10
-103.835
 20
173.91252
 11
-106.835
 21
173.91252
  0
LINE
  8
0
  6
CONTINUOUS
 62
     7
 10
-104.585
 20
174.66252
 11
-106.085
 21
174.66252
  0
LINE
  8
0
  6
CONTINUOUS
 62
     7
 10
-104.585
 20
176.16252
 11
-104.585
 21
174.66252
  0
LINE
  8
0
  6
CONTINUOUS
 62
     7
 10
-103.835
 20
176.91252
 11
-103.835
 21
173.91252
  0
LINE
  8
0
  6
CONTINUOUS
 62
     7
 10
-104.585
 20
176.16252
 11
-103.835
 21
176.91252
  0
LINE
  8
0
  6
CONTINUOUS
 62
     7
 10
-103.835
 20
176.91252
 11
-106.835
 21
176.91252
  0
LINE
  8
0
  6
CONTINUOUS
 62
     7
 10
-104.585
 20
176.16252
 11
-106.085
 21
176.16252
  0
LINE
  8
0
  6
CONTINUOUS
 62
     7
 10
-106.085
 20
176.16252
 11
-106.835
 21
176.91253
  0
LINE
  8
0
  6
CONTINUOUS
 62
     7
 10
-106.085
 20
176.16252
 11
-106.085
 21
174.66252
  0
LINE
  8
0
  6
CONTINUOUS
 62
     7
 10
-106.835
 20
176.91252
 11
-106.835
 21
173.91252
  0
LINE
  8
0
  6
CONTINUOUS
 62
     7
 10
-106.085
 20
174.66252
 11
-106.835
 21
173.91252
  0
LINE
  8
0
  6
CONTINUOUS
 62
     7
 10
-104.585
 20
174.66252
 11
-103.83501
 21
173.91252
  0
LINE
  8
0
  6
CONTINUOUS
 62
     7
 10
-103.835
 20
169.91252
 11
-105.18857
 21
169.91252
  0
LINE
  8
0
  6
CONTINUOUS
 62
     7
 10
-104.585
 20
170.66252
 11
-106.085
 21
170.66252
  0
LINE
  8
0
  6
CONTINUOUS
 62
     7
 10
-104.585
 20
172.16252
 11
-104.585
 21
170.66252
  0
LINE
  8
0
  6
CONTINUOUS
 62
     7
 10
-103.835
 20
172.91252
 11
-103.835
 21
169.91252
  0
LINE
  8
0
  6
CONTINUOUS
 62
     7
 10
-104.585
 20
172.16252
 11
-103.835
 21
172.91252
  0
LINE
  8
0
  6
CONTINUOUS
 62
     7
 10
-103.835
 20
172.91252
 11
-106.835
 21
172.91252
  0
LINE
  8
0
  6
CONTINUOUS
 62
     7
 10
-104.585
 20
172.16252
 11
-106.085
 21
172.16252
  0
LINE
  8
0
  6
CONTINUOUS
 62
     7
 10
-106.08499
 20
172.16253
 11
-106.83499
 21
172.91252
  0
LINE
  8
0
  6
CONTINUOUS
 62
     7
 10
-106.085
 20
172.16252
 11
-106.085
 21
170.66252
  0
LINE
  8
0
  6
CONTINUOUS
 62
     7
 10
-106.835
 20
172.91252
 11
-106.835
 21
171.76804
  0
LINE
  8
0
  6
CONTINUOUS
 62
     7
 10
-105.98436
 20
170.76316
 11
-106.085
 21
170.66252
  0
LINE
  8
0
  6
CONTINUOUS
 62
     7
 10
-104.585
 20
170.66252
 11
-103.83501
 21
169.91252
  0
LINE
  8
0
  6
CONTINUOUS
 62
     7
 10
-103.835
 20
184.91252
 11
-106.835
 21
184.91252
  0
LINE
  8
0
  6
CONTINUOUS
 62
     7
 10
-104.585
 20
184.16252
 11
-106.085
 21
184.16252
  0
LINE
  8
0
  6
CONTINUOUS
 62
     7
 10
-104.585
 20
182.66252
 11
-104.585
 21
184.16252
  0
LINE
  8
0
  6
CONTINUOUS
 62
     7
 10
-103.835
 20
181.91252
 11
-103.835
 21
184.91252
  0
LINE
  8
0
  6
CONTINUOUS
 62
     7
 10
-104.585
 20
182.66252
 11
-103.835
 21
181.91253
  0
LINE
  8
0
  6
CONTINUOUS
 62
     7
 10
-103.835
 20
181.91252
 11
-106.835
 21
181.91252
  0
LINE
  8
0
  6
CONTINUOUS
 62
     7
 10
-104.585
 20
182.66252
 11
-106.085
 21
182.66252
  0
LINE
  8
0
  6
CONTINUOUS
 62
     7
 10
-106.08499
 20
182.66252
 11
-106.83499
 21
181.91252
  0
LINE
  8
0
  6
CONTINUOUS
 62
     7
 10
-106.085
 20
182.66252
 11
-106.085
 21
184.16252
  0
LINE
  8
0
  6
CONTINUOUS
 62
     7
 10
-106.835
 20
181.91252
 11
-106.835
 21
184.91252
  0
LINE
  8
0
  6
CONTINUOUS
 62
     7
 10
-106.085
 20
184.16252
 11
-106.835
 21
184.91252
  0
LINE
  8
0
  6
CONTINUOUS
 62
     7
 10
-104.58499
 20
184.16252
 11
-103.83499
 21
184.91252
  0
LINE
  8
0
  6
CONTINUOUS
 62
     7
 10
-103.835
 20
200.91252
 11
-106.835
 21
200.91252
  0
LINE
  8
0
  6
CONTINUOUS
 62
     7
 10
-104.585
 20
200.16252
 11
-106.085
 21
200.16252
  0
LINE
  8
0
  6
CONTINUOUS
 62
     7
 10
-104.585
 20
198.66252
 11
-104.585
 21
200.16252
  0
LINE
  8
0
  6
CONTINUOUS
 62
     7
 10
-103.835
 20
197.91252
 11
-103.835
 21
200.91252
  0
LINE
  8
0
  6
CONTINUOUS
 62
     7
 10
-104.585
 20
198.66252
 11
-103.835
 21
197.91252
  0
LINE
  8
0
  6
CONTINUOUS
 62
     7
 10
-103.835
 20
197.91252
 11
-106.835
 21
197.91252
  0
LINE
  8
0
  6
CONTINUOUS
 62
     7
 10
-104.585
 20
198.66252
 11
-106.085
 21
198.66252
  0
LINE
  8
0
  6
CONTINUOUS
 62
     7
 10
-106.085
 20
198.66253
 11
-106.835
 21
197.91253
  0
LINE
  8
0
  6
CONTINUOUS
 62
     7
 10
-106.085
 20
198.66252
 11
-106.085
 21
200.16252
  0
LINE
  8
0
  6
CONTINUOUS
 62
     7
 10
-106.835
 20
197.91252
 11
-106.835
 21
200.91252
  0
LINE
  8
0
  6
CONTINUOUS
 62
     7
 10
-106.085
 20
200.16252
 11
-106.835
 21
200.91251
  0
LINE
  8
0
  6
CONTINUOUS
 62
     7
 10
-104.58502
 20
200.16252
 11
-103.835
 21
200.91253
  0
LINE
  8
0
  6
CONTINUOUS
 62
     7
 10
-103.835
 20
204.91252
 11
-105.18857
 21
204.91252
  0
LINE
  8
0
  6
CONTINUOUS
 62
     7
 10
-104.585
 20
204.16252
 11
-105.89403
 21
204.16252
  0
LINE
  8
0
  6
CONTINUOUS
 62
     7
 10
-104.585
 20
202.66252
 11
-104.585
 21
204.16252
  0
LINE
  8
0
  6
CONTINUOUS
 62
     7
 10
-103.835
 20
201.91252
 11
-103.835
 21
204.91252
  0
LINE
  8
0
  6
CONTINUOUS
 62
     7
 10
-104.585
 20
202.66253
 11
-103.835
 21
201.91254
  0
LINE
  8
0
  6
CONTINUOUS
 62
     7
 10
-103.835
 20
201.91252
 11
-106.835
 21
201.91252
  0
LINE
  8
0
  6
CONTINUOUS
 62
     7
 10
-104.585
 20
202.66252
 11
-106.085
 21
202.66252
  0
LINE
  8
0
  6
CONTINUOUS
 62
     7
 10
-106.085
 20
202.66253
 11
-106.835
 21
201.91252
  0
LINE
  8
0
  6
CONTINUOUS
 62
     7
 10
-106.085
 20
202.66252
 11
-106.085
 21
203.94847
  0
LINE
  8
0
  6
CONTINUOUS
 62
     7
 10
-106.835
 20
201.91252
 11
-106.835
 21
203.05701
  0
LINE
  8
0
  6
CONTINUOUS
 62
     7
 10
-104.58499
 20
204.16252
 11
-103.83499
 21
204.91252
  0
LINE
  8
0
  6
CONTINUOUS
 62
     7
 10
-103.835
 20
205.91252
 11
-103.835
 21
206.19417
  0
LINE
  8
0
  6
CONTINUOUS
 62
     7
 10
-103.98436
 20
206.06189
 11
-103.83499
 21
205.91252
  0
LINE
  8
0
  6
CONTINUOUS
 62
     7
 10
-103.835
 20
205.91252
 11
-104.15017
 21
205.91252
  0
LINE
  8
0
  6
CONTINUOUS
 62
     7
 10
-104.585
 20
194.66252
 11
-106.085
 21
194.66252
  0
LINE
  8
0
  6
CONTINUOUS
 62
     7
 10
-104.585
 20
194.66252
 11
-104.585
 21
196.16252
  0
LINE
  8
0
  6
CONTINUOUS
 62
     7
 10
-104.585
 20
194.66252
 11
-103.83501
 21
193.91252
  0
LINE
  8
0
  6
CONTINUOUS
 62
     7
 10
-103.835
 20
193.91252
 11
-103.835
 21
196.91252
  0
LINE
  8
0
  6
CONTINUOUS
 62
     7
 10
-103.835
 20
193.91252
 11
-106.835
 21
193.91252
  0
LINE
  8
0
  6
CONTINUOUS
 62
     7
 10
-106.085
 20
194.66252
 11
-106.835
 21
193.91252
  0
LINE
  8
0
  6
CONTINUOUS
 62
     7
 10
-106.085
 20
194.66252
 11
-106.085
 21
196.16252
  0
LINE
  8
0
  6
CONTINUOUS
 62
     7
 10
-104.585
 20
196.16252
 11
-106.085
 21
196.16252
  0
LINE
  8
0
  6
CONTINUOUS
 62
     7
 10
-106.085
 20
196.16252
 11
-106.835
 21
196.91253
  0
LINE
  8
0
  6
CONTINUOUS
 62
     7
 10
-104.585
 20
196.16251
 11
-103.83499
 21
196.91252
  0
LINE
  8
0
  6
CONTINUOUS
 62
     7
 10
-103.835
 20
196.91252
 11
-106.835
 21
196.91252
  0
LINE
  8
0
  6
CONTINUOUS
 62
     7
 10
-106.835
 20
193.91252
 11
-106.835
 21
196.91252
  0
LINE
  8
0
  6
CONTINUOUS
 62
     7
 10
-104.585
 20
190.66252
 11
-106.085
 21
190.66252
  0
LINE
  8
0
  6
CONTINUOUS
 62
     7
 10
-104.585
 20
190.66252
 11
-104.585
 21
192.16252
  0
LINE
  8
0
  6
CONTINUOUS
 62
     7
 10
-104.58501
 20
190.66253
 11
-103.835
 21
189.91252
  0
LINE
  8
0
  6
CONTINUOUS
 62
     7
 10
-103.835
 20
189.91252
 11
-103.835
 21
192.91252
  0
LINE
  8
0
  6
CONTINUOUS
 62
     7
 10
-103.835
 20
189.91252
 11
-106.835
 21
189.91252
  0
LINE
  8
0
  6
CONTINUOUS
 62
     7
 10
-106.085
 20
190.66252
 11
-106.835
 21
189.91252
  0
LINE
  8
0
  6
CONTINUOUS
 62
     7
 10
-106.085
 20
190.66252
 11
-106.085
 21
192.16252
  0
LINE
  8
0
  6
CONTINUOUS
 62
     7
 10
-104.585
 20
192.16252
 11
-106.085
 21
192.16252
  0
LINE
  8
0
  6
CONTINUOUS
 62
     7
 10
-106.08498
 20
192.16252
 11
-106.83499
 21
192.91252
  0
LINE
  8
0
  6
CONTINUOUS
 62
     7
 10
-104.585
 20
192.16252
 11
-103.835
 21
192.91252
  0
LINE
  8
0
  6
CONTINUOUS
 62
     7
 10
-103.835
 20
192.91252
 11
-106.835
 21
192.91252
  0
LINE
  8
0
  6
CONTINUOUS
 62
     7
 10
-106.835
 20
189.91252
 11
-106.835
 21
192.91252
  0
LINE
  8
0
  6
CONTINUOUS
 62
     7
 10
-104.585
 20
186.66252
 11
-106.085
 21
186.66252
  0
LINE
  8
0
  6
CONTINUOUS
 62
     7
 10
-104.585
 20
186.66252
 11
-104.585
 21
188.16252
  0
LINE
  8
0
  6
CONTINUOUS
 62
     7
 10
-104.585
 20
186.66252
 11
-103.835
 21
185.91252
  0
LINE
  8
0
  6
CONTINUOUS
 62
     7
 10
-103.835
 20
185.91252
 11
-103.835
 21
188.91252
  0
LINE
  8
0
  6
CONTINUOUS
 62
     7
 10
-103.835
 20
185.91252
 11
-106.835
 21
185.91252
  0
LINE
  8
0
  6
CONTINUOUS
 62
     7
 10
-106.085
 20
186.66252
 11
-106.835
 21
185.91252
  0
LINE
  8
0
  6
CONTINUOUS
 62
     7
 10
-106.085
 20
186.66252
 11
-106.085
 21
188.16252
  0
LINE
  8
0
  6
CONTINUOUS
 62
     7
 10
-104.585
 20
188.16252
 11
-106.085
 21
188.16252
  0
LINE
  8
0
  6
CONTINUOUS
 62
     7
 10
-106.085
 20
188.16252
 11
-106.835
 21
188.91252
  0
LINE
  8
0
  6
CONTINUOUS
 62
     7
 10
-104.585
 20
188.16252
 11
-103.835
 21
188.91252
  0
LINE
  8
0
  6
CONTINUOUS
 62
     7
 10
-103.835
 20
188.91252
 11
-106.835
 21
188.91252
  0
LINE
  8
0
  6
CONTINUOUS
 62
     7
 10
-106.835
 20
185.91252
 11
-106.835
 21
188.91252
  0
LINE
  8
0
  6
CONTINUOUS
 62
     7
 10
-107.835
 20
177.91252
 11
-110.45966
 21
177.91252
  0
LINE
  8
0
  6
CONTINUOUS
 62
     7
 10
-108.585
 20
178.66252
 11
-110.085
 21
178.66252
  0
LINE
  8
0
  6
CONTINUOUS
 62
     7
 10
-108.585
 20
180.16252
 11
-108.585
 21
178.66252
  0
LINE
  8
0
  6
CONTINUOUS
 62
     7
 10
-107.835
 20
180.91252
 11
-107.835
 21
177.91252
  0
LINE
  8
0
  6
CONTINUOUS
 62
     7
 10
-108.58499
 20
180.16252
 11
-107.835
 21
180.91252
  0
LINE
  8
0
  6
CONTINUOUS
 62
     7
 10
-107.835
 20
180.91252
 11
-110.835
 21
180.91252
  0
LINE
  8
0
  6
CONTINUOUS
 62
     7
 10
-108.585
 20
180.16252
 11
-110.085
 21
180.16252
  0
LINE
  8
0
  6
CONTINUOUS
 62
     7
 10
-110.085
 20
180.16252
 11
-110.835
 21
180.91252
  0
LINE
  8
0
  6
CONTINUOUS
 62
     7
 10
-110.085
 20
180.16252
 11
-110.085
 21
178.66252
  0
LINE
  8
0
  6
CONTINUOUS
 62
     7
 10
-110.835
 20
180.91252
 11
-110.835
 21
178.88316
  0
LINE
  8
0
  6
CONTINUOUS
 62
     7
 10
-110.08499
 20
178.66252
 11
-110.56768
 21
178.17983
  0
LINE
  8
0
  6
CONTINUOUS
 62
     7
 10
-108.585
 20
178.66252
 11
-107.835
 21
177.91253
  0
LINE
  8
0
  6
CONTINUOUS
 62
     7
 10
-107.835
 20
173.91252
 11
-108.37663
 21
173.91252
  0
LINE
  8
0
  6
CONTINUOUS
 62
     7
 10
-108.585
 20
174.66252
 11
-108.83936
 21
174.66252
  0
LINE
  8
0
  6
CONTINUOUS
 62
     7
 10
-108.585
 20
176.16252
 11
-108.585
 21
174.66252
  0
LINE
  8
0
  6
CONTINUOUS
 62
     7
 10
-107.835
 20
176.91252
 11
-107.835
 21
173.91252
  0
LINE
  8
0
  6
CONTINUOUS
 62
     7
 10
-108.585
 20
176.16252
 11
-107.835
 21
176.91253
  0
LINE
  8
0
  6
CONTINUOUS
 62
     7
 10
-107.835
 20
176.91252
 11
-110.0231
 21
176.91252
  0
LINE
  8
0
  6
CONTINUOUS
 62
     7
 10
-108.585
 20
176.16252
 11
-109.66071
 21
176.16252
  0
LINE
  8
0
  6
CONTINUOUS
 62
     7
 10
-108.585
 20
174.66252
 11
-107.835
 21
173.91252
  0
LINE
  8
0
  6
CONTINUOUS
 62
     7
 10
-107.835
 20
184.91252
 11
-110.835
 21
184.91252
  0
LINE
  8
0
  6
CONTINUOUS
 62
     7
 10
-108.585
 20
184.16252
 11
-110.085
 21
184.16252
  0
LINE
  8
0
  6
CONTINUOUS
 62
     7
 10
-108.585
 20
182.66252
 11
-108.585
 21
184.16252
  0
LINE
  8
0
  6
CONTINUOUS
 62
     7
 10
-107.835
 20
181.91252
 11
-107.835
 21
184.91252
  0
LINE
  8
0
  6
CONTINUOUS
 62
     7
 10
-108.585
 20
182.66252
 11
-107.835
 21
181.91252
  0
LINE
  8
0
  6
CONTINUOUS
 62
     7
 10
-107.835
 20
181.91252
 11
-110.835
 21
181.91252
  0
LINE
  8
0
  6
CONTINUOUS
 62
     7
 10
-108.585
 20
182.66252
 11
-110.085
 21
182.66252
  0
LINE
  8
0
  6
CONTINUOUS
 62
     7
 10
-110.085
 20
182.66252
 11
-110.835
 21
181.91252
  0
LINE
  8
0
  6
CONTINUOUS
 62
     7
 10
-110.085
 20
182.66252
 11
-110.085
 21
184.16252
  0
LINE
  8
0
  6
CONTINUOUS
 62
     7
 10
-110.835
 20
181.91252
 11
-110.835
 21
184.91252
  0
LINE
  8
0
  6
CONTINUOUS
 62
     7
 10
-110.085
 20
184.16253
 11
-110.835
 21
184.91252
  0
LINE
  8
0
  6
CONTINUOUS
 62
     7
 10
-108.585
 20
184.16252
 11
-107.835
 21
184.91252
  0
LINE
  8
0
  6
CONTINUOUS
 62
     7
 10
-107.835
 20
200.91252
 11
-108.37663
 21
200.91252
  0
LINE
  8
0
  6
CONTINUOUS
 62
     7
 10
-108.585
 20
200.16252
 11
-108.83936
 21
200.16252
  0
LINE
  8
0
  6
CONTINUOUS
 62
     7
 10
-108.585
 20
198.66252
 11
-108.585
 21
200.16252
  0
LINE
  8
0
  6
CONTINUOUS
 62
     7
 10
-107.835
 20
197.91252
 11
-107.835
 21
200.91252
  0
LINE
  8
0
  6
CONTINUOUS
 62
     7
 10
-108.585
 20
198.66252
 11
-107.835
 21
197.91253
  0
LINE
  8
0
  6
CONTINUOUS
 62
     7
 10
-107.835
 20
197.91252
 11
-110.0231
 21
197.91252
  0
LINE
  8
0
  6
CONTINUOUS
 62
     7
 10
-108.585
 20
198.66252
 11
-109.66071
 21
198.66252
  0
LINE
  8
0
  6
CONTINUOUS
 62
     7
 10
-108.58499
 20
200.16252
 11
-107.83499
 21
200.91252
  0
LINE
  8
0
  6
CONTINUOUS
 62
     7
 10
-108.585
 20
194.66252
 11
-110.085
 21
194.66252
  0
LINE
  8
0
  6
CONTINUOUS
 62
     7
 10
-108.585
 20
194.66252
 11
-108.585
 21
196.16252
  0
LINE
  8
0
  6
CONTINUOUS
 62
     7
 10
-108.585
 20
194.66252
 11
-107.835
 21
193.91252
  0
LINE
  8
0
  6
CONTINUOUS
 62
     7
 10
-107.835
 20
193.91252
 11
-107.835
 21
196.91252
  0
LINE
  8
0
  6
CONTINUOUS
 62
     7
 10
-107.835
 20
193.91252
 11
-110.835
 21
193.91252
  0
LINE
  8
0
  6
CONTINUOUS
 62
     7
 10
-110.085
 20
194.66253
 11
-110.835
 21
193.91252
  0
LINE
  8
0
  6
CONTINUOUS
 62
     7
 10
-110.085
 20
194.66252
 11
-110.085
 21
196.16252
  0
LINE
  8
0
  6
CONTINUOUS
 62
     7
 10
-108.585
 20
196.16252
 11
-110.085
 21
196.16252
  0
LINE
  8
0
  6
CONTINUOUS
 62
     7
 10
-110.08499
 20
196.16252
 11
-110.56767
 21
196.64521
  0
LINE
  8
0
  6
CONTINUOUS
 62
     7
 10
-108.585
 20
196.16252
 11
-107.835
 21
196.91254
  0
LINE
  8
0
  6
CONTINUOUS
 62
     7
 10
-107.835
 20
196.91252
 11
-110.45966
 21
196.91252
  0
LINE
  8
0
  6
CONTINUOUS
 62
     7
 10
-110.835
 20
193.91252
 11
-110.835
 21
195.94188
  0
LINE
  8
0
  6
CONTINUOUS
 62
     7
 10
-108.585
 20
190.66252
 11
-110.085
 21
190.66252
  0
LINE
  8
0
  6
CONTINUOUS
 62
     7
 10
-108.585
 20
190.66252
 11
-108.585
 21
192.16252
  0
LINE
  8
0
  6
CONTINUOUS
 62
     7
 10
-108.585
 20
190.66252
 11
-107.835
 21
189.91252
  0
LINE
  8
0
  6
CONTINUOUS
 62
     7
 10
-107.835
 20
189.91252
 11
-107.835
 21
192.91252
  0
LINE
  8
0
  6
CONTINUOUS
 62
     7
 10
-107.835
 20
189.91252
 11
-110.835
 21
189.91252
  0
LINE
  8
0
  6
CONTINUOUS
 62
     7
 10
-110.085
 20
190.66252
 11
-110.835
 21
189.91252
  0
LINE
  8
0
  6
CONTINUOUS
 62
     7
 10
-110.085
 20
190.66252
 11
-110.085
 21
192.16252
  0
LINE
  8
0
  6
CONTINUOUS
 62
     7
 10
-108.585
 20
192.16252
 11
-110.085
 21
192.16252
  0
LINE
  8
0
  6
CONTINUOUS
 62
     7
 10
-110.085
 20
192.16252
 11
-110.835
 21
192.91252
  0
LINE
  8
0
  6
CONTINUOUS
 62
     7
 10
-108.585
 20
192.16252
 11
-107.835
 21
192.91252
  0
LINE
  8
0
  6
CONTINUOUS
 62
     7
 10
-107.835
 20
192.91252
 11
-110.835
 21
192.91252
  0
LINE
  8
0
  6
CONTINUOUS
 62
     7
 10
-110.835
 20
189.91252
 11
-110.835
 21
192.91252
  0
LINE
  8
0
  6
CONTINUOUS
 62
     7
 10
-108.585
 20
186.66252
 11
-110.085
 21
186.66252
  0
LINE
  8
0
  6
CONTINUOUS
 62
     7
 10
-108.585
 20
186.66252
 11
-108.585
 21
188.16252
  0
LINE
  8
0
  6
CONTINUOUS
 62
     7
 10
-108.585
 20
186.66253
 11
-107.835
 21
185.91252
  0
LINE
  8
0
  6
CONTINUOUS
 62
     7
 10
-107.835
 20
185.91252
 11
-107.835
 21
188.91252
  0
LINE
  8
0
  6
CONTINUOUS
 62
     7
 10
-107.835
 20
185.91252
 11
-110.835
 21
185.91252
  0
LINE
  8
0
  6
CONTINUOUS
 62
     7
 10
-110.085
 20
186.66252
 11
-110.835
 21
185.91252
  0
LINE
  8
0
  6
CONTINUOUS
 62
     7
 10
-110.085
 20
186.66252
 11
-110.085
 21
188.16252
  0
LINE
  8
0
  6
CONTINUOUS
 62
     7
 10
-108.585
 20
188.16252
 11
-110.085
 21
188.16252
  0
LINE
  8
0
  6
CONTINUOUS
 62
     7
 10
-110.08499
 20
188.16252
 11
-110.835
 21
188.91252
  0
LINE
  8
0
  6
CONTINUOUS
 62
     7
 10
-108.585
 20
188.16252
 11
-107.835
 21
188.91252
  0
LINE
  8
0
  6
CONTINUOUS
 62
     7
 10
-107.835
 20
188.91252
 11
-110.835
 21
188.91252
  0
LINE
  8
0
  6
CONTINUOUS
 62
     7
 10
-110.835
 20
185.91252
 11
-110.835
 21
188.91252
  0
LINE
  8
0
  6
CONTINUOUS
 62
     7
 10
-62.834999
 20
184.91252
 11
-62.460312
 21
184.91252
  0
LINE
  8
0
  6
CONTINUOUS
 62
     7
 10
-62.834999
 20
182.43759
 11
-62.834999
 21
184.91252
  0
LINE
  8
0
  6
CONTINUOUS
 62
     7
 10
-62.496644
 20
184.57417
 11
-62.834996
 21
184.91252
  0
LINE
  8
0
  6
CONTINUOUS
 62
     7
 10
-86.084999
 20
208.16252
 11
-86.834997
 21
208.91251
  0
LINE
  8
0
  6
CONTINUOUS
 62
     7
 10
-86.834999
 20
181.91252
 11
-83.834999
 21
181.91252
  0
LINE
  8
0
  6
CONTINUOUS
 62
     7
 10
-86.084999
 20
182.66252
 11
-84.584999
 21
182.66252
  0
LINE
  8
0
  6
CONTINUOUS
 62
     7
 10
-86.084989
 20
182.66252
 11
-86.83499
 21
181.91251
  0
LINE
  8
0
  6
CONTINUOUS
 62
     7
 10
-86.834999
 20
183.44389
 11
-86.834999
 21
181.91252
  0
LINE
  8
0
  6
CONTINUOUS
 62
     7
 10
-86.084999
 20
183.61285
 11
-86.084999
 21
182.66252
  0
LINE
  8
0
  6
CONTINUOUS
 62
     7
 10
-84.584999
 20
184.16252
 11
-84.584999
 21
182.66252
  0
LINE
  8
0
  6
CONTINUOUS
 62
     7
 10
-84.585003
 20
182.66252
 11
-83.835005
 21
181.91253
  0
LINE
  8
0
  6
CONTINUOUS
 62
     7
 10
-83.834999
 20
184.91252
 11
-83.834999
 21
181.91252
  0
LINE
  8
0
  6
CONTINUOUS
 62
     7
 10
-84.584994
 20
184.16252
 11
-83.834994
 21
184.91252
  0
LINE
  8
0
  6
CONTINUOUS
 62
     7
 10
-85.003151
 20
184.16252
 11
-84.584999
 21
184.16252
  0
LINE
  8
0
  6
CONTINUOUS
 62
     7
 10
-84.212502
 20
184.91252
 11
-83.834999
 21
184.91252
  0
LINE
  8
0
  6
CONTINUOUS
 62
     7
 10
-86.084999
 20
162.66252
 11
-84.584999
 21
162.66252
  0
LINE
  8
0
  6
CONTINUOUS
 62
     7
 10
-86.084993
 20
162.66252
 11
-86.314143
 21
162.43337
  0
LINE
  8
0
  6
CONTINUOUS
 62
     7
 10
-86.834999
 20
164.91252
 11
-86.834999
 21
162.41753
  0
LINE
  8
0
  6
CONTINUOUS
 62
     7
 10
-86.084999
 20
164.16252
 11
-86.084999
 21
162.66252
  0
LINE
  8
0
  6
CONTINUOUS
 62
     7
 10
-84.584999
 20
164.16252
 11
-84.584999
 21
162.66252
  0
LINE
  8
0
  6
CONTINUOUS
 62
     7
 10
-84.585003
 20
162.66252
 11
-84.496649
 21
162.57416
  0
LINE
  8
0
  6
CONTINUOUS
 62
     7
 10
-83.834999
 20
164.91252
 11
-83.834999
 21
162.65874
  0
LINE
  8
0
  6
CONTINUOUS
 62
     7
 10
-84.584992
 20
164.16252
 11
-83.834994
 21
164.91252
  0
LINE
  8
0
  6
CONTINUOUS
 62
     7
 10
-86.084999
 20
164.16252
 11
-84.584999
 21
164.16252
  0
LINE
  8
0
  6
CONTINUOUS
 62
     7
 10
-86.834999
 20
164.91252
 11
-83.834999
 21
164.91252
  0
LINE
  8
0
  6
CONTINUOUS
 62
     7
 10
-86.085008
 20
164.16252
 11
-86.835001
 21
164.91252
  0
LINE
  8
0
  6
CONTINUOUS
 62
     7
 10
-86.834999
 20
177.91252
 11
-83.834999
 21
177.91252
  0
LINE
  8
0
  6
CONTINUOUS
 62
     7
 10
-86.084999
 20
178.66252
 11
-84.584999
 21
178.66252
  0
LINE
  8
0
  6
CONTINUOUS
 62
     7
 10
-86.084999
 20
180.16252
 11
-86.084999
 21
178.66252
  0
LINE
  8
0
  6
CONTINUOUS
 62
     7
 10
-86.834999
 20
180.91252
 11
-86.834999
 21
177.91252
  0
LINE
  8
0
  6
CONTINUOUS
 62
     7
 10
-86.084995
 20
180.16251
 11
-86.834999
 21
180.91252
  0
LINE
  8
0
  6
CONTINUOUS
 62
     7
 10
-86.834999
 20
180.91252
 11
-83.834999
 21
180.91252
  0
LINE
  8
0
  6
CONTINUOUS
 62
     7
 10
-86.084999
 20
180.16252
 11
-84.584999
 21
180.16252
  0
LINE
  8
0
  6
CONTINUOUS
 62
     7
 10
-84.585008
 20
180.16252
 11
-83.835007
 21
180.91252
  0
LINE
  8
0
  6
CONTINUOUS
 62
     7
 10
-84.584999
 20
180.16252
 11
-84.584999
 21
178.66252
  0
LINE
  8
0
  6
CONTINUOUS
 62
     7
 10
-83.834999
 20
180.91252
 11
-83.834999
 21
177.91252
  0
LINE
  8
0
  6
CONTINUOUS
 62
     7
 10
-84.584991
 20
178.66252
 11
-83.835003
 21
177.91253
  0
LINE
  8
0
  6
CONTINUOUS
 62
     7
 10
-86.085
 20
178.66253
 11
-86.835001
 21
177.91253
  0
LINE
  8
0
  6
CONTINUOUS
 62
     7
 10
-86.834999
 20
173.91252
 11
-83.834999
 21
173.91252
  0
LINE
  8
0
  6
CONTINUOUS
 62
     7
 10
-86.084999
 20
174.66252
 11
-84.584999
 21
174.66252
  0
LINE
  8
0
  6
CONTINUOUS
 62
     7
 10
-86.084999
 20
176.16252
 11
-86.084999
 21
174.66252
  0
LINE
  8
0
  6
CONTINUOUS
 62
     7
 10
-86.834999
 20
176.91252
 11
-86.834999
 21
173.91252
  0
LINE
  8
0
  6
CONTINUOUS
 62
     7
 10
-86.084995
 20
176.16252
 11
-86.834999
 21
176.91253
  0
LINE
  8
0
  6
CONTINUOUS
 62
     7
 10
-86.834999
 20
176.91252
 11
-83.834999
 21
176.91252
  0
LINE
  8
0
  6
CONTINUOUS
 62
     7
 10
-86.084999
 20
176.16252
 11
-84.584999
 21
176.16252
  0
LINE
  8
0
  6
CONTINUOUS
 62
     7
 10
-84.584991
 20
176.16252
 11
-83.834995
 21
176.91253
  0
LINE
  8
0
  6
CONTINUOUS
 62
     7
 10
-84.584999
 20
176.16252
 11
-84.584999
 21
174.66252
  0
LINE
  8
0
  6
CONTINUOUS
 62
     7
 10
-83.834999
 20
176.91252
 11
-83.834999
 21
173.91252
  0
LINE
  8
0
  6
CONTINUOUS
 62
     7
 10
-84.584996
 20
174.66252
 11
-83.835003
 21
173.91252
  0
LINE
  8
0
  6
CONTINUOUS
 62
     7
 10
-86.085005
 20
174.66252
 11
-86.835006
 21
173.91252
  0
LINE
  8
0
  6
CONTINUOUS
 62
     7
 10
-86.834999
 20
169.91252
 11
-83.834999
 21
169.91252
  0
LINE
  8
0
  6
CONTINUOUS
 62
     7
 10
-86.084999
 20
170.66252
 11
-84.584999
 21
170.66252
  0
LINE
  8
0
  6
CONTINUOUS
 62
     7
 10
-86.084999
 20
172.16252
 11
-86.084999
 21
170.66252
  0
LINE
  8
0
  6
CONTINUOUS
 62
     7
 10
-86.834999
 20
172.91252
 11
-86.834999
 21
169.91252
  0
LINE
  8
0
  6
CONTINUOUS
 62
     7
 10
-86.08499
 20
172.16251
 11
-86.834999
 21
172.91252
  0
LINE
  8
0
  6
CONTINUOUS
 62
     7
 10
-86.834999
 20
172.91252
 11
-83.834999
 21
172.91252
  0
LINE
  8
0
  6
CONTINUOUS
 62
     7
 10
-86.084999
 20
172.16252
 11
-84.584999
 21
172.16252
  0
LINE
  8
0
  6
CONTINUOUS
 62
     7
 10
-84.585002
 20
172.16252
 11
-83.835001
 21
172.91252
  0
LINE
  8
0
  6
CONTINUOUS
 62
     7
 10
-84.584999
 20
172.16252
 11
-84.584999
 21
170.66252
  0
LINE
  8
0
  6
CONTINUOUS
 62
     7
 10
-83.834999
 20
172.91252
 11
-83.834999
 21
169.91252
  0
LINE
  8
0
  6
CONTINUOUS
 62
     7
 10
-84.584997
 20
170.66253
 11
-83.834992
 21
169.91252
  0
LINE
  8
0
  6
CONTINUOUS
 62
     7
 10
-86.085002
 20
170.66253
 11
-86.835004
 21
169.91253
  0
LINE
  8
0
  6
CONTINUOUS
 62
     7
 10
-86.834999
 20
165.91252
 11
-83.834999
 21
165.91252
  0
LINE
  8
0
  6
CONTINUOUS
 62
     7
 10
-86.084999
 20
166.66252
 11
-84.584999
 21
166.66252
  0
LINE
  8
0
  6
CONTINUOUS
 62
     7
 10
-86.084999
 20
168.16252
 11
-86.084999
 21
166.66252
  0
LINE
  8
0
  6
CONTINUOUS
 62
     7
 10
-86.834999
 20
168.91252
 11
-86.834999
 21
165.91252
  0
LINE
  8
0
  6
CONTINUOUS
 62
     7
 10
-86.085005
 20
168.16252
 11
-86.834999
 21
168.91252
  0
LINE
  8
0
  6
CONTINUOUS
 62
     7
 10
-86.834999
 20
168.91252
 11
-83.834999
 21
168.91252
  0
LINE
  8
0
  6
CONTINUOUS
 62
     7
 10
-86.084999
 20
168.16252
 11
-84.584999
 21
168.16252
  0
LINE
  8
0
  6
CONTINUOUS
 62
     7
 10
-84.585
 20
168.16252
 11
-83.834998
 21
168.91252
  0
LINE
  8
0
  6
CONTINUOUS
 62
     7
 10
-84.584999
 20
168.16252
 11
-84.584999
 21
166.66252
  0
LINE
  8
0
  6
CONTINUOUS
 62
     7
 10
-83.834999
 20
168.91252
 11
-83.834999
 21
165.91252
  0
LINE
  8
0
  6
CONTINUOUS
 62
     7
 10
-84.585003
 20
166.66252
 11
-83.834993
 21
165.91252
  0
LINE
  8
0
  6
CONTINUOUS
 62
     7
 10
-86.084989
 20
166.66252
 11
-86.83499
 21
165.91252
  0
LINE
  8
0
  6
CONTINUOUS
 62
     7
 10
-86.834999
 20
192.91252
 11
-83.834999
 21
192.91252
  0
LINE
  8
0
  6
CONTINUOUS
 62
     7
 10
-86.084999
 20
192.16252
 11
-84.584999
 21
192.16252
  0
LINE
  8
0
  6
CONTINUOUS
 62
     7
 10
-86.084998
 20
192.16251
 11
-86.835003
 21
192.91252
  0
LINE
  8
0
  6
CONTINUOUS
 62
     7
 10
-86.834999
 20
191.38115
 11
-86.834999
 21
192.91252
  0
LINE
  8
0
  6
CONTINUOUS
 62
     7
 10
-86.084999
 20
191.21219
 11
-86.084999
 21
192.16252
  0
LINE
  8
0
  6
CONTINUOUS
 62
     7
 10
-84.584999
 20
190.66252
 11
-84.584999
 21
192.16252
  0
LINE
  8
0
  6
CONTINUOUS
 62
     7
 10
-84.584994
 20
192.16252
 11
-83.834993
 21
192.91252
  0
LINE
  8
0
  6
CONTINUOUS
 62
     7
 10
-83.834999
 20
189.91252
 11
-83.834999
 21
192.91252
  0
LINE
  8
0
  6
CONTINUOUS
 62
     7
 10
-84.585003
 20
190.66252
 11
-83.834993
 21
189.91252
  0
LINE
  8
0
  6
CONTINUOUS
 62
     7
 10
-85.003151
 20
190.66252
 11
-84.584999
 21
190.66252
  0
LINE
  8
0
  6
CONTINUOUS
 62
     7
 10
-84.212502
 20
189.91252
 11
-83.834999
 21
189.91252
  0
LINE
  8
0
  6
CONTINUOUS
 62
     7
 10
-86.084999
 20
212.16252
 11
-84.584999
 21
212.16252
  0
LINE
  8
0
  6
CONTINUOUS
 62
     7
 10
-86.085
 20
212.16251
 11
-86.314149
 21
212.39166
  0
LINE
  8
0
  6
CONTINUOUS
 62
     7
 10
-86.834999
 20
209.91252
 11
-86.834999
 21
212.40752
  0
LINE
  8
0
  6
CONTINUOUS
 62
     7
 10
-86.084999
 20
210.66252
 11
-86.084999
 21
212.16252
  0
LINE
  8
0
  6
CONTINUOUS
 62
     7
 10
-84.584999
 20
210.66252
 11
-84.584999
 21
212.16252
  0
LINE
  8
0
  6
CONTINUOUS
 62
     7
 10
-84.585
 20
212.16252
 11
-84.496641
 21
212.25088
  0
LINE
  8
0
  6
CONTINUOUS
 62
     7
 10
-83.834999
 20
209.91252
 11
-83.834999
 21
212.16631
  0
LINE
  8
0
  6
CONTINUOUS
 62
     7
 10
-84.585002
 20
210.66251
 11
-83.835003
 21
209.91252
  0
LINE
  8
0
  6
CONTINUOUS
 62
     7
 10
-86.084999
 20
210.66252
 11
-84.584999
 21
210.66252
  0
LINE
  8
0
  6
CONTINUOUS
 62
     7
 10
-86.834999
 20
209.91252
 11
-83.834999
 21
209.91252
  0
LINE
  8
0
  6
CONTINUOUS
 62
     7
 10
-86.085
 20
210.66253
 11
-86.834999
 21
209.91252
  0
LINE
  8
0
  6
CONTINUOUS
 62
     7
 10
-86.834999
 20
196.91252
 11
-83.834999
 21
196.91252
  0
LINE
  8
0
  6
CONTINUOUS
 62
     7
 10
-86.084999
 20
196.16252
 11
-84.584999
 21
196.16252
  0
LINE
  8
0
  6
CONTINUOUS
 62
     7
 10
-86.084999
 20
194.66252
 11
-86.084999
 21
196.16252
  0
LINE
  8
0
  6
CONTINUOUS
 62
     7
 10
-86.834999
 20
193.91252
 11
-86.834999
 21
196.91252
  0
LINE
  8
0
  6
CONTINUOUS
 62
     7
 10
-86.085
 20
194.66252
 11
-86.835001
 21
193.91252
  0
LINE
  8
0
  6
CONTINUOUS
 62
     7
 10
-86.834999
 20
193.91252
 11
-83.834999
 21
193.91252
  0
LINE
  8
0
  6
CONTINUOUS
 62
     7
 10
-86.084999
 20
194.66252
 11
-84.584999
 21
194.66252
  0
LINE
  8
0
  6
CONTINUOUS
 62
     7
 10
-84.584994
 20
194.66252
 11
-83.835001
 21
193.91252
  0
LINE
  8
0
  6
CONTINUOUS
 62
     7
 10
-84.584999
 20
194.66252
 11
-84.584999
 21
196.16252
  0
LINE
  8
0
  6
CONTINUOUS
 62
     7
 10
-83.834999
 20
193.91252
 11
-83.834999
 21
196.91252
  0
LINE
  8
0
  6
CONTINUOUS
 62
     7
 10
-84.584998
 20
196.16253
 11
-83.834996
 21
196.91254
  0
LINE
  8
0
  6
CONTINUOUS
 62
     7
 10
-86.085004
 20
196.16252
 11
-86.835008
 21
196.91253
  0
LINE
  8
0
  6
CONTINUOUS
 62
     7
 10
-86.834999
 20
200.91252
 11
-83.834999
 21
200.91252
  0
LINE
  8
0
  6
CONTINUOUS
 62
     7
 10
-86.084999
 20
200.16252
 11
-84.584999
 21
200.16252
  0
LINE
  8
0
  6
CONTINUOUS
 62
     7
 10
-86.084999
 20
198.66252
 11
-86.084999
 21
200.16252
  0
LINE
  8
0
  6
CONTINUOUS
 62
     7
 10
-86.834999
 20
197.91252
 11
-86.834999
 21
200.91252
  0
LINE
  8
0
  6
CONTINUOUS
 62
     7
 10
-86.085002
 20
198.66254
 11
-86.835004
 21
197.91254
  0
LINE
  8
0
  6
CONTINUOUS
 62
     7
 10
-86.834999
 20
197.91252
 11
-83.834999
 21
197.91252
  0
LINE
  8
0
  6
CONTINUOUS
 62
     7
 10
-86.084999
 20
198.66252
 11
-84.584999
 21
198.66252
  0
LINE
  8
0
  6
CONTINUOUS
 62
     7
 10
-84.584992
 20
198.66252
 11
-83.835005
 21
197.91253
  0
LINE
  8
0
  6
CONTINUOUS
 62
     7
 10
-84.584999
 20
198.66252
 11
-84.584999
 21
200.16252
  0
LINE
  8
0
  6
CONTINUOUS
 62
     7
 10
-83.834999
 20
197.91252
 11
-83.834999
 21
200.91252
  0
LINE
  8
0
  6
CONTINUOUS
 62
     7
 10
-84.585
 20
200.16252
 11
-83.834998
 21
200.91252
  0
LINE
  8
0
  6
CONTINUOUS
 62
     7
 10
-86.084993
 20
200.16251
 11
-86.834997
 21
200.91252
  0
LINE
  8
0
  6
CONTINUOUS
 62
     7
 10
-86.834999
 20
204.91252
 11
-83.834999
 21
204.91252
  0
LINE
  8
0
  6
CONTINUOUS
 62
     7
 10
-86.084999
 20
204.16252
 11
-84.584999
 21
204.16252
  0
LINE
  8
0
  6
CONTINUOUS
 62
     7
 10
-86.084999
 20
202.66252
 11
-86.084999
 21
204.16252
  0
LINE
  8
0
  6
CONTINUOUS
 62
     7
 10
-86.834999
 20
201.91252
 11
-86.834999
 21
204.91252
  0
LINE
  8
0
  6
CONTINUOUS
 62
     7
 10
-86.084995
 20
202.66252
 11
-86.834997
 21
201.91251
  0
LINE
  8
0
  6
CONTINUOUS
 62
     7
 10
-86.834999
 20
201.91252
 11
-83.834999
 21
201.91252
  0
LINE
  8
0
  6
CONTINUOUS
 62
     7
 10
-86.084999
 20
202.66252
 11
-84.584999
 21
202.66252
  0
LINE
  8
0
  6
CONTINUOUS
 62
     7
 10
-84.585002
 20
202.66252
 11
-83.835004
 21
201.91252
  0
LINE
  8
0
  6
CONTINUOUS
 62
     7
 10
-84.584999
 20
202.66252
 11
-84.584999
 21
204.16252
  0
LINE
  8
0
  6
CONTINUOUS
 62
     7
 10
-83.834999
 20
201.91252
 11
-83.834999
 21
204.91252
  0
LINE
  8
0
  6
CONTINUOUS
 62
     7
 10
-84.584994
 20
204.16252
 11
-83.834994
 21
204.91252
  0
LINE
  8
0
  6
CONTINUOUS
 62
     7
 10
-86.084999
 20
204.16251
 11
-86.835003
 21
204.91252
  0
LINE
  8
0
  6
CONTINUOUS
 62
     7
 10
-86.834999
 20
208.91252
 11
-83.834999
 21
208.91252
  0
LINE
  8
0
  6
CONTINUOUS
 62
     7
 10
-86.084999
 20
208.16252
 11
-84.584999
 21
208.16252
  0
LINE
  8
0
  6
CONTINUOUS
 62
     7
 10
-86.084999
 20
206.66252
 11
-86.084999
 21
208.16252
  0
LINE
  8
0
  6
CONTINUOUS
 62
     7
 10
-86.834999
 20
205.91252
 11
-86.834999
 21
208.91252
  0
LINE
  8
0
  6
CONTINUOUS
 62
     7
 10
-86.084997
 20
206.66252
 11
-86.834998
 21
205.91252
  0
LINE
  8
0
  6
CONTINUOUS
 62
     7
 10
-86.834999
 20
205.91252
 11
-83.834999
 21
205.91252
  0
LINE
  8
0
  6
CONTINUOUS
 62
     7
 10
-86.084999
 20
206.66252
 11
-84.584999
 21
206.66252
  0
LINE
  8
0
  6
CONTINUOUS
 62
     7
 10
-84.585001
 20
206.66252
 11
-83.834997
 21
205.91252
  0
LINE
  8
0
  6
CONTINUOUS
 62
     7
 10
-84.584999
 20
206.66252
 11
-84.584999
 21
208.16252
  0
LINE
  8
0
  6
CONTINUOUS
 62
     7
 10
-83.834999
 20
205.91252
 11
-83.834999
 21
208.91252
  0
LINE
  8
0
  6
CONTINUOUS
 62
     7
 10
-84.584997
 20
208.16252
 11
-83.834999
 21
208.91252
  0
LINE
  8
0
  6
CONTINUOUS
 62
     7
 10
-62.496641
 20
190.25087
 11
-62.835
 21
189.91251
  0
LINE
  8
0
  6
CONTINUOUS
 62
     7
 10
-62.834999
 20
189.91252
 11
-62.834999
 21
192.38745
  0
LINE
  8
0
  6
CONTINUOUS
 62
     7
 10
-62.834999
 20
189.91252
 11
-62.460312
 21
189.91252
  0
LINE
  8
0
  6
CONTINUOUS
 62
     7
 10
-62.355851
 20
186.39166
 11
-62.834992
 21
185.91252
  0
LINE
  8
0
  6
CONTINUOUS
 62
     7
 10
-62.834999
 20
185.91252
 11
-62.834999
 21
188.91252
  0
LINE
  8
0
  6
CONTINUOUS
 62
     7
 10
-62.834999
 20
185.91252
 11
-62.380039
 21
185.91252
  0
LINE
  8
0
  6
CONTINUOUS
 62
     7
 10
-62.355854
 20
188.43336
 11
-62.835006
 21
188.91252
  0
LINE
  8
0
  6
CONTINUOUS
 62
     7
 10
-62.834999
 20
188.91252
 11
-62.380039
 21
188.91252
  0
LINE
  8
0
  6
CONTINUOUS
 62
     7
 10
-82.834999
 20
164.91252
 11
-82.834999
 21
162.82086
  0
LINE
  8
0
  6
CONTINUOUS
 62
     7
 10
-82.084999
 20
164.16252
 11
-82.084999
 21
162.96999
  0
LINE
  8
0
  6
CONTINUOUS
 62
     7
 10
-80.584999
 20
164.16252
 11
-80.584999
 21
163.34102
  0
LINE
  8
0
  6
CONTINUOUS
 62
     7
 10
-79.834999
 20
164.91252
 11
-79.834999
 21
163.56404
  0
LINE
  8
0
  6
CONTINUOUS
 62
     7
 10
-80.585004
 20
164.16253
 11
-79.835005
 21
164.91253
  0
LINE
  8
0
  6
CONTINUOUS
 62
     7
 10
-82.084999
 20
164.16252
 11
-80.584999
 21
164.16252
  0
LINE
  8
0
  6
CONTINUOUS
 62
     7
 10
-82.834999
 20
164.91252
 11
-79.834999
 21
164.91252
  0
LINE
  8
0
  6
CONTINUOUS
 62
     7
 10
-82.085004
 20
164.16252
 11
-82.834996
 21
164.91252
  0
LINE
  8
0
  6
CONTINUOUS
 62
     7
 10
-82.834999
 20
177.91252
 11
-79.834999
 21
177.91252
  0
LINE
  8
0
  6
CONTINUOUS
 62
     7
 10
-82.084999
 20
178.66252
 11
-80.584999
 21
178.66252
  0
LINE
  8
0
  6
CONTINUOUS
 62
     7
 10
-82.084999
 20
180.16252
 11
-82.084999
 21
178.66252
  0
LINE
  8
0
  6
CONTINUOUS
 62
     7
 10
-82.834999
 20
180.91252
 11
-82.834999
 21
177.91252
  0
LINE
  8
0
  6
CONTINUOUS
 62
     7
 10
-82.085001
 20
180.16252
 11
-82.83501
 21
180.91252
  0
LINE
  8
0
  6
CONTINUOUS
 62
     7
 10
-82.834999
 20
180.91252
 11
-79.834999
 21
180.91252
  0
LINE
  8
0
  6
CONTINUOUS
 62
     7
 10
-82.084999
 20
180.16252
 11
-80.584999
 21
180.16252
  0
LINE
  8
0
  6
CONTINUOUS
 62
     7
 10
-80.584998
 20
180.16252
 11
-79.835002
 21
180.91252
  0
LINE
  8
0
  6
CONTINUOUS
 62
     7
 10
-80.584999
 20
180.16252
 11
-80.584999
 21
178.66252
  0
LINE
  8
0
  6
CONTINUOUS
 62
     7
 10
-79.834999
 20
180.91252
 11
-79.834999
 21
177.91252
  0
LINE
  8
0
  6
CONTINUOUS
 62
     7
 10
-80.584996
 20
178.66251
 11
-79.835002
 21
177.91252
  0
LINE
  8
0
  6
CONTINUOUS
 62
     7
 10
-82.085003
 20
178.66252
 11
-82.835003
 21
177.91252
  0
LINE
  8
0
  6
CONTINUOUS
 62
     7
 10
-82.834999
 20
173.91252
 11
-79.834999
 21
173.91252
  0
LINE
  8
0
  6
CONTINUOUS
 62
     7
 10
-82.084999
 20
174.66252
 11
-80.584999
 21
174.66252
  0
LINE
  8
0
  6
CONTINUOUS
 62
     7
 10
-82.084999
 20
176.16252
 11
-82.084999
 21
174.66252
  0
LINE
  8
0
  6
CONTINUOUS
 62
     7
 10
-82.834999
 20
176.91252
 11
-82.834999
 21
173.91252
  0
LINE
  8
0
  6
CONTINUOUS
 62
     7
 10
-82.084999
 20
176.16252
 11
-82.835003
 21
176.91253
  0
LINE
  8
0
  6
CONTINUOUS
 62
     7
 10
-82.834999
 20
176.91252
 11
-79.834999
 21
176.91252
  0
LINE
  8
0
  6
CONTINUOUS
 62
     7
 10
-82.084999
 20
176.16252
 11
-80.584999
 21
176.16252
  0
LINE
  8
0
  6
CONTINUOUS
 62
     7
 10
-80.585001
 20
176.16252
 11
-79.835
 21
176.91252
  0
LINE
  8
0
  6
CONTINUOUS
 62
     7
 10
-80.584999
 20
176.16252
 11
-80.584999
 21
174.66252
  0
LINE
  8
0
  6
CONTINUOUS
 62
     7
 10
-79.834999
 20
176.91252
 11
-79.834999
 21
173.91252
  0
LINE
  8
0
  6
CONTINUOUS
 62
     7
 10
-80.585007
 20
174.66253
 11
-79.835002
 21
173.91252
  0
LINE
  8
0
  6
CONTINUOUS
 62
     7
 10
-82.084998
 20
174.66252
 11
-82.834999
 21
173.91252
  0
LINE
  8
0
  6
CONTINUOUS
 62
     7
 10
-82.834999
 20
169.91252
 11
-79.834999
 21
169.91252
  0
LINE
  8
0
  6
CONTINUOUS
 62
     7
 10
-82.084999
 20
170.66252
 11
-80.584999
 21
170.66252
  0
LINE
  8
0
  6
CONTINUOUS
 62
     7
 10
-82.084999
 20
172.16252
 11
-82.084999
 21
170.66252
  0
LINE
  8
0
  6
CONTINUOUS
 62
     7
 10
-82.834999
 20
172.91252
 11
-82.834999
 21
169.91252
  0
LINE
  8
0
  6
CONTINUOUS
 62
     7
 10
-82.084999
 20
172.16253
 11
-82.834996
 21
172.91252
  0
LINE
  8
0
  6
CONTINUOUS
 62
     7
 10
-82.834999
 20
172.91252
 11
-79.834999
 21
172.91252
  0
LINE
  8
0
  6
CONTINUOUS
 62
     7
 10
-82.084999
 20
172.16252
 11
-80.584999
 21
172.16252
  0
LINE
  8
0
  6
CONTINUOUS
 62
     7
 10
-80.584998
 20
172.16252
 11
-79.834997
 21
172.91252
  0
LINE
  8
0
  6
CONTINUOUS
 62
     7
 10
-80.584999
 20
172.16252
 11
-80.584999
 21
170.66252
  0
LINE
  8
0
  6
CONTINUOUS
 62
     7
 10
-79.834999
 20
172.91252
 11
-79.834999
 21
169.91252
  0
LINE
  8
0
  6
CONTINUOUS
 62
     7
 10
-80.584999
 20
170.66252
 11
-79.83499
 21
169.91252
  0
LINE
  8
0
  6
CONTINUOUS
 62
     7
 10
-82.084998
 20
170.66252
 11
-82.834999
 21
169.91252
  0
LINE
  8
0
  6
CONTINUOUS
 62
     7
 10
-82.834999
 20
165.91252
 11
-79.834999
 21
165.91252
  0
LINE
  8
0
  6
CONTINUOUS
 62
     7
 10
-82.084999
 20
166.66252
 11
-80.584999
 21
166.66252
  0
LINE
  8
0
  6
CONTINUOUS
 62
     7
 10
-82.084999
 20
168.16252
 11
-82.084999
 21
166.66252
  0
LINE
  8
0
  6
CONTINUOUS
 62
     7
 10
-82.834999
 20
168.91252
 11
-82.834999
 21
165.91252
  0
LINE
  8
0
  6
CONTINUOUS
 62
     7
 10
-82.084998
 20
168.16252
 11
-82.834991
 21
168.91252
  0
LINE
  8
0
  6
CONTINUOUS
 62
     7
 10
-82.834999
 20
168.91252
 11
-79.834999
 21
168.91252
  0
LINE
  8
0
  6
CONTINUOUS
 62
     7
 10
-82.084999
 20
168.16252
 11
-80.584999
 21
168.16252
  0
LINE
  8
0
  6
CONTINUOUS
 62
     7
 10
-80.584995
 20
168.16252
 11
-79.834994
 21
168.91252
  0
LINE
  8
0
  6
CONTINUOUS
 62
     7
 10
-80.584999
 20
168.16252
 11
-80.584999
 21
166.66252
  0
LINE
  8
0
  6
CONTINUOUS
 62
     7
 10
-79.834999
 20
168.91252
 11
-79.834999
 21
165.91252
  0
LINE
  8
0
  6
CONTINUOUS
 62
     7
 10
-80.585003
 20
166.66252
 11
-79.835005
 21
165.91253
  0
LINE
  8
0
  6
CONTINUOUS
 62
     7
 10
-82.084995
 20
166.66252
 11
-82.834997
 21
165.91252
  0
LINE
  8
0
  6
CONTINUOUS
 62
     7
 10
-82.834999
 20
209.91252
 11
-82.834999
 21
212.00418
  0
LINE
  8
0
  6
CONTINUOUS
 62
     7
 10
-82.084999
 20
210.66252
 11
-82.084999
 21
211.85506
  0
LINE
  8
0
  6
CONTINUOUS
 62
     7
 10
-80.584999
 20
210.66252
 11
-80.584999
 21
211.48402
  0
LINE
  8
0
  6
CONTINUOUS
 62
     7
 10
-79.834999
 20
209.91252
 11
-79.834999
 21
211.261
  0
LINE
  8
0
  6
CONTINUOUS
 62
     7
 10
-80.585003
 20
210.66253
 11
-79.834994
 21
209.91252
  0
LINE
  8
0
  6
CONTINUOUS
 62
     7
 10
-82.084999
 20
210.66252
 11
-80.584999
 21
210.66252
  0
LINE
  8
0
  6
CONTINUOUS
 62
     7
 10
-82.834999
 20
209.91252
 11
-79.834999
 21
209.91252
  0
LINE
  8
0
  6
CONTINUOUS
 62
     7
 10
-82.084995
 20
210.66252
 11
-82.834997
 21
209.91252
  0
LINE
  8
0
  6
CONTINUOUS
 62
     7
 10
-82.834999
 20
184.91252
 11
-79.834999
 21
184.91252
  0
LINE
  8
0
  6
CONTINUOUS
 62
     7
 10
-82.084999
 20
184.16252
 11
-80.584999
 21
184.16252
  0
LINE
  8
0
  6
CONTINUOUS
 62
     7
 10
-82.084999
 20
182.66252
 11
-82.084999
 21
184.16252
  0
LINE
  8
0
  6
CONTINUOUS
 62
     7
 10
-82.834999
 20
181.91252
 11
-82.834999
 21
184.91252
  0
LINE
  8
0
  6
CONTINUOUS
 62
     7
 10
-82.085003
 20
182.66253
 11
-82.835003
 21
181.91253
  0
LINE
  8
0
  6
CONTINUOUS
 62
     7
 10
-82.834999
 20
181.91252
 11
-79.834999
 21
181.91252
  0
LINE
  8
0
  6
CONTINUOUS
 62
     7
 10
-82.084999
 20
182.66252
 11
-80.584999
 21
182.66252
  0
LINE
  8
0
  6
CONTINUOUS
 62
     7
 10
-80.584999
 20
182.66252
 11
-79.835
 21
181.91252
  0
LINE
  8
0
  6
CONTINUOUS
 62
     7
 10
-80.584999
 20
182.66252
 11
-80.584999
 21
184.16252
  0
LINE
  8
0
  6
CONTINUOUS
 62
     7
 10
-79.834999
 20
181.91252
 11
-79.834999
 21
184.91252
  0
LINE
  8
0
  6
CONTINUOUS
 62
     7
 10
-80.585003
 20
184.16253
 11
-79.835005
 21
184.91252
  0
LINE
  8
0
  6
CONTINUOUS
 62
     7
 10
-82.084994
 20
184.16251
 11
-82.834998
 21
184.91252
  0
LINE
  8
0
  6
CONTINUOUS
 62
     7
 10
-82.834999
 20
200.91252
 11
-79.834999
 21
200.91252
  0
LINE
  8
0
  6
CONTINUOUS
 62
     7
 10
-82.084999
 20
200.16252
 11
-80.584999
 21
200.16252
  0
LINE
  8
0
  6
CONTINUOUS
 62
     7
 10
-82.084999
 20
198.66252
 11
-82.084999
 21
200.16252
  0
LINE
  8
0
  6
CONTINUOUS
 62
     7
 10
-82.834999
 20
197.91252
 11
-82.834999
 21
200.91252
  0
LINE
  8
0
  6
CONTINUOUS
 62
     7
 10
-82.085003
 20
198.66252
 11
-82.835003
 21
197.91252
  0
LINE
  8
0
  6
CONTINUOUS
 62
     7
 10
-82.834999
 20
197.91252
 11
-79.834999
 21
197.91252
  0
LINE
  8
0
  6
CONTINUOUS
 62
     7
 10
-82.084999
 20
198.66252
 11
-80.584999
 21
198.66252
  0
LINE
  8
0
  6
CONTINUOUS
 62
     7
 10
-80.585002
 20
198.66252
 11
-79.835009
 21
197.91252
  0
LINE
  8
0
  6
CONTINUOUS
 62
     7
 10
-80.584999
 20
198.66252
 11
-80.584999
 21
200.16252
  0
LINE
  8
0
  6
CONTINUOUS
 62
     7
 10
-79.834999
 20
197.91252
 11
-79.834999
 21
200.91252
  0
LINE
  8
0
  6
CONTINUOUS
 62
     7
 10
-80.585006
 20
200.16252
 11
-79.835005
 21
200.91252
  0
LINE
  8
0
  6
CONTINUOUS
 62
     7
 10
-82.084995
 20
200.16252
 11
-82.835004
 21
200.91252
  0
LINE
  8
0
  6
CONTINUOUS
 62
     7
 10
-82.834999
 20
204.91252
 11
-79.834999
 21
204.91252
  0
LINE
  8
0
  6
CONTINUOUS
 62
     7
 10
-82.084999
 20
204.16252
 11
-80.584999
 21
204.16252
  0
LINE
  8
0
  6
CONTINUOUS
 62
     7
 10
-82.084999
 20
202.66252
 11
-82.084999
 21
204.16252
  0
LINE
  8
0
  6
CONTINUOUS
 62
     7
 10
-82.834999
 20
201.91252
 11
-82.834999
 21
204.91252
  0
LINE
  8
0
  6
CONTINUOUS
 62
     7
 10
-82.085003
 20
202.66253
 11
-82.835003
 21
201.91253
  0
LINE
  8
0
  6
CONTINUOUS
 62
     7
 10
-82.834999
 20
201.91252
 11
-79.834999
 21
201.91252
  0
LINE
  8
0
  6
CONTINUOUS
 62
     7
 10
-82.084999
 20
202.66252
 11
-80.584999
 21
202.66252
  0
LINE
  8
0
  6
CONTINUOUS
 62
     7
 10
-80.584992
 20
202.66252
 11
-79.835005
 21
201.91253
  0
LINE
  8
0
  6
CONTINUOUS
 62
     7
 10
-80.584999
 20
202.66252
 11
-80.584999
 21
204.16252
  0
LINE
  8
0
  6
CONTINUOUS
 62
     7
 10
-79.834999
 20
201.91252
 11
-79.834999
 21
204.91252
  0
LINE
  8
0
  6
CONTINUOUS
 62
     7
 10
-80.585001
 20
204.16253
 11
-79.835003
 21
204.91252
  0
LINE
  8
0
  6
CONTINUOUS
 62
     7
 10
-82.085
 20
204.16252
 11
-82.834993
 21
204.91252
  0
LINE
  8
0
  6
CONTINUOUS
 62
     7
 10
-82.834999
 20
208.91252
 11
-79.834999
 21
208.91252
  0
LINE
  8
0
  6
CONTINUOUS
 62
     7
 10
-82.084999
 20
208.16252
 11
-80.584999
 21
208.16252
  0
LINE
  8
0
  6
CONTINUOUS
 62
     7
 10
-82.084999
 20
206.66252
 11
-82.084999
 21
208.16252
  0
LINE
  8
0
  6
CONTINUOUS
 62
     7
 10
-82.834999
 20
205.91252
 11
-82.834999
 21
208.91252
  0
LINE
  8
0
  6
CONTINUOUS
 62
     7
 10
-82.084995
 20
206.66251
 11
-82.834994
 21
205.91252
  0
LINE
  8
0
  6
CONTINUOUS
 62
     7
 10
-82.834999
 20
205.91252
 11
-79.834999
 21
205.91252
  0
LINE
  8
0
  6
CONTINUOUS
 62
     7
 10
-82.084999
 20
206.66252
 11
-80.584999
 21
206.66252
  0
LINE
  8
0
  6
CONTINUOUS
 62
     7
 10
-80.584998
 20
206.66251
 11
-79.835005
 21
205.91252
  0
LINE
  8
0
  6
CONTINUOUS
 62
     7
 10
-80.584999
 20
206.66252
 11
-80.584999
 21
208.16252
  0
LINE
  8
0
  6
CONTINUOUS
 62
     7
 10
-79.834999
 20
205.91252
 11
-79.834999
 21
208.91252
  0
LINE
  8
0
  6
CONTINUOUS
 62
     7
 10
-80.584995
 20
208.16252
 11
-79.834994
 21
208.91252
  0
LINE
  8
0
  6
CONTINUOUS
 62
     7
 10
-82.085
 20
208.16251
 11
-82.835004
 21
208.91252
  0
LINE
  8
0
  6
CONTINUOUS
 62
     7
 10
-82.084999
 20
194.66252
 11
-80.584999
 21
194.66252
  0
LINE
  8
0
  6
CONTINUOUS
 62
     7
 10
-82.084999
 20
194.66252
 11
-82.084999
 21
196.16252
  0
LINE
  8
0
  6
CONTINUOUS
 62
     7
 10
-82.08499
 20
194.66252
 11
-82.834991
 21
193.91252
  0
LINE
  8
0
  6
CONTINUOUS
 62
     7
 10
-82.834999
 20
193.91252
 11
-82.834999
 21
196.91252
  0
LINE
  8
0
  6
CONTINUOUS
 62
     7
 10
-82.834999
 20
193.91252
 11
-79.834999
 21
193.91252
  0
LINE
  8
0
  6
CONTINUOUS
 62
     7
 10
-80.585002
 20
194.66253
 11
-79.834998
 21
193.91252
  0
LINE
  8
0
  6
CONTINUOUS
 62
     7
 10
-80.584999
 20
194.66252
 11
-80.584999
 21
196.16252
  0
LINE
  8
0
  6
CONTINUOUS
 62
     7
 10
-82.084999
 20
196.16252
 11
-80.584999
 21
196.16252
  0
LINE
  8
0
  6
CONTINUOUS
 62
     7
 10
-80.585004
 20
196.16253
 11
-79.835002
 21
196.91253
  0
LINE
  8
0
  6
CONTINUOUS
 62
     7
 10
-82.084994
 20
196.16252
 11
-82.834998
 21
196.91252
  0
LINE
  8
0
  6
CONTINUOUS
 62
     7
 10
-82.834999
 20
196.91252
 11
-79.834999
 21
196.91252
  0
LINE
  8
0
  6
CONTINUOUS
 62
     7
 10
-79.834999
 20
193.91252
 11
-79.834999
 21
196.91252
  0
LINE
  8
0
  6
CONTINUOUS
 62
     7
 10
-82.084999
 20
190.66252
 11
-80.584999
 21
190.66252
  0
LINE
  8
0
  6
CONTINUOUS
 62
     7
 10
-82.084999
 20
190.66252
 11
-82.084999
 21
192.16252
  0
LINE
  8
0
  6
CONTINUOUS
 62
     7
 10
-82.084993
 20
190.66251
 11
-82.834994
 21
189.91251
  0
LINE
  8
0
  6
CONTINUOUS
 62
     7
 10
-82.834999
 20
189.91252
 11
-82.834999
 21
192.91252
  0
LINE
  8
0
  6
CONTINUOUS
 62
     7
 10
-82.834999
 20
189.91252
 11
-79.834999
 21
189.91252
  0
LINE
  8
0
  6
CONTINUOUS
 62
     7
 10
-80.584998
 20
190.66251
 11
-79.835
 21
189.91252
  0
LINE
  8
0
  6
CONTINUOUS
 62
     7
 10
-80.584999
 20
190.66252
 11
-80.584999
 21
192.16252
  0
LINE
  8
0
  6
CONTINUOUS
 62
     7
 10
-82.084999
 20
192.16252
 11
-80.584999
 21
192.16252
  0
LINE
  8
0
  6
CONTINUOUS
 62
     7
 10
-80.58499
 20
192.16252
 11
-79.834989
 21
192.91252
  0
LINE
  8
0
  6
CONTINUOUS
 62
     7
 10
-82.085
 20
192.16253
 11
-82.834998
 21
192.91252
  0
LINE
  8
0
  6
CONTINUOUS
 62
     7
 10
-82.834999
 20
192.91252
 11
-79.834999
 21
192.91252
  0
LINE
  8
0
  6
CONTINUOUS
 62
     7
 10
-79.834999
 20
189.91252
 11
-79.834999
 21
192.91252
  0
LINE
  8
0
  6
CONTINUOUS
 62
     7
 10
-82.084999
 20
186.66252
 11
-80.584999
 21
186.66252
  0
LINE
  8
0
  6
CONTINUOUS
 62
     7
 10
-82.084999
 20
186.66252
 11
-82.084999
 21
188.16252
  0
LINE
  8
0
  6
CONTINUOUS
 62
     7
 10
-82.084994
 20
186.66251
 11
-82.834993
 21
185.91252
  0
LINE
  8
0
  6
CONTINUOUS
 62
     7
 10
-82.834999
 20
185.91252
 11
-82.834999
 21
188.91252
  0
LINE
  8
0
  6
CONTINUOUS
 62
     7
 10
-82.834999
 20
185.91252
 11
-79.834999
 21
185.91252
  0
LINE
  8
0
  6
CONTINUOUS
 62
     7
 10
-80.585
 20
186.66251
 11
-79.835007
 21
185.91252
  0
LINE
  8
0
  6
CONTINUOUS
 62
     7
 10
-80.584999
 20
186.66252
 11
-80.584999
 21
188.16252
  0
LINE
  8
0
  6
CONTINUOUS
 62
     7
 10
-82.084999
 20
188.16252
 11
-80.584999
 21
188.16252
  0
LINE
  8
0
  6
CONTINUOUS
 62
     7
 10
-80.584998
 20
188.16253
 11
-79.834997
 21
188.91253
  0
LINE
  8
0
  6
CONTINUOUS
 62
     7
 10
-82.085002
 20
188.16251
 11
-82.835006
 21
188.91252
  0
LINE
  8
0
  6
CONTINUOUS
 62
     7
 10
-82.834999
 20
188.91252
 11
-79.834999
 21
188.91252
  0
LINE
  8
0
  6
CONTINUOUS
 62
     7
 10
-79.834999
 20
185.91252
 11
-79.834999
 21
188.91252
  0
LINE
  8
0
  6
CONTINUOUS
 62
     7
 10
-78.834999
 20
164.91252
 11
-78.834999
 21
163.90189
  0
LINE
  8
0
  6
CONTINUOUS
 62
     7
 10
-78.084999
 20
164.18672
 11
-78.084999
 21
164.16252
  0
LINE
  8
0
  6
CONTINUOUS
 62
     7
 10
-78.834999
 20
164.91252
 11
-76.437752
 21
164.91252
  0
LINE
  8
0
  6
CONTINUOUS
 62
     7
 10
-78.085002
 20
164.16252
 11
-78.835006
 21
164.91253
  0
LINE
  8
0
  6
CONTINUOUS
 62
     7
 10
-78.834999
 20
177.91252
 11
-75.834999
 21
177.91252
  0
LINE
  8
0
  6
CONTINUOUS
 62
     7
 10
-78.084999
 20
178.66252
 11
-76.584999
 21
178.66252
  0
LINE
  8
0
  6
CONTINUOUS
 62
     7
 10
-78.084999
 20
180.16252
 11
-78.084999
 21
178.66252
  0
LINE
  8
0
  6
CONTINUOUS
 62
     7
 10
-78.834999
 20
180.91252
 11
-78.834999
 21
177.91252
  0
LINE
  8
0
  6
CONTINUOUS
 62
     7
 10
-78.084991
 20
180.16252
 11
-78.835001
 21
180.91252
  0
LINE
  8
0
  6
CONTINUOUS
 62
     7
 10
-78.834999
 20
180.91252
 11
-75.834999
 21
180.91252
  0
LINE
  8
0
  6
CONTINUOUS
 62
     7
 10
-78.084999
 20
180.16252
 11
-76.584999
 21
180.16252
  0
LINE
  8
0
  6
CONTINUOUS
 62
     7
 10
-76.584995
 20
180.16252
 11
-75.834996
 21
180.91252
  0
LINE
  8
0
  6
CONTINUOUS
 62
     7
 10
-76.584999
 20
180.16252
 11
-76.584999
 21
178.66252
  0
LINE
  8
0
  6
CONTINUOUS
 62
     7
 10
-75.834999
 20
180.91252
 11
-75.834999
 21
177.91252
  0
LINE
  8
0
  6
CONTINUOUS
 62
     7
 10
-76.585008
 20
178.66253
 11
-75.835004
 21
177.91252
  0
LINE
  8
0
  6
CONTINUOUS
 62
     7
 10
-78.084996
 20
178.66252
 11
-78.834998
 21
177.91252
  0
LINE
  8
0
  6
CONTINUOUS
 62
     7
 10
-78.834999
 20
173.91252
 11
-75.834999
 21
173.91252
  0
LINE
  8
0
  6
CONTINUOUS
 62
     7
 10
-78.084999
 20
174.66252
 11
-76.584999
 21
174.66252
  0
LINE
  8
0
  6
CONTINUOUS
 62
     7
 10
-78.084999
 20
176.16252
 11
-78.084999
 21
174.66252
  0
LINE
  8
0
  6
CONTINUOUS
 62
     7
 10
-78.834999
 20
176.91252
 11
-78.834999
 21
173.91252
  0
LINE
  8
0
  6
CONTINUOUS
 62
     7
 10
-78.085005
 20
176.16252
 11
-78.834998
 21
176.91252
  0
LINE
  8
0
  6
CONTINUOUS
 62
     7
 10
-78.834999
 20
176.91252
 11
-75.834999
 21
176.91252
  0
LINE
  8
0
  6
CONTINUOUS
 62
     7
 10
-78.084999
 20
176.16252
 11
-76.584999
 21
176.16252
  0
LINE
  8
0
  6
CONTINUOUS
 62
     7
 10
-76.584997
 20
176.16252
 11
-75.834995
 21
176.91252
  0
LINE
  8
0
  6
CONTINUOUS
 62
     7
 10
-76.584999
 20
176.16252
 11
-76.584999
 21
174.66252
  0
LINE
  8
0
  6
CONTINUOUS
 62
     7
 10
-75.834999
 20
176.91252
 11
-75.834999
 21
173.91252
  0
LINE
  8
0
  6
CONTINUOUS
 62
     7
 10
-76.585005
 20
174.66252
 11
-75.834996
 21
173.91252
  0
LINE
  8
0
  6
CONTINUOUS
 62
     7
 10
-78.084994
 20
174.66252
 11
-78.834995
 21
173.91252
  0
LINE
  8
0
  6
CONTINUOUS
 62
     7
 10
-78.834999
 20
169.91252
 11
-75.834999
 21
169.91252
  0
LINE
  8
0
  6
CONTINUOUS
 62
     7
 10
-78.084999
 20
170.66252
 11
-76.584999
 21
170.66252
  0
LINE
  8
0
  6
CONTINUOUS
 62
     7
 10
-78.084999
 20
172.16252
 11
-78.084999
 21
170.66252
  0
LINE
  8
0
  6
CONTINUOUS
 62
     7
 10
-78.834999
 20
172.91252
 11
-78.834999
 21
169.91252
  0
LINE
  8
0
  6
CONTINUOUS
 62
     7
 10
-78.085002
 20
172.16253
 11
-78.835001
 21
172.91252
  0
LINE
  8
0
  6
CONTINUOUS
 62
     7
 10
-78.834999
 20
172.91252
 11
-75.834999
 21
172.91252
  0
LINE
  8
0
  6
CONTINUOUS
 62
     7
 10
-78.084999
 20
172.16252
 11
-76.584999
 21
172.16252
  0
LINE
  8
0
  6
CONTINUOUS
 62
     7
 10
-76.584991
 20
172.16251
 11
-75.834989
 21
172.91252
  0
LINE
  8
0
  6
CONTINUOUS
 62
     7
 10
-76.584999
 20
172.16252
 11
-76.584999
 21
170.66252
  0
LINE
  8
0
  6
CONTINUOUS
 62
     7
 10
-75.834999
 20
172.91252
 11
-75.834999
 21
169.91252
  0
LINE
  8
0
  6
CONTINUOUS
 62
     7
 10
-76.584995
 20
170.66251
 11
-75.835007
 21
169.91253
  0
LINE
  8
0
  6
CONTINUOUS
 62
     7
 10
-78.084991
 20
170.66252
 11
-78.834992
 21
169.91252
  0
LINE
  8
0
  6
CONTINUOUS
 62
     7
 10
-78.834999
 20
165.91252
 11
-75.834999
 21
165.91252
  0
LINE
  8
0
  6
CONTINUOUS
 62
     7
 10
-78.084999
 20
166.66252
 11
-76.584999
 21
166.66252
  0
LINE
  8
0
  6
CONTINUOUS
 62
     7
 10
-78.084999
 20
168.16252
 11
-78.084999
 21
166.66252
  0
LINE
  8
0
  6
CONTINUOUS
 62
     7
 10
-78.834999
 20
168.91252
 11
-78.834999
 21
165.91252
  0
LINE
  8
0
  6
CONTINUOUS
 62
     7
 10
-78.084999
 20
168.16252
 11
-78.834993
 21
168.91252
  0
LINE
  8
0
  6
CONTINUOUS
 62
     7
 10
-78.834999
 20
168.91252
 11
-75.834999
 21
168.91252
  0
LINE
  8
0
  6
CONTINUOUS
 62
     7
 10
-78.084999
 20
168.16252
 11
-76.584999
 21
168.16252
  0
LINE
  8
0
  6
CONTINUOUS
 62
     7
 10
-76.585002
 20
168.16253
 11
-75.835001
 21
168.91253
  0
LINE
  8
0
  6
CONTINUOUS
 62
     7
 10
-76.584999
 20
168.16252
 11
-76.584999
 21
166.66252
  0
LINE
  8
0
  6
CONTINUOUS
 62
     7
 10
-75.834999
 20
168.91252
 11
-75.834999
 21
165.91252
  0
LINE
  8
0
  6
CONTINUOUS
 62
     7
 10
-76.584996
 20
166.66252
 11
-75.835003
 21
165.91252
  0
LINE
  8
0
  6
CONTINUOUS
 62
     7
 10
-78.085005
 20
166.66253
 11
-78.835003
 21
165.91252
  0
LINE
  8
0
  6
CONTINUOUS
 62
     7
 10
-78.834999
 20
209.91252
 11
-78.834999
 21
210.92316
  0
LINE
  8
0
  6
CONTINUOUS
 62
     7
 10
-78.834999
 20
209.91252
 11
-76.437752
 21
209.91252
  0
LINE
  8
0
  6
CONTINUOUS
 62
     7
 10
-78.10231
 20
210.64521
 11
-78.834996
 21
209.91252
  0
LINE
  8
0
  6
CONTINUOUS
 62
     7
 10
-78.834999
 20
184.91252
 11
-75.834999
 21
184.91252
  0
LINE
  8
0
  6
CONTINUOUS
 62
     7
 10
-78.084999
 20
184.16252
 11
-76.584999
 21
184.16252
  0
LINE
  8
0
  6
CONTINUOUS
 62
     7
 10
-78.084999
 20
182.66252
 11
-78.084999
 21
184.16252
  0
LINE
  8
0
  6
CONTINUOUS
 62
     7
 10
-78.834999
 20
181.91252
 11
-78.834999
 21
184.91252
  0
LINE
  8
0
  6
CONTINUOUS
 62
     7
 10
-78.085005
 20
182.66252
 11
-78.834998
 21
181.91253
  0
LINE
  8
0
  6
CONTINUOUS
 62
     7
 10
-78.834999
 20
181.91252
 11
-75.834999
 21
181.91252
  0
LINE
  8
0
  6
CONTINUOUS
 62
     7
 10
-78.084999
 20
182.66252
 11
-76.584999
 21
182.66252
  0
LINE
  8
0
  6
CONTINUOUS
 62
     7
 10
-76.584997
 20
182.66251
 11
-75.835004
 21
181.91252
  0
LINE
  8
0
  6
CONTINUOUS
 62
     7
 10
-76.584999
 20
182.66252
 11
-76.584999
 21
184.16252
  0
LINE
  8
0
  6
CONTINUOUS
 62
     7
 10
-75.834999
 20
181.91252
 11
-75.834999
 21
184.91252
  0
LINE
  8
0
  6
CONTINUOUS
 62
     7
 10
-76.584997
 20
184.16252
 11
-75.834995
 21
184.91252
  0
LINE
  8
0
  6
CONTINUOUS
 62
     7
 10
-78.084991
 20
184.16252
 11
-78.835
 21
184.91252
  0
LINE
  8
0
  6
CONTINUOUS
 62
     7
 10
-78.834999
 20
200.91252
 11
-75.834999
 21
200.91252
  0
LINE
  8
0
  6
CONTINUOUS
 62
     7
 10
-78.084999
 20
200.16252
 11
-76.584999
 21
200.16252
  0
LINE
  8
0
  6
CONTINUOUS
 62
     7
 10
-78.084999
 20
198.66252
 11
-78.084999
 21
200.16252
  0
LINE
  8
0
  6
CONTINUOUS
 62
     7
 10
-78.834999
 20
197.91252
 11
-78.834999
 21
200.91252
  0
LINE
  8
0
  6
CONTINUOUS
 62
     7
 10
-78.084999
 20
198.66253
 11
-78.835
 21
197.91253
  0
LINE
  8
0
  6
CONTINUOUS
 62
     7
 10
-78.834999
 20
197.91252
 11
-75.834999
 21
197.91252
  0
LINE
  8
0
  6
CONTINUOUS
 62
     7
 10
-78.084999
 20
198.66252
 11
-76.584999
 21
198.66252
  0
LINE
  8
0
  6
CONTINUOUS
 62
     7
 10
-76.585003
 20
198.66253
 11
-75.834999
 21
197.91252
  0
LINE
  8
0
  6
CONTINUOUS
 62
     7
 10
-76.584999
 20
198.66252
 11
-76.584999
 21
200.16252
  0
LINE
  8
0
  6
CONTINUOUS
 62
     7
 10
-75.834999
 20
197.91252
 11
-75.834999
 21
200.91252
  0
LINE
  8
0
  6
CONTINUOUS
 62
     7
 10
-76.584999
 20
200.16253
 11
-75.835001
 21
200.91253
  0
LINE
  8
0
  6
CONTINUOUS
 62
     7
 10
-78.08499
 20
200.16251
 11
-78.835
 21
200.91252
  0
LINE
  8
0
  6
CONTINUOUS
 62
     7
 10
-78.834999
 20
204.91252
 11
-75.834999
 21
204.91252
  0
LINE
  8
0
  6
CONTINUOUS
 62
     7
 10
-78.084999
 20
204.16252
 11
-76.584999
 21
204.16252
  0
LINE
  8
0
  6
CONTINUOUS
 62
     7
 10
-78.084999
 20
202.66252
 11
-78.084999
 21
204.16252
  0
LINE
  8
0
  6
CONTINUOUS
 62
     7
 10
-78.834999
 20
201.91252
 11
-78.834999
 21
204.91252
  0
LINE
  8
0
  6
CONTINUOUS
 62
     7
 10
-78.085003
 20
202.66252
 11
-78.834996
 21
201.91253
  0
LINE
  8
0
  6
CONTINUOUS
 62
     7
 10
-78.834999
 20
201.91252
 11
-75.834999
 21
201.91252
  0
LINE
  8
0
  6
CONTINUOUS
 62
     7
 10
-78.084999
 20
202.66252
 11
-76.584999
 21
202.66252
  0
LINE
  8
0
  6
CONTINUOUS
 62
     7
 10
-76.585003
 20
202.66252
 11
-75.83501
 21
201.91252
  0
LINE
  8
0
  6
CONTINUOUS
 62
     7
 10
-76.584999
 20
202.66252
 11
-76.584999
 21
204.16252
  0
LINE
  8
0
  6
CONTINUOUS
 62
     7
 10
-75.834999
 20
201.91252
 11
-75.834999
 21
204.91252
  0
LINE
  8
0
  6
CONTINUOUS
 62
     7
 10
-76.585005
 20
204.16252
 11
-75.835003
 21
204.91252
  0
LINE
  8
0
  6
CONTINUOUS
 62
     7
 10
-78.085001
 20
204.16252
 11
-78.834999
 21
204.91252
  0
LINE
  8
0
  6
CONTINUOUS
 62
     7
 10
-78.834999
 20
208.91252
 11
-75.834999
 21
208.91252
  0
LINE
  8
0
  6
CONTINUOUS
 62
     7
 10
-78.084999
 20
208.16252
 11
-76.584999
 21
208.16252
  0
LINE
  8
0
  6
CONTINUOUS
 62
     7
 10
-78.084999
 20
206.66252
 11
-78.084999
 21
208.16252
  0
LINE
  8
0
  6
CONTINUOUS
 62
     7
 10
-78.834999
 20
205.91252
 11
-78.834999
 21
208.91252
  0
LINE
  8
0
  6
CONTINUOUS
 62
     7
 10
-78.08501
 20
206.66253
 11
-78.835005
 21
205.91253
  0
LINE
  8
0
  6
CONTINUOUS
 62
     7
 10
-78.834999
 20
205.91252
 11
-75.834999
 21
205.91252
  0
LINE
  8
0
  6
CONTINUOUS
 62
     7
 10
-78.084999
 20
206.66252
 11
-76.584999
 21
206.66252
  0
LINE
  8
0
  6
CONTINUOUS
 62
     7
 10
-76.584998
 20
206.66252
 11
-75.835005
 21
205.91252
  0
LINE
  8
0
  6
CONTINUOUS
 62
     7
 10
-76.584999
 20
206.66252
 11
-76.584999
 21
208.16252
  0
LINE
  8
0
  6
CONTINUOUS
 62
     7
 10
-75.834999
 20
205.91252
 11
-75.834999
 21
208.91252
  0
LINE
  8
0
  6
CONTINUOUS
 62
     7
 10
-76.584997
 20
208.16253
 11
-75.834995
 21
208.91253
  0
LINE
  8
0
  6
CONTINUOUS
 62
     7
 10
-78.085001
 20
208.16252
 11
-78.834995
 21
208.91252
  0
LINE
  8
0
  6
CONTINUOUS
 62
     7
 10
-78.084999
 20
194.66252
 11
-76.584999
 21
194.66252
  0
LINE
  8
0
  6
CONTINUOUS
 62
     7
 10
-78.084999
 20
194.66252
 11
-78.084999
 21
196.16252
  0
LINE
  8
0
  6
CONTINUOUS
 62
     7
 10
-78.085002
 20
194.66252
 11
-78.835003
 21
193.91252
  0
LINE
  8
0
  6
CONTINUOUS
 62
     7
 10
-78.834999
 20
193.91252
 11
-78.834999
 21
196.91252
  0
LINE
  8
0
  6
CONTINUOUS
 62
     7
 10
-78.834999
 20
193.91252
 11
-75.834999
 21
193.91252
  0
LINE
  8
0
  6
CONTINUOUS
 62
     7
 10
-76.585005
 20
194.66252
 11
-75.834995
 21
193.91252
  0
LINE
  8
0
  6
CONTINUOUS
 62
     7
 10
-76.584999
 20
194.66252
 11
-76.584999
 21
196.16252
  0
LINE
  8
0
  6
CONTINUOUS
 62
     7
 10
-78.084999
 20
196.16252
 11
-76.584999
 21
196.16252
  0
LINE
  8
0
  6
CONTINUOUS
 62
     7
 10
-76.584999
 20
196.16252
 11
-75.834998
 21
196.91252
  0
LINE
  8
0
  6
CONTINUOUS
 62
     7
 10
-78.085003
 20
196.16252
 11
-78.834996
 21
196.91252
  0
LINE
  8
0
  6
CONTINUOUS
 62
     7
 10
-78.834999
 20
196.91252
 11
-75.834999
 21
196.91252
  0
LINE
  8
0
  6
CONTINUOUS
 62
     7
 10
-75.834999
 20
193.91252
 11
-75.834999
 21
196.91252
  0
LINE
  8
0
  6
CONTINUOUS
 62
     7
 10
-78.084999
 20
190.66252
 11
-76.584999
 21
190.66252
  0
LINE
  8
0
  6
CONTINUOUS
 62
     7
 10
-78.084999
 20
190.66252
 11
-78.084999
 21
192.16252
  0
LINE
  8
0
  6
CONTINUOUS
 62
     7
 10
-78.084999
 20
190.66252
 11
-78.834995
 21
189.91253
  0
LINE
  8
0
  6
CONTINUOUS
 62
     7
 10
-78.834999
 20
189.91252
 11
-78.834999
 21
192.91252
  0
LINE
  8
0
  6
CONTINUOUS
 62
     7
 10
-78.834999
 20
189.91252
 11
-75.834999
 21
189.91252
  0
LINE
  8
0
  6
CONTINUOUS
 62
     7
 10
-76.584999
 20
190.66252
 11
-75.835001
 21
189.91253
  0
LINE
  8
0
  6
CONTINUOUS
 62
     7
 10
-76.584999
 20
190.66252
 11
-76.584999
 21
192.16252
  0
LINE
  8
0
  6
CONTINUOUS
 62
     7
 10
-78.084999
 20
192.16252
 11
-76.584999
 21
192.16252
  0
LINE
  8
0
  6
CONTINUOUS
 62
     7
 10
-76.584998
 20
192.16252
 11
-75.834996
 21
192.91253
  0
LINE
  8
0
  6
CONTINUOUS
 62
     7
 10
-78.084996
 20
192.16253
 11
-78.834995
 21
192.91252
  0
LINE
  8
0
  6
CONTINUOUS
 62
     7
 10
-78.834999
 20
192.91252
 11
-75.834999
 21
192.91252
  0
LINE
  8
0
  6
CONTINUOUS
 62
     7
 10
-75.834999
 20
189.91252
 11
-75.834999
 21
192.91252
  0
LINE
  8
0
  6
CONTINUOUS
 62
     7
 10
-78.084999
 20
186.66252
 11
-76.584999
 21
186.66252
  0
LINE
  8
0
  6
CONTINUOUS
 62
     7
 10
-78.084999
 20
186.66252
 11
-78.084999
 21
188.16252
  0
LINE
  8
0
  6
CONTINUOUS
 62
     7
 10
-78.085006
 20
186.66253
 11
-78.835007
 21
185.91252
  0
LINE
  8
0
  6
CONTINUOUS
 62
     7
 10
-78.834999
 20
185.91252
 11
-78.834999
 21
188.91252
  0
LINE
  8
0
  6
CONTINUOUS
 62
     7
 10
-78.834999
 20
185.91252
 11
-75.834999
 21
185.91252
  0
LINE
  8
0
  6
CONTINUOUS
 62
     7
 10
-76.585003
 20
186.66252
 11
-75.834998
 21
185.91252
  0
LINE
  8
0
  6
CONTINUOUS
 62
     7
 10
-76.584999
 20
186.66252
 11
-76.584999
 21
188.16252
  0
LINE
  8
0
  6
CONTINUOUS
 62
     7
 10
-78.084999
 20
188.16252
 11
-76.584999
 21
188.16252
  0
LINE
  8
0
  6
CONTINUOUS
 62
     7
 10
-76.585005
 20
188.16254
 11
-75.835003
 21
188.91254
  0
LINE
  8
0
  6
CONTINUOUS
 62
     7
 10
-78.085006
 20
188.16252
 11
-78.834999
 21
188.91252
  0
LINE
  8
0
  6
CONTINUOUS
 62
     7
 10
-78.834999
 20
188.91252
 11
-75.834999
 21
188.91252
  0
LINE
  8
0
  6
CONTINUOUS
 62
     7
 10
-75.834999
 20
185.91252
 11
-75.834999
 21
188.91252
  0
LINE
  8
0
  6
CONTINUOUS
 62
     7
 10
-74.834999
 20
177.91252
 11
-71.834999
 21
177.91252
  0
LINE
  8
0
  6
CONTINUOUS
 62
     7
 10
-74.084999
 20
178.66252
 11
-72.584999
 21
178.66252
  0
LINE
  8
0
  6
CONTINUOUS
 62
     7
 10
-74.084999
 20
180.16252
 11
-74.084999
 21
178.66252
  0
LINE
  8
0
  6
CONTINUOUS
 62
     7
 10
-74.834999
 20
180.91252
 11
-74.834999
 21
177.91252
  0
LINE
  8
0
  6
CONTINUOUS
 62
     7
 10
-74.085004
 20
180.16252
 11
-74.834997
 21
180.91251
  0
LINE
  8
0
  6
CONTINUOUS
 62
     7
 10
-74.834999
 20
180.91252
 11
-71.834999
 21
180.91252
  0
LINE
  8
0
  6
CONTINUOUS
 62
     7
 10
-74.084999
 20
180.16252
 11
-72.584999
 21
180.16252
  0
LINE
  8
0
  6
CONTINUOUS
 62
     7
 10
-72.584989
 20
180.16252
 11
-71.834994
 21
180.91251
  0
LINE
  8
0
  6
CONTINUOUS
 62
     7
 10
-72.584999
 20
180.16252
 11
-72.584999
 21
178.66252
  0
LINE
  8
0
  6
CONTINUOUS
 62
     7
 10
-71.834999
 20
180.91252
 11
-71.834999
 21
177.91252
  0
LINE
  8
0
  6
CONTINUOUS
 62
     7
 10
-72.585001
 20
178.66252
 11
-71.835003
 21
177.91252
  0
LINE
  8
0
  6
CONTINUOUS
 62
     7
 10
-74.084994
 20
178.66252
 11
-74.834992
 21
177.91252
  0
LINE
  8
0
  6
CONTINUOUS
 62
     7
 10
-74.834999
 20
173.91252
 11
-71.834999
 21
173.91252
  0
LINE
  8
0
  6
CONTINUOUS
 62
     7
 10
-74.084999
 20
174.66252
 11
-72.584999
 21
174.66252
  0
LINE
  8
0
  6
CONTINUOUS
 62
     7
 10
-74.084999
 20
176.16252
 11
-74.084999
 21
174.66252
  0
LINE
  8
0
  6
CONTINUOUS
 62
     7
 10
-74.834999
 20
176.91252
 11
-74.834999
 21
173.91252
  0
LINE
  8
0
  6
CONTINUOUS
 62
     7
 10
-74.084996
 20
176.16252
 11
-74.835
 21
176.91252
  0
LINE
  8
0
  6
CONTINUOUS
 62
     7
 10
-74.834999
 20
176.91252
 11
-71.834999
 21
176.91252
  0
LINE
  8
0
  6
CONTINUOUS
 62
     7
 10
-74.084999
 20
176.16252
 11
-72.584999
 21
176.16252
  0
LINE
  8
0
  6
CONTINUOUS
 62
     7
 10
-72.584994
 20
176.16252
 11
-71.834996
 21
176.91251
  0
LINE
  8
0
  6
CONTINUOUS
 62
     7
 10
-72.584999
 20
176.16252
 11
-72.584999
 21
174.66252
  0
LINE
  8
0
  6
CONTINUOUS
 62
     7
 10
-71.834999
 20
176.91252
 11
-71.834999
 21
173.91252
  0
LINE
  8
0
  6
CONTINUOUS
 62
     7
 10
-72.585001
 20
174.66252
 11
-71.835003
 21
173.91253
  0
LINE
  8
0
  6
CONTINUOUS
 62
     7
 10
-74.084989
 20
174.66252
 11
-74.834991
 21
173.91252
  0
LINE
  8
0
  6
CONTINUOUS
 62
     7
 10
-74.834999
 20
169.91252
 11
-71.834999
 21
169.91252
  0
LINE
  8
0
  6
CONTINUOUS
 62
     7
 10
-74.084999
 20
170.66252
 11
-72.584999
 21
170.66252
  0
LINE
  8
0
  6
CONTINUOUS
 62
     7
 10
-74.084999
 20
172.16252
 11
-74.084999
 21
170.66252
  0
LINE
  8
0
  6
CONTINUOUS
 62
     7
 10
-74.834999
 20
172.91252
 11
-74.834999
 21
169.91252
  0
LINE
  8
0
  6
CONTINUOUS
 62
     7
 10
-74.085001
 20
172.16252
 11
-74.834994
 21
172.91251
  0
LINE
  8
0
  6
CONTINUOUS
 62
     7
 10
-74.834999
 20
172.91252
 11
-71.834999
 21
172.91252
  0
LINE
  8
0
  6
CONTINUOUS
 62
     7
 10
-74.084999
 20
172.16252
 11
-72.584999
 21
172.16252
  0
LINE
  8
0
  6
CONTINUOUS
 62
     7
 10
-72.585
 20
172.16253
 11
-71.834999
 21
172.91253
  0
LINE
  8
0
  6
CONTINUOUS
 62
     7
 10
-72.584999
 20
172.16252
 11
-72.584999
 21
170.66252
  0
LINE
  8
0
  6
CONTINUOUS
 62
     7
 10
-71.834999
 20
172.91252
 11
-71.834999
 21
169.91252
  0
LINE
  8
0
  6
CONTINUOUS
 62
     7
 10
-72.584998
 20
170.66252
 11
-71.835004
 21
169.91252
  0
LINE
  8
0
  6
CONTINUOUS
 62
     7
 10
-74.085008
 20
170.66252
 11
-74.835004
 21
169.91253
  0
LINE
  8
0
  6
CONTINUOUS
 62
     7
 10
-74.834999
 20
165.91252
 11
-74.577652
 21
165.91252
  0
LINE
  8
0
  6
CONTINUOUS
 62
     7
 10
-74.084999
 20
166.66252
 11
-73.390915
 21
166.66252
  0
LINE
  8
0
  6
CONTINUOUS
 62
     7
 10
-74.084999
 20
168.16252
 11
-74.084999
 21
166.66252
  0
LINE
  8
0
  6
CONTINUOUS
 62
     7
 10
-74.834999
 20
168.91252
 11
-74.834999
 21
165.91252
  0
LINE
  8
0
  6
CONTINUOUS
 62
     7
 10
-74.085001
 20
168.16252
 11
-74.835005
 21
168.91253
  0
LINE
  8
0
  6
CONTINUOUS
 62
     7
 10
-74.834999
 20
168.91252
 11
-71.834999
 21
168.91252
  0
LINE
  8
0
  6
CONTINUOUS
 62
     7
 10
-74.084999
 20
168.16252
 11
-72.584999
 21
168.16252
  0
LINE
  8
0
  6
CONTINUOUS
 62
     7
 10
-72.585003
 20
168.16252
 11
-71.835002
 21
168.91252
  0
LINE
  8
0
  6
CONTINUOUS
 62
     7
 10
-72.584999
 20
168.16252
 11
-72.584999
 21
167.22745
  0
LINE
  8
0
  6
CONTINUOUS
 62
     7
 10
-71.834999
 20
168.91252
 11
-71.834999
 21
167.79747
  0
LINE
  8
0
  6
CONTINUOUS
 62
     7
 10
-74.084993
 20
166.66252
 11
-74.834995
 21
165.91251
  0
LINE
  8
0
  6
CONTINUOUS
 62
     7
 10
-74.834999
 20
184.91252
 11
-71.834999
 21
184.91252
  0
LINE
  8
0
  6
CONTINUOUS
 62
     7
 10
-74.084999
 20
184.16252
 11
-72.584999
 21
184.16252
  0
LINE
  8
0
  6
CONTINUOUS
 62
     7
 10
-74.084999
 20
182.66252
 11
-74.084999
 21
184.16252
  0
LINE
  8
0
  6
CONTINUOUS
 62
     7
 10
-74.834999
 20
181.91252
 11
-74.834999
 21
184.91252
  0
LINE
  8
0
  6
CONTINUOUS
 62
     7
 10
-74.084995
 20
182.66252
 11
-74.834996
 21
181.91252
  0
LINE
  8
0
  6
CONTINUOUS
 62
     7
 10
-74.834999
 20
181.91252
 11
-71.834999
 21
181.91252
  0
LINE
  8
0
  6
CONTINUOUS
 62
     7
 10
-74.084999
 20
182.66252
 11
-72.584999
 21
182.66252
  0
LINE
  8
0
  6
CONTINUOUS
 62
     7
 10
-72.585009
 20
182.66253
 11
-71.835005
 21
181.91252
  0
LINE
  8
0
  6
CONTINUOUS
 62
     7
 10
-72.584999
 20
182.66252
 11
-72.584999
 21
184.16252
  0
LINE
  8
0
  6
CONTINUOUS
 62
     7
 10
-71.834999
 20
181.91252
 11
-71.834999
 21
184.91252
  0
LINE
  8
0
  6
CONTINUOUS
 62
     7
 10
-72.584992
 20
184.16252
 11
-71.834991
 21
184.91252
  0
LINE
  8
0
  6
CONTINUOUS
 62
     7
 10
-74.084998
 20
184.16252
 11
-74.834996
 21
184.91252
  0
LINE
  8
0
  6
CONTINUOUS
 62
     7
 10
-74.834999
 20
200.91252
 11
-71.834999
 21
200.91252
  0
LINE
  8
0
  6
CONTINUOUS
 62
     7
 10
-74.084999
 20
200.16252
 11
-72.584999
 21
200.16252
  0
LINE
  8
0
  6
CONTINUOUS
 62
     7
 10
-74.084999
 20
198.66252
 11
-74.084999
 21
200.16252
  0
LINE
  8
0
  6
CONTINUOUS
 62
     7
 10
-74.834999
 20
197.91252
 11
-74.834999
 21
200.91252
  0
LINE
  8
0
  6
CONTINUOUS
 62
     7
 10
-74.084998
 20
198.66252
 11
-74.834997
 21
197.91252
  0
LINE
  8
0
  6
CONTINUOUS
 62
     7
 10
-74.834999
 20
197.91252
 11
-71.834999
 21
197.91252
  0
LINE
  8
0
  6
CONTINUOUS
 62
     7
 10
-74.084999
 20
198.66252
 11
-72.584999
 21
198.66252
  0
LINE
  8
0
  6
CONTINUOUS
 62
     7
 10
-72.585011
 20
198.66252
 11
-71.835002
 21
197.91252
  0
LINE
  8
0
  6
CONTINUOUS
 62
     7
 10
-72.584999
 20
198.66252
 11
-72.584999
 21
200.16252
  0
LINE
  8
0
  6
CONTINUOUS
 62
     7
 10
-71.834999
 20
197.91252
 11
-71.834999
 21
200.91252
  0
LINE
  8
0
  6
CONTINUOUS
 62
     7
 10
-72.584998
 20
200.16252
 11
-71.834996
 21
200.91252
  0
LINE
  8
0
  6
CONTINUOUS
 62
     7
 10
-74.085002
 20
200.16252
 11
-74.835006
 21
200.91253
  0
LINE
  8
0
  6
CONTINUOUS
 62
     7
 10
-74.834999
 20
204.91252
 11
-71.834999
 21
204.91252
  0
LINE
  8
0
  6
CONTINUOUS
 62
     7
 10
-74.084999
 20
204.16252
 11
-72.584999
 21
204.16252
  0
LINE
  8
0
  6
CONTINUOUS
 62
     7
 10
-74.084999
 20
202.66252
 11
-74.084999
 21
204.16252
  0
LINE
  8
0
  6
CONTINUOUS
 62
     7
 10
-74.834999
 20
201.91252
 11
-74.834999
 21
204.91252
  0
LINE
  8
0
  6
CONTINUOUS
 62
     7
 10
-74.084998
 20
202.66252
 11
-74.834999
 21
201.91252
  0
LINE
  8
0
  6
CONTINUOUS
 62
     7
 10
-74.834999
 20
201.91252
 11
-71.834999
 21
201.91252
  0
LINE
  8
0
  6
CONTINUOUS
 62
     7
 10
-74.084999
 20
202.66252
 11
-72.584999
 21
202.66252
  0
LINE
  8
0
  6
CONTINUOUS
 62
     7
 10
-72.585004
 20
202.66252
 11
-71.835
 21
201.91252
  0
LINE
  8
0
  6
CONTINUOUS
 62
     7
 10
-72.584999
 20
202.66252
 11
-72.584999
 21
204.16252
  0
LINE
  8
0
  6
CONTINUOUS
 62
     7
 10
-71.834999
 20
201.91252
 11
-71.834999
 21
204.91252
  0
LINE
  8
0
  6
CONTINUOUS
 62
     7
 10
-72.584995
 20
204.16252
 11
-71.834994
 21
204.91252
  0
LINE
  8
0
  6
CONTINUOUS
 62
     7
 10
-74.084997
 20
204.16252
 11
-74.835006
 21
204.91252
  0
LINE
  8
0
  6
CONTINUOUS
 62
     7
 10
-74.084999
 20
208.16252
 11
-73.390915
 21
208.16252
  0
LINE
  8
0
  6
CONTINUOUS
 62
     7
 10
-74.084999
 20
206.66252
 11
-74.084999
 21
208.16252
  0
LINE
  8
0
  6
CONTINUOUS
 62
     7
 10
-74.834999
 20
205.91252
 11
-74.834999
 21
209.06316
  0
LINE
  8
0
  6
CONTINUOUS
 62
     7
 10
-74.08499
 20
206.66253
 11
-74.834992
 21
205.91252
  0
LINE
  8
0
  6
CONTINUOUS
 62
     7
 10
-74.834999
 20
205.91252
 11
-71.834999
 21
205.91252
  0
LINE
  8
0
  6
CONTINUOUS
 62
     7
 10
-74.084999
 20
206.66252
 11
-72.584999
 21
206.66252
  0
LINE
  8
0
  6
CONTINUOUS
 62
     7
 10
-72.584995
 20
206.66252
 11
-71.835002
 21
205.91253
  0
LINE
  8
0
  6
CONTINUOUS
 62
     7
 10
-72.584999
 20
206.66252
 11
-72.584999
 21
207.5976
  0
LINE
  8
0
  6
CONTINUOUS
 62
     7
 10
-71.834999
 20
205.91252
 11
-71.834999
 21
207.02757
  0
LINE
  8
0
  6
CONTINUOUS
 62
     7
 10
-74.085002
 20
208.16252
 11
-74.835006
 21
208.91253
  0
LINE
  8
0
  6
CONTINUOUS
 62
     7
 10
-74.084999
 20
194.66252
 11
-72.584999
 21
194.66252
  0
LINE
  8
0
  6
CONTINUOUS
 62
     7
 10
-74.084999
 20
194.66252
 11
-74.084999
 21
196.16252
  0
LINE
  8
0
  6
CONTINUOUS
 62
     7
 10
-74.084992
 20
194.66252
 11
-74.834993
 21
193.91252
  0
LINE
  8
0
  6
CONTINUOUS
 62
     7
 10
-74.834999
 20
193.91252
 11
-74.834999
 21
196.91252
  0
LINE
  8
0
  6
CONTINUOUS
 62
     7
 10
-74.834999
 20
193.91252
 11
-71.834999
 21
193.91252
  0
LINE
  8
0
  6
CONTINUOUS
 62
     7
 10
-72.584995
 20
194.66252
 11
-71.834996
 21
193.91253
  0
LINE
  8
0
  6
CONTINUOUS
 62
     7
 10
-72.584999
 20
194.66252
 11
-72.584999
 21
196.16252
  0
LINE
  8
0
  6
CONTINUOUS
 62
     7
 10
-74.084999
 20
196.16252
 11
-72.584999
 21
196.16252
  0
LINE
  8
0
  6
CONTINUOUS
 62
     7
 10
-72.584992
 20
196.16252
 11
-71.834994
 21
196.91251
  0
LINE
  8
0
  6
CONTINUOUS
 62
     7
 10
-74.085002
 20
196.16252
 11
-74.834995
 21
196.91252
  0
LINE
  8
0
  6
CONTINUOUS
 62
     7
 10
-74.834999
 20
196.91252
 11
-71.834999
 21
196.91252
  0
LINE
  8
0
  6
CONTINUOUS
 62
     7
 10
-71.834999
 20
193.91252
 11
-71.834999
 21
196.91252
  0
LINE
  8
0
  6
CONTINUOUS
 62
     7
 10
-74.084999
 20
190.66252
 11
-72.584999
 21
190.66252
  0
LINE
  8
0
  6
CONTINUOUS
 62
     7
 10
-74.084999
 20
190.66252
 11
-74.084999
 21
192.16252
  0
LINE
  8
0
  6
CONTINUOUS
 62
     7
 10
-74.085
 20
190.66251
 11
-74.835002
 21
189.91251
  0
LINE
  8
0
  6
CONTINUOUS
 62
     7
 10
-74.834999
 20
189.91252
 11
-74.834999
 21
192.91252
  0
LINE
  8
0
  6
CONTINUOUS
 62
     7
 10
-74.834999
 20
189.91252
 11
-71.834999
 21
189.91252
  0
LINE
  8
0
  6
CONTINUOUS
 62
     7
 10
-72.585004
 20
190.66252
 11
-71.835
 21
189.91251
  0
LINE
  8
0
  6
CONTINUOUS
 62
     7
 10
-72.584999
 20
190.66252
 11
-72.584999
 21
192.16252
  0
LINE
  8
0
  6
CONTINUOUS
 62
     7
 10
-74.084999
 20
192.16252
 11
-72.584999
 21
192.16252
  0
LINE
  8
0
  6
CONTINUOUS
 62
     7
 10
-72.585003
 20
192.16253
 11
-71.835002
 21
192.91253
  0
LINE
  8
0
  6
CONTINUOUS
 62
     7
 10
-74.085007
 20
192.16252
 11
-74.835
 21
192.91252
  0
LINE
  8
0
  6
CONTINUOUS
 62
     7
 10
-74.834999
 20
192.91252
 11
-71.834999
 21
192.91252
  0
LINE
  8
0
  6
CONTINUOUS
 62
     7
 10
-71.834999
 20
189.91252
 11
-71.834999
 21
192.91252
  0
LINE
  8
0
  6
CONTINUOUS
 62
     7
 10
-74.084999
 20
186.66252
 11
-72.584999
 21
186.66252
  0
LINE
  8
0
  6
CONTINUOUS
 62
     7
 10
-74.084999
 20
186.66252
 11
-74.084999
 21
188.16252
  0
LINE
  8
0
  6
CONTINUOUS
 62
     7
 10
-74.085
 20
186.66253
 11
-74.834996
 21
185.91252
  0
LINE
  8
0
  6
CONTINUOUS
 62
     7
 10
-74.834999
 20
185.91252
 11
-74.834999
 21
188.91252
  0
LINE
  8
0
  6
CONTINUOUS
 62
     7
 10
-74.834999
 20
185.91252
 11
-71.834999
 21
185.91252
  0
LINE
  8
0
  6
CONTINUOUS
 62
     7
 10
-72.584997
 20
186.66252
 11
-71.834993
 21
185.91252
  0
LINE
  8
0
  6
CONTINUOUS
 62
     7
 10
-72.584999
 20
186.66252
 11
-72.584999
 21
188.16252
  0
LINE
  8
0
  6
CONTINUOUS
 62
     7
 10
-74.084999
 20
188.16252
 11
-72.584999
 21
188.16252
  0
LINE
  8
0
  6
CONTINUOUS
 62
     7
 10
-72.584995
 20
188.16252
 11
-71.834994
 21
188.91252
  0
LINE
  8
0
  6
CONTINUOUS
 62
     7
 10
-74.084996
 20
188.16252
 11
-74.835
 21
188.91253
  0
LINE
  8
0
  6
CONTINUOUS
 62
     7
 10
-74.834999
 20
188.91252
 11
-71.834999
 21
188.91252
  0
LINE
  8
0
  6
CONTINUOUS
 62
     7
 10
-71.834999
 20
185.91252
 11
-71.834999
 21
188.91252
  0
LINE
  8
0
  6
CONTINUOUS
 62
     7
 10
-70.834999
 20
177.91252
 11
-67.834999
 21
177.91252
  0
LINE
  8
0
  6
CONTINUOUS
 62
     7
 10
-70.084999
 20
178.66252
 11
-68.584999
 21
178.66252
  0
LINE
  8
0
  6
CONTINUOUS
 62
     7
 10
-70.084999
 20
180.16252
 11
-70.084999
 21
178.66252
  0
LINE
  8
0
  6
CONTINUOUS
 62
     7
 10
-70.834999
 20
180.91252
 11
-70.834999
 21
177.91252
  0
LINE
  8
0
  6
CONTINUOUS
 62
     7
 10
-70.084997
 20
180.16252
 11
-70.835001
 21
180.91252
  0
LINE
  8
0
  6
CONTINUOUS
 62
     7
 10
-70.834999
 20
180.91252
 11
-67.834999
 21
180.91252
  0
LINE
  8
0
  6
CONTINUOUS
 62
     7
 10
-70.084999
 20
180.16252
 11
-68.584999
 21
180.16252
  0
LINE
  8
0
  6
CONTINUOUS
 62
     7
 10
-68.584993
 20
180.16252
 11
-67.834993
 21
180.91252
  0
LINE
  8
0
  6
CONTINUOUS
 62
     7
 10
-68.584999
 20
180.16252
 11
-68.584999
 21
178.66252
  0
LINE
  8
0
  6
CONTINUOUS
 62
     7
 10
-67.834999
 20
180.91252
 11
-67.834999
 21
177.91252
  0
LINE
  8
0
  6
CONTINUOUS
 62
     7
 10
-68.585007
 20
178.66252
 11
-67.835009
 21
177.91253
  0
LINE
  8
0
  6
CONTINUOUS
 62
     7
 10
-70.084999
 20
178.66253
 11
-70.835
 21
177.91253
  0
LINE
  8
0
  6
CONTINUOUS
 62
     7
 10
-70.834999
 20
173.91252
 11
-67.834999
 21
173.91252
  0
LINE
  8
0
  6
CONTINUOUS
 62
     7
 10
-70.084999
 20
174.66252
 11
-68.584999
 21
174.66252
  0
LINE
  8
0
  6
CONTINUOUS
 62
     7
 10
-70.084999
 20
176.16252
 11
-70.084999
 21
174.66252
  0
LINE
  8
0
  6
CONTINUOUS
 62
     7
 10
-70.834999
 20
176.91252
 11
-70.834999
 21
173.91252
  0
LINE
  8
0
  6
CONTINUOUS
 62
     7
 10
-70.084999
 20
176.16251
 11
-70.834997
 21
176.91251
  0
LINE
  8
0
  6
CONTINUOUS
 62
     7
 10
-70.834999
 20
176.91252
 11
-67.834999
 21
176.91252
  0
LINE
  8
0
  6
CONTINUOUS
 62
     7
 10
-70.084999
 20
176.16252
 11
-68.584999
 21
176.16252
  0
LINE
  8
0
  6
CONTINUOUS
 62
     7
 10
-68.585001
 20
176.16252
 11
-67.834999
 21
176.91253
  0
LINE
  8
0
  6
CONTINUOUS
 62
     7
 10
-68.584999
 20
176.16252
 11
-68.584999
 21
174.66252
  0
LINE
  8
0
  6
CONTINUOUS
 62
     7
 10
-67.834999
 20
176.91252
 11
-67.834999
 21
173.91252
  0
LINE
  8
0
  6
CONTINUOUS
 62
     7
 10
-68.584999
 20
174.66252
 11
-67.835006
 21
173.91252
  0
LINE
  8
0
  6
CONTINUOUS
 62
     7
 10
-70.085007
 20
174.66252
 11
-70.834999
 21
173.91253
  0
LINE
  8
0
  6
CONTINUOUS
 62
     7
 10
-70.834999
 20
169.91252
 11
-69.48143
 21
169.91252
  0
LINE
  8
0
  6
CONTINUOUS
 62
     7
 10
-70.084999
 20
170.66252
 11
-68.584999
 21
170.66252
  0
LINE
  8
0
  6
CONTINUOUS
 62
     7
 10
-70.084999
 20
172.16252
 11
-70.084999
 21
170.66252
  0
LINE
  8
0
  6
CONTINUOUS
 62
     7
 10
-70.834999
 20
172.91252
 11
-70.834999
 21
169.91252
  0
LINE
  8
0
  6
CONTINUOUS
 62
     7
 10
-70.085002
 20
172.16252
 11
-70.835006
 21
172.91253
  0
LINE
  8
0
  6
CONTINUOUS
 62
     7
 10
-70.834999
 20
172.91252
 11
-67.834999
 21
172.91252
  0
LINE
  8
0
  6
CONTINUOUS
 62
     7
 10
-70.084999
 20
172.16252
 11
-68.584999
 21
172.16252
  0
LINE
  8
0
  6
CONTINUOUS
 62
     7
 10
-68.584995
 20
172.16253
 11
-67.834996
 21
172.91252
  0
LINE
  8
0
  6
CONTINUOUS
 62
     7
 10
-68.584999
 20
172.16252
 11
-68.584999
 21
170.66252
  0
LINE
  8
0
  6
CONTINUOUS
 62
     7
 10
-67.834999
 20
172.91252
 11
-67.834999
 21
171.76804
  0
LINE
  8
0
  6
CONTINUOUS
 62
     7
 10
-68.68564
 20
170.76316
 11
-68.584991
 21
170.66252
  0
LINE
  8
0
  6
CONTINUOUS
 62
     7
 10
-70.084999
 20
170.66252
 11
-70.835
 21
169.91252
  0
LINE
  8
0
  6
CONTINUOUS
 62
     7
 10
-70.834999
 20
184.91252
 11
-67.834999
 21
184.91252
  0
LINE
  8
0
  6
CONTINUOUS
 62
     7
 10
-70.084999
 20
184.16252
 11
-68.584999
 21
184.16252
  0
LINE
  8
0
  6
CONTINUOUS
 62
     7
 10
-70.084999
 20
182.66252
 11
-70.084999
 21
184.16252
  0
LINE
  8
0
  6
CONTINUOUS
 62
     7
 10
-70.834999
 20
181.91252
 11
-70.834999
 21
184.91252
  0
LINE
  8
0
  6
CONTINUOUS
 62
     7
 10
-70.084991
 20
182.66251
 11
-70.834992
 21
181.91251
  0
LINE
  8
0
  6
CONTINUOUS
 62
     7
 10
-70.834999
 20
181.91252
 11
-67.834999
 21
181.91252
  0
LINE
  8
0
  6
CONTINUOUS
 62
     7
 10
-70.084999
 20
182.66252
 11
-68.584999
 21
182.66252
  0
LINE
  8
0
  6
CONTINUOUS
 62
     7
 10
-68.584999
 20
182.66252
 11
-67.834995
 21
181.91252
  0
LINE
  8
0
  6
CONTINUOUS
 62
     7
 10
-68.584999
 20
182.66252
 11
-68.584999
 21
184.16252
  0
LINE
  8
0
  6
CONTINUOUS
 62
     7
 10
-67.834999
 20
181.91252
 11
-67.834999
 21
184.91252
  0
LINE
  8
0
  6
CONTINUOUS
 62
     7
 10
-68.584999
 20
184.16253
 11
-67.834997
 21
184.91253
  0
LINE
  8
0
  6
CONTINUOUS
 62
     7
 10
-70.085004
 20
184.16253
 11
-70.835003
 21
184.91252
  0
LINE
  8
0
  6
CONTINUOUS
 62
     7
 10
-70.834999
 20
200.91252
 11
-67.834999
 21
200.91252
  0
LINE
  8
0
  6
CONTINUOUS
 62
     7
 10
-70.084999
 20
200.16252
 11
-68.584999
 21
200.16252
  0
LINE
  8
0
  6
CONTINUOUS
 62
     7
 10
-70.084999
 20
198.66252
 11
-70.084999
 21
200.16252
  0
LINE
  8
0
  6
CONTINUOUS
 62
     7
 10
-70.834999
 20
197.91252
 11
-70.834999
 21
200.91252
  0
LINE
  8
0
  6
CONTINUOUS
 62
     7
 10
-70.084991
 20
198.66252
 11
-70.834992
 21
197.91252
  0
LINE
  8
0
  6
CONTINUOUS
 62
     7
 10
-70.834999
 20
197.91252
 11
-67.834999
 21
197.91252
  0
LINE
  8
0
  6
CONTINUOUS
 62
     7
 10
-70.084999
 20
198.66252
 11
-68.584999
 21
198.66252
  0
LINE
  8
0
  6
CONTINUOUS
 62
     7
 10
-68.585001
 20
198.66252
 11
-67.835003
 21
197.91253
  0
LINE
  8
0
  6
CONTINUOUS
 62
     7
 10
-68.584999
 20
198.66252
 11
-68.584999
 21
200.16252
  0
LINE
  8
0
  6
CONTINUOUS
 62
     7
 10
-67.834999
 20
197.91252
 11
-67.834999
 21
200.91252
  0
LINE
  8
0
  6
CONTINUOUS
 62
     7
 10
-68.584993
 20
200.16252
 11
-67.834993
 21
200.91252
  0
LINE
  8
0
  6
CONTINUOUS
 62
     7
 10
-70.085003
 20
200.16252
 11
-70.834996
 21
200.91252
  0
LINE
  8
0
  6
CONTINUOUS
 62
     7
 10
-70.834999
 20
204.91252
 11
-69.48143
 21
204.91252
  0
LINE
  8
0
  6
CONTINUOUS
 62
     7
 10
-70.084999
 20
204.16252
 11
-68.77597
 21
204.16252
  0
LINE
  8
0
  6
CONTINUOUS
 62
     7
 10
-70.084999
 20
202.66252
 11
-70.084999
 21
204.16252
  0
LINE
  8
0
  6
CONTINUOUS
 62
     7
 10
-70.834999
 20
201.91252
 11
-70.834999
 21
204.91252
  0
LINE
  8
0
  6
CONTINUOUS
 62
     7
 10
-70.084993
 20
202.66252
 11
-70.834995
 21
201.91252
  0
LINE
  8
0
  6
CONTINUOUS
 62
     7
 10
-70.834999
 20
201.91252
 11
-67.834999
 21
201.91252
  0
LINE
  8
0
  6
CONTINUOUS
 62
     7
 10
-70.084999
 20
202.66252
 11
-68.584999
 21
202.66252
  0
LINE
  8
0
  6
CONTINUOUS
 62
     7
 10
-68.585006
 20
202.66253
 11
-67.835001
 21
201.91252
  0
LINE
  8
0
  6
CONTINUOUS
 62
     7
 10
-68.584999
 20
202.66252
 11
-68.584999
 21
203.94847
  0
LINE
  8
0
  6
CONTINUOUS
 62
     7
 10
-67.834999
 20
201.91252
 11
-67.834999
 21
203.05701
  0
LINE
  8
0
  6
CONTINUOUS
 62
     7
 10
-70.084998
 20
204.16253
 11
-70.834996
 21
204.91252
  0
LINE
  8
0
  6
CONTINUOUS
 62
     7
 10
-70.834999
 20
205.91252
 11
-70.834999
 21
206.19417
  0
LINE
  8
0
  6
CONTINUOUS
 62
     7
 10
-70.685645
 20
206.06188
 11
-70.835008
 21
205.91252
  0
LINE
  8
0
  6
CONTINUOUS
 62
     7
 10
-70.834999
 20
205.91252
 11
-70.519829
 21
205.91252
  0
LINE
  8
0
  6
CONTINUOUS
 62
     7
 10
-70.084999
 20
194.66252
 11
-68.584999
 21
194.66252
  0
LINE
  8
0
  6
CONTINUOUS
 62
     7
 10
-70.084999
 20
194.66252
 11
-70.084999
 21
196.16252
  0
LINE
  8
0
  6
CONTINUOUS
 62
     7
 10
-70.085005
 20
194.66252
 11
-70.835003
 21
193.91253
  0
LINE
  8
0
  6
CONTINUOUS
 62
     7
 10
-70.834999
 20
193.91252
 11
-70.834999
 21
196.91252
  0
LINE
  8
0
  6
CONTINUOUS
 62
     7
 10
-70.834999
 20
193.91252
 11
-67.834999
 21
193.91252
  0
LINE
  8
0
  6
CONTINUOUS
 62
     7
 10
-68.585005
 20
194.66252
 11
-67.835001
 21
193.91251
  0
LINE
  8
0
  6
CONTINUOUS
 62
     7
 10
-68.584999
 20
194.66252
 11
-68.584999
 21
196.16252
  0
LINE
  8
0
  6
CONTINUOUS
 62
     7
 10
-70.084999
 20
196.16252
 11
-68.584999
 21
196.16252
  0
LINE
  8
0
  6
CONTINUOUS
 62
     7
 10
-68.584997
 20
196.16252
 11
-67.834995
 21
196.91253
  0
LINE
  8
0
  6
CONTINUOUS
 62
     7
 10
-70.085004
 20
196.16252
 11
-70.834991
 21
196.91251
  0
LINE
  8
0
  6
CONTINUOUS
 62
     7
 10
-70.834999
 20
196.91252
 11
-67.834999
 21
196.91252
  0
LINE
  8
0
  6
CONTINUOUS
 62
     7
 10
-67.834999
 20
193.91252
 11
-67.834999
 21
196.91252
  0
LINE
  8
0
  6
CONTINUOUS
 62
     7
 10
-70.084999
 20
190.66252
 11
-68.584999
 21
190.66252
  0
LINE
  8
0
  6
CONTINUOUS
 62
     7
 10
-70.084999
 20
190.66252
 11
-70.084999
 21
192.16252
  0
LINE
  8
0
  6
CONTINUOUS
 62
     7
 10
-70.085001
 20
190.66253
 11
-70.835003
 21
189.91253
  0
LINE
  8
0
  6
CONTINUOUS
 62
     7
 10
-70.834999
 20
189.91252
 11
-70.834999
 21
192.91252
  0
LINE
  8
0
  6
CONTINUOUS
 62
     7
 10
-70.834999
 20
189.91252
 11
-67.834999
 21
189.91252
  0
LINE
  8
0
  6
CONTINUOUS
 62
     7
 10
-68.584995
 20
190.66252
 11
-67.835002
 21
189.91252
  0
LINE
  8
0
  6
CONTINUOUS
 62
     7
 10
-68.584999
 20
190.66252
 11
-68.584999
 21
192.16252
  0
LINE
  8
0
  6
CONTINUOUS
 62
     7
 10
-70.084999
 20
192.16252
 11
-68.584999
 21
192.16252
  0
LINE
  8
0
  6
CONTINUOUS
 62
     7
 10
-68.584995
 20
192.16253
 11
-67.835002
 21
192.91252
  0
LINE
  8
0
  6
CONTINUOUS
 62
     7
 10
-70.084997
 20
192.16252
 11
-70.835001
 21
192.91253
  0
LINE
  8
0
  6
CONTINUOUS
 62
     7
 10
-70.834999
 20
192.91252
 11
-67.834999
 21
192.91252
  0
LINE
  8
0
  6
CONTINUOUS
 62
     7
 10
-67.834999
 20
189.91252
 11
-67.834999
 21
192.91252
  0
LINE
  8
0
  6
CONTINUOUS
 62
     7
 10
-70.084999
 20
186.66252
 11
-68.584999
 21
186.66252
  0
LINE
  8
0
  6
CONTINUOUS
 62
     7
 10
-70.084999
 20
186.66252
 11
-70.084999
 21
188.16252
  0
LINE
  8
0
  6
CONTINUOUS
 62
     7
 10
-70.085004
 20
186.66252
 11
-70.835005
 21
185.91252
  0
LINE
  8
0
  6
CONTINUOUS
 62
     7
 10
-70.834999
 20
185.91252
 11
-70.834999
 21
188.91252
  0
LINE
  8
0
  6
CONTINUOUS
 62
     7
 10
-70.834999
 20
185.91252
 11
-67.834999
 21
185.91252
  0
LINE
  8
0
  6
CONTINUOUS
 62
     7
 10
-68.58501
 20
186.66253
 11
-67.835006
 21
185.91252
  0
LINE
  8
0
  6
CONTINUOUS
 62
     7
 10
-68.584999
 20
186.66252
 11
-68.584999
 21
188.16252
  0
LINE
  8
0
  6
CONTINUOUS
 62
     7
 10
-70.084999
 20
188.16252
 11
-68.584999
 21
188.16252
  0
LINE
  8
0
  6
CONTINUOUS
 62
     7
 10
-68.585001
 20
188.16252
 11
-67.835
 21
188.91252
  0
LINE
  8
0
  6
CONTINUOUS
 62
     7
 10
-70.084993
 20
188.16252
 11
-70.835002
 21
188.91252
  0
LINE
  8
0
  6
CONTINUOUS
 62
     7
 10
-70.834999
 20
188.91252
 11
-67.834999
 21
188.91252
  0
LINE
  8
0
  6
CONTINUOUS
 62
     7
 10
-67.834999
 20
185.91252
 11
-67.834999
 21
188.91252
  0
LINE
  8
0
  6
CONTINUOUS
 62
     7
 10
-66.834999
 20
177.91252
 11
-64.210335
 21
177.91252
  0
LINE
  8
0
  6
CONTINUOUS
 62
     7
 10
-66.084999
 20
178.66252
 11
-64.584999
 21
178.66252
  0
LINE
  8
0
  6
CONTINUOUS
 62
     7
 10
-66.084999
 20
180.16252
 11
-66.084999
 21
178.66252
  0
LINE
  8
0
  6
CONTINUOUS
 62
     7
 10
-66.834999
 20
180.91252
 11
-66.834999
 21
177.91252
  0
LINE
  8
0
  6
CONTINUOUS
 62
     7
 10
-66.08499
 20
180.16252
 11
-66.834993
 21
180.91253
  0
LINE
  8
0
  6
CONTINUOUS
 62
     7
 10
-66.834999
 20
180.91252
 11
-63.834999
 21
180.91252
  0
LINE
  8
0
  6
CONTINUOUS
 62
     7
 10
-66.084999
 20
180.16252
 11
-64.584999
 21
180.16252
  0
LINE
  8
0
  6
CONTINUOUS
 62
     7
 10
-64.584997
 20
180.16252
 11
-63.834996
 21
180.91252
  0
LINE
  8
0
  6
CONTINUOUS
 62
     7
 10
-64.584999
 20
180.16252
 11
-64.584999
 21
178.66252
  0
LINE
  8
0
  6
CONTINUOUS
 62
     7
 10
-63.834999
 20
180.91252
 11
-63.834999
 21
178.88316
  0
LINE
  8
0
  6
CONTINUOUS
 62
     7
 10
-64.584991
 20
178.66251
 11
-64.102317
 21
178.17984
  0
LINE
  8
0
  6
CONTINUOUS
 62
     7
 10
-66.085005
 20
178.66253
 11
-66.835006
 21
177.91253
  0
LINE
  8
0
  6
CONTINUOUS
 62
     7
 10
-66.834999
 20
173.91252
 11
-66.293373
 21
173.91252
  0
LINE
  8
0
  6
CONTINUOUS
 62
     7
 10
-66.084999
 20
174.66252
 11
-65.830643
 21
174.66252
  0
LINE
  8
0
  6
CONTINUOUS
 62
     7
 10
-66.084999
 20
176.16252
 11
-66.084999
 21
174.66252
  0
LINE
  8
0
  6
CONTINUOUS
 62
     7
 10
-66.834999
 20
176.91252
 11
-66.834999
 21
173.91252
  0
LINE
  8
0
  6
CONTINUOUS
 62
     7
 10
-66.085003
 20
176.16252
 11
-66.835007
 21
176.91253
  0
LINE
  8
0
  6
CONTINUOUS
 62
     7
 10
-66.834999
 20
176.91252
 11
-64.646896
 21
176.91252
  0
LINE
  8
0
  6
CONTINUOUS
 62
     7
 10
-66.084999
 20
176.16252
 11
-65.009285
 21
176.16252
  0
LINE
  8
0
  6
CONTINUOUS
 62
     7
 10
-66.084997
 20
174.66252
 11
-66.834998
 21
173.91252
  0
LINE
  8
0
  6
CONTINUOUS
 62
     7
 10
-66.834999
 20
184.91252
 11
-63.834999
 21
184.91252
  0
LINE
  8
0
  6
CONTINUOUS
 62
     7
 10
-66.084999
 20
184.16252
 11
-64.584999
 21
184.16252
  0
LINE
  8
0
  6
CONTINUOUS
 62
     7
 10
-66.084999
 20
182.66252
 11
-66.084999
 21
184.16252
  0
LINE
  8
0
  6
CONTINUOUS
 62
     7
 10
-66.834999
 20
181.91252
 11
-66.834999
 21
184.91252
  0
LINE
  8
0
  6
CONTINUOUS
 62
     7
 10
-66.084994
 20
182.66252
 11
-66.834996
 21
181.91251
  0
LINE
  8
0
  6
CONTINUOUS
 62
     7
 10
-66.834999
 20
181.91252
 11
-63.834999
 21
181.91252
  0
LINE
  8
0
  6
CONTINUOUS
 62
     7
 10
-66.084999
 20
182.66252
 11
-64.584999
 21
182.66252
  0
LINE
  8
0
  6
CONTINUOUS
 62
     7
 10
-64.584998
 20
182.66252
 11
-63.834999
 21
181.91253
  0
LINE
  8
0
  6
CONTINUOUS
 62
     7
 10
-64.584999
 20
182.66252
 11
-64.584999
 21
184.16252
  0
LINE
  8
0
  6
CONTINUOUS
 62
     7
 10
-63.834999
 20
181.91252
 11
-63.834999
 21
184.91252
  0
LINE
  8
0
  6
CONTINUOUS
 62
     7
 10
-64.584994
 20
184.16252
 11
-63.834994
 21
184.91252
  0
LINE
  8
0
  6
CONTINUOUS
 62
     7
 10
-66.084998
 20
184.16251
 11
-66.835002
 21
184.91252
  0
LINE
  8
0
  6
CONTINUOUS
 62
     7
 10
-66.834999
 20
200.91252
 11
-66.293373
 21
200.91252
  0
LINE
  8
0
  6
CONTINUOUS
 62
     7
 10
-66.084999
 20
200.16252
 11
-65.830643
 21
200.16252
  0
LINE
  8
0
  6
CONTINUOUS
 62
     7
 10
-66.084999
 20
198.66252
 11
-66.084999
 21
200.16252
  0
LINE
  8
0
  6
CONTINUOUS
 62
     7
 10
-66.834999
 20
197.91252
 11
-66.834999
 21
200.91252
  0
LINE
  8
0
  6
CONTINUOUS
 62
     7
 10
-66.084997
 20
198.66253
 11
-66.834998
 21
197.91253
  0
LINE
  8
0
  6
CONTINUOUS
 62
     7
 10
-66.834999
 20
197.91252
 11
-64.646896
 21
197.91252
  0
LINE
  8
0
  6
CONTINUOUS
 62
     7
 10
-66.084999
 20
198.66252
 11
-65.009285
 21
198.66252
  0
LINE
  8
0
  6
CONTINUOUS
 62
     7
 10
-66.085004
 20
200.16252
 11
-66.834997
 21
200.91252
  0
LINE
  8
0
  6
CONTINUOUS
 62
     7
 10
-66.084999
 20
194.66252
 11
-64.584999
 21
194.66252
  0
LINE
  8
0
  6
CONTINUOUS
 62
     7
 10
-66.084999
 20
194.66252
 11
-66.084999
 21
196.16252
  0
LINE
  8
0
  6
CONTINUOUS
 62
     7
 10
-66.085
 20
194.66252
 11
-66.835001
 21
193.91252
  0
LINE
  8
0
  6
CONTINUOUS
 62
     7
 10
-66.834999
 20
193.91252
 11
-66.834999
 21
196.91252
  0
LINE
  8
0
  6
CONTINUOUS
 62
     7
 10
-66.834999
 20
193.91252
 11
-63.834999
 21
193.91252
  0
LINE
  8
0
  6
CONTINUOUS
 62
     7
 10
-64.584994
 20
194.66252
 11
-63.835001
 21
193.91252
  0
LINE
  8
0
  6
CONTINUOUS
 62
     7
 10
-64.584999
 20
194.66252
 11
-64.584999
 21
196.16252
  0
LINE
  8
0
  6
CONTINUOUS
 62
     7
 10
-66.084999
 20
196.16252
 11
-64.584999
 21
196.16252
  0
LINE
  8
0
  6
CONTINUOUS
 62
     7
 10
-64.585003
 20
196.16253
 11
-64.102323
 21
196.64521
  0
LINE
  8
0
  6
CONTINUOUS
 62
     7
 10
-66.084999
 20
196.16252
 11
-66.835003
 21
196.91252
  0
LINE
  8
0
  6
CONTINUOUS
 62
     7
 10
-66.834999
 20
196.91252
 11
-64.210335
 21
196.91252
  0
LINE
  8
0
  6
CONTINUOUS
 62
     7
 10
-63.834999
 20
193.91252
 11
-63.834999
 21
195.94188
  0
LINE
  8
0
  6
CONTINUOUS
 62
     7
 10
-66.084999
 20
190.66252
 11
-64.584999
 21
190.66252
  0
LINE
  8
0
  6
CONTINUOUS
 62
     7
 10
-66.084999
 20
190.66252
 11
-66.084999
 21
192.16252
  0
LINE
  8
0
  6
CONTINUOUS
 62
     7
 10
-66.085001
 20
190.66253
 11
-66.834999
 21
189.91252
  0
LINE
  8
0
  6
CONTINUOUS
 62
     7
 10
-66.834999
 20
189.91252
 11
-66.834999
 21
192.91252
  0
LINE
  8
0
  6
CONTINUOUS
 62
     7
 10
-66.834999
 20
189.91252
 11
-63.834999
 21
189.91252
  0
LINE
  8
0
  6
CONTINUOUS
 62
     7
 10
-64.585003
 20
190.66251
 11
-63.835004
 21
189.91252
  0
LINE
  8
0
  6
CONTINUOUS
 62
     7
 10
-64.584999
 20
190.66252
 11
-64.584999
 21
192.16252
  0
LINE
  8
0
  6
CONTINUOUS
 62
     7
 10
-66.084999
 20
192.16252
 11
-64.584999
 21
192.16252
  0
LINE
  8
0
  6
CONTINUOUS
 62
     7
 10
-64.585
 20
192.16252
 11
-63.834998
 21
192.91252
  0
LINE
  8
0
  6
CONTINUOUS
 62
     7
 10
-66.084993
 20
192.16251
 11
-66.835008
 21
192.91253
  0
LINE
  8
0
  6
CONTINUOUS
 62
     7
 10
-66.834999
 20
192.91252
 11
-63.834999
 21
192.91252
  0
LINE
  8
0
  6
CONTINUOUS
 62
     7
 10
-63.834999
 20
189.91252
 11
-63.834999
 21
192.91252
  0
LINE
  8
0
  6
CONTINUOUS
 62
     7
 10
-66.084999
 20
186.66252
 11
-64.584999
 21
186.66252
  0
LINE
  8
0
  6
CONTINUOUS
 62
     7
 10
-66.084999
 20
186.66252
 11
-66.084999
 21
188.16252
  0
LINE
  8
0
  6
CONTINUOUS
 62
     7
 10
-66.085
 20
186.66252
 11
-66.835001
 21
185.91252
  0
LINE
  8
0
  6
CONTINUOUS
 62
     7
 10
-66.834999
 20
185.91252
 11
-66.834999
 21
188.91252
  0
LINE
  8
0
  6
CONTINUOUS
 62
     7
 10
-66.834999
 20
185.91252
 11
-63.834999
 21
185.91252
  0
LINE
  8
0
  6
CONTINUOUS
 62
     7
 10
-64.585001
 20
186.66252
 11
-63.834996
 21
185.91252
  0
LINE
  8
0
  6
CONTINUOUS
 62
     7
 10
-64.584999
 20
186.66252
 11
-64.584999
 21
188.16252
  0
LINE
  8
0
  6
CONTINUOUS
 62
     7
 10
-66.084999
 20
188.16252
 11
-64.584999
 21
188.16252
  0
LINE
  8
0
  6
CONTINUOUS
 62
     7
 10
-64.584995
 20
188.16252
 11
-63.835002
 21
188.91252
  0
LINE
  8
0
  6
CONTINUOUS
 62
     7
 10
-66.084994
 20
188.16253
 11
-66.834993
 21
188.91252
  0
LINE
  8
0
  6
CONTINUOUS
 62
     7
 10
-66.834999
 20
188.91252
 11
-63.834999
 21
188.91252
  0
LINE
  8
0
  6
CONTINUOUS
 62
     7
 10
-63.834999
 20
185.91252
 11
-63.834999
 21
188.91252
  0
LINE
  8
0
  6
CENTER
 62
     7
 10
-59.794998
 20
187.41252
 11
-114.875
 21
187.41252
  0
LINE
  8
0
  6
CENTER
 62
     7
 10
-87.334999
 20
214.95251
 11
-87.334999
 21
159.87253
  0
LINE
  8
0
  6
CONTINUOUS
 62
     7
 10
-91.898688
 20
119.14
 11
-91.335002
 21
119.70369
  0
LINE
  8
0
  6
CONTINUOUS
 62
     7
 10
-94.143744
 20
119.14
 11
-91.334996
 21
121.94875
  0
LINE
  8
0
  6
CONTINUOUS
 62
     7
 10
-96.388807
 20
119.14
 11
-91.588815
 21
123.94
  0
LINE
  8
0
  6
CONTINUOUS
 62
     7
 10
-98.633865
 20
119.14
 11
-93.833871
 21
123.94
  0
LINE
  8
0
  6
CONTINUOUS
 62
     7
 10
-100.87894
 20
119.14
 11
-96.078944
 21
123.94
  0
LINE
  8
0
  6
CONTINUOUS
 62
     7
 10
-103.12399
 20
119.14
 11
-98.324005
 21
123.94
  0
LINE
  8
0
  6
CONTINUOUS
 62
     7
 10
-105.36906
 20
119.14
 11
-100.56906
 21
123.94
  0
LINE
  8
0
  6
CONTINUOUS
 62
     7
 10
-107.61412
 20
119.14
 11
-102.81412
 21
123.94
  0
LINE
  8
0
  6
CONTINUOUS
 62
     7
 10
-109.85918
 20
119.14
 11
-105.05919
 21
123.94
  0
LINE
  8
0
  6
CONTINUOUS
 62
     7
 10
-112.10424
 20
119.13999
 11
-107.30425
 21
123.93999
  0
LINE
  8
0
  6
CONTINUOUS
 62
     7
 10
-112.335
 20
121.15431
 11
-109.54931
 21
123.94
  0
LINE
  8
0
  6
CONTINUOUS
 62
     7
 10
-112.335
 20
123.39937
 11
-111.79437
 21
123.94
  0
LINE
  8
0
  6
CONTINUOUS
 62
     7
 10
-62.712887
 20
119.14
 11
-62.335004
 21
119.51788
  0
LINE
  8
0
  6
CONTINUOUS
 62
     7
 10
-64.957944
 20
119.14
 11
-62.334999
 21
121.76295
  0
LINE
  8
0
  6
CONTINUOUS
 62
     7
 10
-67.203003
 20
119.13999
 11
-62.403007
 21
123.94
  0
LINE
  8
0
  6
CONTINUOUS
 62
     7
 10
-69.448071
 20
119.14001
 11
-64.648078
 21
123.94001
  0
LINE
  8
0
  6
CONTINUOUS
 62
     7
 10
-71.693129
 20
119.14
 11
-66.893136
 21
123.94
  0
LINE
  8
0
  6
CONTINUOUS
 62
     7
 10
-73.938186
 20
119.13999
 11
-69.138192
 21
123.93999
  0
LINE
  8
0
  6
CONTINUOUS
 62
     7
 10
-76.183255
 20
119.14
 11
-71.383261
 21
123.94
  0
LINE
  8
0
  6
CONTINUOUS
 62
     7
 10
-78.428313
 20
119.14
 11
-73.628319
 21
123.94
  0
LINE
  8
0
  6
CONTINUOUS
 62
     7
 10
-80.673371
 20
119.14
 11
-75.873377
 21
123.94
  0
LINE
  8
0
  6
CONTINUOUS
 62
     7
 10
-82.918439
 20
119.14
 11
-78.118446
 21
123.94
  0
LINE
  8
0
  6
CONTINUOUS
 62
     7
 10
-83.334997
 20
120.9685
 11
-80.363505
 21
123.94
  0
LINE
  8
0
  6
CONTINUOUS
 62
     7
 10
-83.334999
 20
123.21357
 11
-82.608568
 21
123.94
  0
LINE
  8
0
  6
CONTINUOUS
 62
     7
 10
-177
 20
-0.19999981
 11
0
 21
-0.19999981
  0
LINE
  8
0
  6
CONTINUOUS
 62
     7
 10
-177
 20
274.29999
 11
-177
 21
-0.19999981
  0
LINE
  8
0
  6
CONTINUOUS
 62
     7
 10
-177
 20
-0.39999962
 11
-1.6000032
 21
-0.39999962
  0
LINE
  8
0
  6
CONTINUOUS
 62
     7
 10
0
 20
274.29999
 11
0
 21
0
  0
LINE
  8
0
  6
CONTINUOUS
 62
     7
 10
-0.20000005
 20
274.29999
 11
-0.20000005
 21
0
  0
LINE
  8
0
  6
CONTINUOUS
 62
     7
 10
-177
 20
274.29999
 11
0
 21
274.29999
  0
LINE
  8
0
  6
CONTINUOUS
 62
     7
 10
-177
 20
274.5
 11
0
 21
274.5
  0
LINE
  8
0
  6
CONTINUOUS
 62
     7
 10
-177.2
 20
274.29999
 11
-177.2
 21
-0.19999981
  0
LINE
  8
0
  6
CONTINUOUS
 62
     7
 10
-61.799999
 20
38.5
 11
-61.799999
 21
0
  0
LINE
  8
0
  6
CONTINUOUS
 62
     7
 10
-61.799999
 20
12.5
 11
0
 21
12.5
  0
LINE
  8
0
  6
CONTINUOUS
 62
     7
 10
-61.799999
 20
25
 11
0
 21
25
  0
LINE
  8
0
  6
CONTINUOUS
 62
     7
 10
-61.799999
 20
38.5
 11
0
 21
38.5
  0
CIRCLE
  8
0
  6
CONTINUOUS
 62
     7
 10
-87.334999
 20
187.41252
 40
25
  0
CIRCLE
  8
0
  6
CONTINUOUS
 62
     7
 10
-87.334999
 20
187.41252
 40
4
  0
CIRCLE
  8
0
  6
CONTINUOUS
 62
     7
 10
-87.334999
 20
187.41252
 40
2.0999999
  0
TEXT
  8
0
  6
CONTINUOUS
 62
     7
 10
-55.297177
 20
32.280149
 40
4.8000002
 41
0.84448342
  1
ミニシリンダー用当板
  0
TEXT
  8
0
  6
CONTINUOUS
 62
     7
 10
-50.299566
 20
25.956605
 40
4.8000002
 41
0.84556534
  1
丸型%%C５０（黒）
  0
TEXT
  8
0
  6
CONTINUOUS
 62
     7
 10
-45.005538
 20
15.779653
 40
4.8000002
 41
0.84741096
  1
ＣＰ－０１６
  0
TEXT
  8
0
  6
CONTINUOUS
 62
     7
 10
-44.709123
 20
3.6265907
 40
4.8000002
 41
0.84741096
  1
３７００７０
  0
ENDSEC
  0
EOF
