  0
SECTION
  2
HEADER
  9
$ACADVER
  1
AC1015
  9
$ACADMAINTVER
 70
     6
  9
$DWGCODEPAGE
  3
DOS932
  9
$INSBASE
 10
0.0
 20
0.0
 30
0.0
  9
$EXTMIN
 10
0.0
 20
0.0
 30
0.0
  9
$EXTMAX
 10
210.0
 20
297.0
 30
0.0
  9
$LIMMIN
 10
0.0
 20
0.0
  9
$LIMMAX
 10
210.0
 20
297.0
  9
$ORTHOMODE
 70
     0
  9
$REGENMODE
 70
     1
  9
$FILLMODE
 70
     1
  9
$QTEXTMODE
 70
     0
  9
$MIRRTEXT
 70
     1
  9
$LTSCALE
 40
1.0
  9
$ATTMODE
 70
     1
  9
$TEXTSIZE
 40
3.5
  9
$TRACEWID
 40
1.0
  9
$TEXTSTYLE
  7
Standard
  9
$CLAYER
  8
0
  9
$CELTYPE
  6
ByLayer
  9
$CECOLOR
 62
   256
  9
$CELTSCALE
 40
1.0
  9
$DISPSILH
 70
     0
  9
$DIMSCALE
 40
1.0
  9
$DIMASZ
 40
3.0
  9
$DIMEXO
 40
1.0
  9
$DIMDLI
 40
3.75
  9
$DIMRND
 40
0.0
  9
$DIMDLE
 40
0.0
  9
$DIMEXE
 40
1.0
  9
$DIMTP
 40
0.0
  9
$DIMTM
 40
0.0
  9
$DIMTXT
 40
3.5
  9
$DIMCEN
 40
2.5
  9
$DIMTSZ
 40
0.0
  9
$DIMTOL
 70
     0
  9
$DIMLIM
 70
     0
  9
$DIMTIH
 70
     1
  9
$DIMTOH
 70
     1
  9
$DIMSE1
 70
     0
  9
$DIMSE2
 70
     0
  9
$DIMTAD
 70
     1
  9
$DIMZIN
 70
     1
  9
$DIMBLK
  1

  9
$DIMASO
 70
     1
  9
$DIMSHO
 70
     1
  9
$DIMPOST
  1

  9
$DIMAPOST
  1

  9
$DIMALT
 70
     0
  9
$DIMALTD
 70
     3
  9
$DIMALTF
 40
0.0393700787
  9
$DIMLFAC
 40
1.0
  9
$DIMTOFL
 70
     1
  9
$DIMTVP
 40
0.0
  9
$DIMTIX
 70
     0
  9
$DIMSOXD
 70
     0
  9
$DIMSAH
 70
     0
  9
$DIMBLK1
  1

  9
$DIMBLK2
  1

  9
$DIMSTYLE
  2
ISO-25
  9
$DIMCLRD
 70
     0
  9
$DIMCLRE
 70
     0
  9
$DIMCLRT
 70
     0
  9
$DIMTFAC
 40
1.0
  9
$DIMGAP
 40
1.524
  9
$DIMJUST
 70
     0
  9
$DIMSD1
 70
     0
  9
$DIMSD2
 70
     0
  9
$DIMTOLJ
 70
     0
  9
$DIMTZIN
 70
     1
  9
$DIMALTZ
 70
     0
  9
$DIMALTTZ
 70
     0
  9
$DIMUPT
 70
     0
  9
$DIMDEC
 70
     4
  9
$DIMTDEC
 70
     4
  9
$DIMALTU
 70
     2
  9
$DIMALTTD
 70
     3
  9
$DIMTXSTY
  7
Standard
  9
$DIMAUNIT
 70
     0
  9
$DIMADEC
 70
     0
  9
$DIMALTRND
 40
0.0
  9
$DIMAZIN
 70
     0
  9
$DIMDSEP
 70
    44
  9
$DIMATFIT
 70
     3
  9
$DIMFRAC
 70
     0
  9
$DIMLDRBLK
  1

  9
$DIMLUNIT
 70
     2
  9
$DIMLWD
 70
    -2
  9
$DIMLWE
 70
    -2
  9
$DIMTMOVE
 70
     0
  9
$LUNITS
 70
     2
  9
$LUPREC
 70
     4
  9
$SKETCHINC
 40
1.0
  9
$FILLETRAD
 40
10.0
  9
$AUNITS
 70
     0
  9
$AUPREC
 70
     0
  9
$MENU
  1
.
  9
$ELEVATION
 40
0.0
  9
$PELEVATION
 40
0.0
  9
$THICKNESS
 40
0.0
  9
$LIMCHECK
 70
     0
  9
$CHAMFERA
 40
10.0
  9
$CHAMFERB
 40
10.0
  9
$CHAMFERC
 40
20.0
  9
$CHAMFERD
 40
0.0
  9
$SKPOLY
 70
     0
  9
$TDCREATE
 40
2456560.88701625
  9
$TDUCREATE
 40
2456560.51201625
  9
$TDUPDATE
 40
2456560.887019398
  9
$TDUUPDATE
 40
2456560.512019398
  9
$TDINDWG
 40
0.0000000116
  9
$TDUSRTIMER
 40
0.0000000116
  9
$USRTIMER
 70
     1
  9
$ANGBASE
 50
0.0
  9
$ANGDIR
 70
     0
  9
$PDMODE
 70
     0
  9
$PDSIZE
 40
-1.0
  9
$PLINEWID
 40
0.0
  9
$SPLFRAME
 70
     0
  9
$SPLINETYPE
 70
     6
  9
$SPLINESEGS
 70
     8
  9
$HANDSEED
  5
29D
  9
$SURFTAB1
 70
     6
  9
$SURFTAB2
 70
     6
  9
$SURFTYPE
 70
     6
  9
$SURFU
 70
     6
  9
$SURFV
 70
     6
  9
$UCSBASE
  2

  9
$UCSNAME
  2

  9
$UCSORG
 10
0.0
 20
0.0
 30
0.0
  9
$UCSXDIR
 10
1.0
 20
0.0
 30
0.0
  9
$UCSYDIR
 10
0.0
 20
1.0
 30
0.0
  9
$UCSORTHOREF
  2

  9
$UCSORTHOVIEW
 70
     0
  9
$UCSORGTOP
 10
0.0
 20
0.0
 30
0.0
  9
$UCSORGBOTTOM
 10
0.0
 20
0.0
 30
0.0
  9
$UCSORGLEFT
 10
0.0
 20
0.0
 30
0.0
  9
$UCSORGRIGHT
 10
0.0
 20
0.0
 30
0.0
  9
$UCSORGFRONT
 10
0.0
 20
0.0
 30
0.0
  9
$UCSORGBACK
 10
0.0
 20
0.0
 30
0.0
  9
$PUCSBASE
  2

  9
$PUCSNAME
  2

  9
$PUCSORG
 10
0.0
 20
0.0
 30
0.0
  9
$PUCSXDIR
 10
1.0
 20
0.0
 30
0.0
  9
$PUCSYDIR
 10
0.0
 20
1.0
 30
0.0
  9
$PUCSORTHOREF
  2

  9
$PUCSORTHOVIEW
 70
     0
  9
$PUCSORGTOP
 10
0.0
 20
0.0
 30
0.0
  9
$PUCSORGBOTTOM
 10
0.0
 20
0.0
 30
0.0
  9
$PUCSORGLEFT
 10
0.0
 20
0.0
 30
0.0
  9
$PUCSORGRIGHT
 10
0.0
 20
0.0
 30
0.0
  9
$PUCSORGFRONT
 10
0.0
 20
0.0
 30
0.0
  9
$PUCSORGBACK
 10
0.0
 20
0.0
 30
0.0
  9
$USERI1
 70
     0
  9
$USERI2
 70
     0
  9
$USERI3
 70
     0
  9
$USERI4
 70
     0
  9
$USERI5
 70
     0
  9
$USERR1
 40
0.0
  9
$USERR2
 40
0.0
  9
$USERR3
 40
0.0
  9
$USERR4
 40
0.0
  9
$USERR5
 40
0.0
  9
$WORLDVIEW
 70
     1
  9
$SHADEDGE
 70
     3
  9
$SHADEDIF
 70
    70
  9
$TILEMODE
 70
     1
  9
$MAXACTVP
 70
    64
  9
$PINSBASE
 10
0.0
 20
0.0
 30
0.0
  9
$PLIMCHECK
 70
     0
  9
$PEXTMIN
 10
1.0000000000E+20
 20
1.0000000000E+20
 30
1.0000000000E+20
  9
$PEXTMAX
 10
-1.0000000000E+20
 20
-1.0000000000E+20
 30
-1.0000000000E+20
  9
$PLIMMIN
 10
0.0
 20
0.0
  9
$PLIMMAX
 10
420.0
 20
297.0
  9
$UNITMODE
 70
     0
  9
$VISRETAIN
 70
     1
  9
$PLINEGEN
 70
     0
  9
$PSLTSCALE
 70
     1
  9
$TREEDEPTH
 70
  3020
  9
$CMLSTYLE
  2
Standard
  9
$CMLJUST
 70
     0
  9
$CMLSCALE
 40
20.0
  9
$PROXYGRAPHICS
 70
     1
  9
$MEASUREMENT
 70
     1
  9
$CELWEIGHT
370
    -1
  9
$ENDCAPS
280
     0
  9
$JOINSTYLE
280
     0
  9
$LWDISPLAY
290
     1
  9
$INSUNITS
 70
     4
  9
$HYPERLINKBASE
  1

  9
$STYLESHEET
  1

  9
$XEDIT
290
     1
  9
$CEPSNTYPE
380
     0
  9
$PSTYLEMODE
290
     1
  9
$FINGERPRINTGUID
  2
{B385FF2A-6788-4F2C-8352-DFDDAC34EDA2}
  9
$VERSIONGUID
  2
{FAEB1C32-E019-11D5-929B-00C0DF256EC4}
  9
$EXTNAMES
290
     1
  9
$PSVPSCALE
 40
0.0
  9
$OLESTARTUP
290
     0
  0
ENDSEC
  0
SECTION
  2
CLASSES
  0
CLASS
  1
ACDBDICTIONARYWDFLT
  2
AcDbDictionaryWithDefault
  3
ObjectDBX Classes
 90
        0
280
     0
281
     0
  0
CLASS
  1
VISUALSTYLE
  2
AcDbVisualStyle
  3
ObjectDBX Classes
 90
     4095
280
     0
281
     0
  0
CLASS
  1
MATERIAL
  2
AcDbMaterial
  3
ObjectDBX Classes
 90
     1153
280
     0
281
     0
  0
CLASS
  1
ACDBPLACEHOLDER
  2
AcDbPlaceHolder
  3
ObjectDBX Classes
 90
        0
280
     0
281
     0
  0
CLASS
  1
LAYOUT
  2
AcDbLayout
  3
ObjectDBX Classes
 90
        0
280
     0
281
     0
  0
ENDSEC
  0
SECTION
  2
TABLES
  0
TABLE
  2
VPORT
  5
8
330
0
100
AcDbSymbolTable
 70
     1
  0
VPORT
  5
29
330
8
100
AcDbSymbolTableRecord
100
AcDbViewportTableRecord
  2
*Active
 70
     0
 10
0.0
 20
0.0
 11
1.0
 21
1.0
 12
105.0
 22
148.5
 13
0.0
 23
0.0
 14
10.0
 24
10.0
 15
10.0
 25
10.0
 16
0.0
 26
0.0
 36
1.0
 17
0.0
 27
0.0
 37
0.0
 40
297.0
 41
0.7070707071
 42
50.0
 43
0.0
 44
0.0
 50
0.0
 51
0.0
 71
     0
 72
  2000
 73
     1
 74
     3
 75
     0
 76
     0
 77
     0
 78
     0
281
     0
 65
     1
110
0.0
120
0.0
130
0.0
111
1.0
121
0.0
131
0.0
112
0.0
122
1.0
132
0.0
 79
     0
146
0.0
  0
ENDTAB
  0
TABLE
  2
LTYPE
  5
5
330
0
100
AcDbSymbolTable
 70
     6
  0
LTYPE
  5
14
330
5
100
AcDbSymbolTableRecord
100
AcDbLinetypeTableRecord
  2
ByBlock
 70
     0
  3

 72
    65
 73
     0
 40
0.0
  0
LTYPE
  5
15
330
5
100
AcDbSymbolTableRecord
100
AcDbLinetypeTableRecord
  2
ByLayer
 70
     0
  3

 72
    65
 73
     0
 40
0.0
  0
LTYPE
  5
16
330
5
100
AcDbSymbolTableRecord
100
AcDbLinetypeTableRecord
  2
Continuous
 70
     0
  3
Solid line
 72
    65
 73
     0
 40
0.0
  0
LTYPE
  5
3F
330
5
100
AcDbSymbolTableRecord
100
AcDbLinetypeTableRecord
  2
HIDDEN
 70
     0
  3
Hidden __ __ __ __ __ __ __ __ __ __ __ __ __ __
 72
    65
 73
     2
 40
1.905
 49
1.27
 74
     0
 49
-0.635
 74
     0
  0
LTYPE
  5
40
330
5
100
AcDbSymbolTableRecord
100
AcDbLinetypeTableRecord
  2
PHANTOM
 70
     0
  3
Phantom ______  __  __  ______  __  __  ______
 72
    65
 73
     6
 40
12.7
 49
6.35
 74
     0
 49
-1.27
 74
     0
 49
1.27
 74
     0
 49
-1.27
 74
     0
 49
1.27
 74
     0
 49
-1.27
 74
     0
  0
LTYPE
  5
41
330
5
100
AcDbSymbolTableRecord
100
AcDbLinetypeTableRecord
  2
CENTER
 70
     0
  3
Center ____ _ ____ _ ____ _ ____ _ ____ _ ____
 72
    65
 73
     4
 40
10.16
 49
6.35
 74
     0
 49
-1.27
 74
     0
 49
1.27
 74
     0
 49
-1.27
 74
     0
  0
LTYPE
  5
42
330
5
100
AcDbSymbolTableRecord
100
AcDbLinetypeTableRecord
  2
CENTERX2
 70
     0
  3
Center (2x) ________  __  ________  __  _____
 72
    65
 73
     4
 40
20.32
 49
12.7
 74
     0
 49
-2.54
 74
     0
 49
2.54
 74
     0
 49
-2.54
 74
     0
  0
LTYPE
  5
43
330
5
100
AcDbSymbolTableRecord
100
AcDbLinetypeTableRecord
  2
DOT2
 70
     0
  3
Dot (.5x) ........................................
 72
    65
 73
     2
 40
0.635
 49
0.0
 74
     0
 49
-0.635
 74
     0
  0
ENDTAB
  0
TABLE
  2
LAYER
  5
2
330
0
100
AcDbSymbolTable
 70
   257
  0
LAYER
  5
10
330
2
100
AcDbSymbolTableRecord
100
AcDbLayerTableRecord
  2
0
 70
     0
 62
     7
  6
Continuous
370
    -3
390
F
  0
LAYER
  5
44
330
2
100
AcDbSymbolTableRecord
100
AcDbLayerTableRecord
  2
SLD-0_0
 70
     0
 62
   179
  6
Continuous
370
    -3
390
F
  0
LAYER
  5
45
330
2
100
AcDbSymbolTableRecord
100
AcDbLayerTableRecord
  2
SLD-0
 70
     0
 62
   179
  6
Continuous
370
    -3
390
F
  0
LAYER
  5
46
330
2
100
AcDbSymbolTableRecord
100
AcDbLayerTableRecord
  2
画層0
 70
     0
 62
   179
  6
Continuous
370
    -3
390
F
  0
LAYER
  5
47
330
2
100
AcDbSymbolTableRecord
100
AcDbLayerTableRecord
  2
画層1
 70
     0
 62
   179
  6
Continuous
370
    -3
390
F
  0
LAYER
  5
48
330
2
100
AcDbSymbolTableRecord
100
AcDbLayerTableRecord
  2
画層2
 70
     0
 62
     9
  6
Continuous
370
    -3
390
F
  0
LAYER
  5
49
330
2
100
AcDbSymbolTableRecord
100
AcDbLayerTableRecord
  2
画層3
 70
     0
 62
   179
  6
Continuous
370
    -3
390
F
  0
LAYER
  5
4A
330
2
100
AcDbSymbolTableRecord
100
AcDbLayerTableRecord
  2
画層4
 70
     0
 62
     6
  6
Continuous
370
    -3
390
F
  0
LAYER
  5
4B
330
2
100
AcDbSymbolTableRecord
100
AcDbLayerTableRecord
  2
画層5
 70
     0
 62
     1
  6
Continuous
370
    -3
390
F
  0
LAYER
  5
4C
330
2
100
AcDbSymbolTableRecord
100
AcDbLayerTableRecord
  2
画層6
 70
     0
 62
   179
  6
Continuous
370
    -3
390
F
  0
LAYER
  5
4D
330
2
100
AcDbSymbolTableRecord
100
AcDbLayerTableRecord
  2
画層7
 70
     0
 62
    51
  6
Continuous
370
    -3
390
F
  0
LAYER
  5
4E
330
2
100
AcDbSymbolTableRecord
100
AcDbLayerTableRecord
  2
画層8
 70
     0
 62
    61
  6
Continuous
370
    -3
390
F
  0
LAYER
  5
4F
330
2
100
AcDbSymbolTableRecord
100
AcDbLayerTableRecord
  2
画層9
 70
     0
 62
   111
  6
Continuous
370
    -3
390
F
  0
LAYER
  5
50
330
2
100
AcDbSymbolTableRecord
100
AcDbLayerTableRecord
  2
画層10
 70
     0
 62
    91
  6
Continuous
370
    -3
390
F
  0
LAYER
  5
51
330
2
100
AcDbSymbolTableRecord
100
AcDbLayerTableRecord
  2
画層11
 70
     0
 62
   131
  6
Continuous
370
    -3
390
F
  0
LAYER
  5
52
330
2
100
AcDbSymbolTableRecord
100
AcDbLayerTableRecord
  2
画層12
 70
     0
 62
   161
  6
Continuous
370
    -3
390
F
  0
LAYER
  5
53
330
2
100
AcDbSymbolTableRecord
100
AcDbLayerTableRecord
  2
画層13
 70
     0
 62
     5
  6
Continuous
370
    -3
390
F
  0
LAYER
  5
54
330
2
100
AcDbSymbolTableRecord
100
AcDbLayerTableRecord
  2
画層14
 70
     0
 62
   179
  6
Continuous
370
    -3
390
F
  0
LAYER
  5
55
330
2
100
AcDbSymbolTableRecord
100
AcDbLayerTableRecord
  2
画層15
 70
     0
 62
    11
  6
Continuous
370
    -3
390
F
  0
LAYER
  5
56
330
2
100
AcDbSymbolTableRecord
100
AcDbLayerTableRecord
  2
画層16
 70
     0
 62
   179
  6
Continuous
370
    -3
390
F
  0
LAYER
  5
57
330
2
100
AcDbSymbolTableRecord
100
AcDbLayerTableRecord
  2
画層17
 70
     0
 62
    70
  6
Continuous
370
    -3
390
F
  0
LAYER
  5
58
330
2
100
AcDbSymbolTableRecord
100
AcDbLayerTableRecord
  2
画層18
 70
     0
 62
   211
  6
Continuous
370
    -3
390
F
  0
LAYER
  5
59
330
2
100
AcDbSymbolTableRecord
100
AcDbLayerTableRecord
  2
画層19
 70
     0
 62
   137
  6
Continuous
370
    -3
390
F
  0
LAYER
  5
5A
330
2
100
AcDbSymbolTableRecord
100
AcDbLayerTableRecord
  2
画層20
 70
     0
 62
     4
  6
Continuous
370
    -3
390
F
  0
LAYER
  5
5B
330
2
100
AcDbSymbolTableRecord
100
AcDbLayerTableRecord
  2
画層21
 70
     0
 62
   131
  6
Continuous
370
    -3
390
F
  0
LAYER
  5
5C
330
2
100
AcDbSymbolTableRecord
100
AcDbLayerTableRecord
  2
画層22
 70
     0
 62
     4
  6
Continuous
370
    -3
390
F
  0
LAYER
  5
5D
330
2
100
AcDbSymbolTableRecord
100
AcDbLayerTableRecord
  2
画層23
 70
     0
 62
     4
  6
Continuous
370
    -3
390
F
  0
LAYER
  5
5E
330
2
100
AcDbSymbolTableRecord
100
AcDbLayerTableRecord
  2
画層24
 70
     0
 62
   179
  6
Continuous
370
    -3
390
F
  0
LAYER
  5
5F
330
2
100
AcDbSymbolTableRecord
100
AcDbLayerTableRecord
  2
画層25
 70
     0
 62
   179
  6
Continuous
370
    -3
390
F
  0
LAYER
  5
60
330
2
100
AcDbSymbolTableRecord
100
AcDbLayerTableRecord
  2
画層26
 70
     0
 62
   179
  6
Continuous
370
    -3
390
F
  0
LAYER
  5
61
330
2
100
AcDbSymbolTableRecord
100
AcDbLayerTableRecord
  2
画層27
 70
     0
 62
   179
  6
Continuous
370
    -3
390
F
  0
LAYER
  5
62
330
2
100
AcDbSymbolTableRecord
100
AcDbLayerTableRecord
  2
画層28
 70
     0
 62
   179
  6
Continuous
370
    -3
390
F
  0
LAYER
  5
63
330
2
100
AcDbSymbolTableRecord
100
AcDbLayerTableRecord
  2
画層29
 70
     0
 62
   179
  6
Continuous
370
    -3
390
F
  0
LAYER
  5
64
330
2
100
AcDbSymbolTableRecord
100
AcDbLayerTableRecord
  2
画層30
 70
     0
 62
   179
  6
Continuous
370
    -3
390
F
  0
LAYER
  5
65
330
2
100
AcDbSymbolTableRecord
100
AcDbLayerTableRecord
  2
画層31
 70
     0
 62
   179
  6
Continuous
370
    -3
390
F
  0
LAYER
  5
66
330
2
100
AcDbSymbolTableRecord
100
AcDbLayerTableRecord
  2
画層32
 70
     0
 62
   179
  6
Continuous
370
    -3
390
F
  0
LAYER
  5
67
330
2
100
AcDbSymbolTableRecord
100
AcDbLayerTableRecord
  2
画層33
 70
     0
 62
   179
  6
Continuous
370
    -3
390
F
  0
LAYER
  5
68
330
2
100
AcDbSymbolTableRecord
100
AcDbLayerTableRecord
  2
画層34
 70
     0
 62
   179
  6
Continuous
370
    -3
390
F
  0
LAYER
  5
69
330
2
100
AcDbSymbolTableRecord
100
AcDbLayerTableRecord
  2
画層35
 70
     0
 62
   179
  6
Continuous
370
    -3
390
F
  0
LAYER
  5
6A
330
2
100
AcDbSymbolTableRecord
100
AcDbLayerTableRecord
  2
画層36
 70
     0
 62
   179
  6
Continuous
370
    -3
390
F
  0
LAYER
  5
6B
330
2
100
AcDbSymbolTableRecord
100
AcDbLayerTableRecord
  2
画層37
 70
     0
 62
   179
  6
Continuous
370
    -3
390
F
  0
LAYER
  5
6C
330
2
100
AcDbSymbolTableRecord
100
AcDbLayerTableRecord
  2
画層38
 70
     0
 62
   179
  6
Continuous
370
    -3
390
F
  0
LAYER
  5
6D
330
2
100
AcDbSymbolTableRecord
100
AcDbLayerTableRecord
  2
画層39
 70
     0
 62
   179
  6
Continuous
370
    -3
390
F
  0
LAYER
  5
6E
330
2
100
AcDbSymbolTableRecord
100
AcDbLayerTableRecord
  2
画層40
 70
     0
 62
   179
  6
Continuous
370
    -3
390
F
  0
LAYER
  5
6F
330
2
100
AcDbSymbolTableRecord
100
AcDbLayerTableRecord
  2
画層41
 70
     0
 62
   179
  6
Continuous
370
    -3
390
F
  0
LAYER
  5
70
330
2
100
AcDbSymbolTableRecord
100
AcDbLayerTableRecord
  2
画層42
 70
     0
 62
   179
  6
Continuous
370
    -3
390
F
  0
LAYER
  5
71
330
2
100
AcDbSymbolTableRecord
100
AcDbLayerTableRecord
  2
画層43
 70
     0
 62
   179
  6
Continuous
370
    -3
390
F
  0
LAYER
  5
72
330
2
100
AcDbSymbolTableRecord
100
AcDbLayerTableRecord
  2
画層44
 70
     0
 62
   179
  6
Continuous
370
    -3
390
F
  0
LAYER
  5
73
330
2
100
AcDbSymbolTableRecord
100
AcDbLayerTableRecord
  2
画層45
 70
     0
 62
   179
  6
Continuous
370
    -3
390
F
  0
LAYER
  5
74
330
2
100
AcDbSymbolTableRecord
100
AcDbLayerTableRecord
  2
画層46
 70
     0
 62
   179
  6
Continuous
370
    -3
390
F
  0
LAYER
  5
75
330
2
100
AcDbSymbolTableRecord
100
AcDbLayerTableRecord
  2
画層47
 70
     0
 62
   179
  6
Continuous
370
    -3
390
F
  0
LAYER
  5
76
330
2
100
AcDbSymbolTableRecord
100
AcDbLayerTableRecord
  2
画層48
 70
     0
 62
   179
  6
Continuous
370
    -3
390
F
  0
LAYER
  5
77
330
2
100
AcDbSymbolTableRecord
100
AcDbLayerTableRecord
  2
画層49
 70
     0
 62
   179
  6
Continuous
370
    -3
390
F
  0
LAYER
  5
78
330
2
100
AcDbSymbolTableRecord
100
AcDbLayerTableRecord
  2
画層50
 70
     0
 62
   179
  6
Continuous
370
    -3
390
F
  0
LAYER
  5
79
330
2
100
AcDbSymbolTableRecord
100
AcDbLayerTableRecord
  2
画層51
 70
     0
 62
   179
  6
Continuous
370
    -3
390
F
  0
LAYER
  5
7A
330
2
100
AcDbSymbolTableRecord
100
AcDbLayerTableRecord
  2
画層52
 70
     0
 62
   179
  6
Continuous
370
    -3
390
F
  0
LAYER
  5
7B
330
2
100
AcDbSymbolTableRecord
100
AcDbLayerTableRecord
  2
画層53
 70
     0
 62
   179
  6
Continuous
370
    -3
390
F
  0
LAYER
  5
7C
330
2
100
AcDbSymbolTableRecord
100
AcDbLayerTableRecord
  2
画層54
 70
     0
 62
   179
  6
Continuous
370
    -3
390
F
  0
LAYER
  5
7D
330
2
100
AcDbSymbolTableRecord
100
AcDbLayerTableRecord
  2
画層55
 70
     0
 62
   179
  6
Continuous
370
    -3
390
F
  0
LAYER
  5
7E
330
2
100
AcDbSymbolTableRecord
100
AcDbLayerTableRecord
  2
画層56
 70
     0
 62
   179
  6
Continuous
370
    -3
390
F
  0
LAYER
  5
7F
330
2
100
AcDbSymbolTableRecord
100
AcDbLayerTableRecord
  2
画層57
 70
     0
 62
   179
  6
Continuous
370
    -3
390
F
  0
LAYER
  5
80
330
2
100
AcDbSymbolTableRecord
100
AcDbLayerTableRecord
  2
画層58
 70
     0
 62
   179
  6
Continuous
370
    -3
390
F
  0
LAYER
  5
81
330
2
100
AcDbSymbolTableRecord
100
AcDbLayerTableRecord
  2
画層59
 70
     0
 62
   179
  6
Continuous
370
    -3
390
F
  0
LAYER
  5
82
330
2
100
AcDbSymbolTableRecord
100
AcDbLayerTableRecord
  2
画層60
 70
     0
 62
   179
  6
Continuous
370
    -3
390
F
  0
LAYER
  5
83
330
2
100
AcDbSymbolTableRecord
100
AcDbLayerTableRecord
  2
画層61
 70
     0
 62
   179
  6
Continuous
370
    -3
390
F
  0
LAYER
  5
84
330
2
100
AcDbSymbolTableRecord
100
AcDbLayerTableRecord
  2
画層62
 70
     0
 62
   179
  6
Continuous
370
    -3
390
F
  0
LAYER
  5
85
330
2
100
AcDbSymbolTableRecord
100
AcDbLayerTableRecord
  2
画層63
 70
     0
 62
   179
  6
Continuous
370
    -3
390
F
  0
LAYER
  5
86
330
2
100
AcDbSymbolTableRecord
100
AcDbLayerTableRecord
  2
画層64
 70
     0
 62
   179
  6
Continuous
370
    -3
390
F
  0
LAYER
  5
87
330
2
100
AcDbSymbolTableRecord
100
AcDbLayerTableRecord
  2
画層65
 70
     0
 62
   179
  6
Continuous
370
    -3
390
F
  0
LAYER
  5
88
330
2
100
AcDbSymbolTableRecord
100
AcDbLayerTableRecord
  2
画層66
 70
     0
 62
   179
  6
Continuous
370
    -3
390
F
  0
LAYER
  5
89
330
2
100
AcDbSymbolTableRecord
100
AcDbLayerTableRecord
  2
画層67
 70
     0
 62
   179
  6
Continuous
370
    -3
390
F
  0
LAYER
  5
8A
330
2
100
AcDbSymbolTableRecord
100
AcDbLayerTableRecord
  2
画層68
 70
     0
 62
   179
  6
Continuous
370
    -3
390
F
  0
LAYER
  5
8B
330
2
100
AcDbSymbolTableRecord
100
AcDbLayerTableRecord
  2
画層69
 70
     0
 62
   179
  6
Continuous
370
    -3
390
F
  0
LAYER
  5
8C
330
2
100
AcDbSymbolTableRecord
100
AcDbLayerTableRecord
  2
画層70
 70
     0
 62
   179
  6
Continuous
370
    -3
390
F
  0
LAYER
  5
8D
330
2
100
AcDbSymbolTableRecord
100
AcDbLayerTableRecord
  2
画層71
 70
     0
 62
   179
  6
Continuous
370
    -3
390
F
  0
LAYER
  5
8E
330
2
100
AcDbSymbolTableRecord
100
AcDbLayerTableRecord
  2
画層72
 70
     0
 62
   179
  6
Continuous
370
    -3
390
F
  0
LAYER
  5
8F
330
2
100
AcDbSymbolTableRecord
100
AcDbLayerTableRecord
  2
画層73
 70
     0
 62
   179
  6
Continuous
370
    -3
390
F
  0
LAYER
  5
90
330
2
100
AcDbSymbolTableRecord
100
AcDbLayerTableRecord
  2
画層74
 70
     0
 62
   179
  6
Continuous
370
    -3
390
F
  0
LAYER
  5
91
330
2
100
AcDbSymbolTableRecord
100
AcDbLayerTableRecord
  2
画層75
 70
     0
 62
   179
  6
Continuous
370
    -3
390
F
  0
LAYER
  5
92
330
2
100
AcDbSymbolTableRecord
100
AcDbLayerTableRecord
  2
画層76
 70
     0
 62
   179
  6
Continuous
370
    -3
390
F
  0
LAYER
  5
93
330
2
100
AcDbSymbolTableRecord
100
AcDbLayerTableRecord
  2
画層77
 70
     0
 62
   179
  6
Continuous
370
    -3
390
F
  0
LAYER
  5
94
330
2
100
AcDbSymbolTableRecord
100
AcDbLayerTableRecord
  2
画層78
 70
     0
 62
   179
  6
Continuous
370
    -3
390
F
  0
LAYER
  5
95
330
2
100
AcDbSymbolTableRecord
100
AcDbLayerTableRecord
  2
画層79
 70
     0
 62
   179
  6
Continuous
370
    -3
390
F
  0
LAYER
  5
96
330
2
100
AcDbSymbolTableRecord
100
AcDbLayerTableRecord
  2
画層80
 70
     0
 62
   179
  6
Continuous
370
    -3
390
F
  0
LAYER
  5
97
330
2
100
AcDbSymbolTableRecord
100
AcDbLayerTableRecord
  2
画層81
 70
     0
 62
   179
  6
Continuous
370
    -3
390
F
  0
LAYER
  5
98
330
2
100
AcDbSymbolTableRecord
100
AcDbLayerTableRecord
  2
画層82
 70
     0
 62
   179
  6
Continuous
370
    -3
390
F
  0
LAYER
  5
99
330
2
100
AcDbSymbolTableRecord
100
AcDbLayerTableRecord
  2
画層83
 70
     0
 62
   179
  6
Continuous
370
    -3
390
F
  0
LAYER
  5
9A
330
2
100
AcDbSymbolTableRecord
100
AcDbLayerTableRecord
  2
画層84
 70
     0
 62
   179
  6
Continuous
370
    -3
390
F
  0
LAYER
  5
9B
330
2
100
AcDbSymbolTableRecord
100
AcDbLayerTableRecord
  2
画層85
 70
     0
 62
   179
  6
Continuous
370
    -3
390
F
  0
LAYER
  5
9C
330
2
100
AcDbSymbolTableRecord
100
AcDbLayerTableRecord
  2
画層86
 70
     0
 62
   179
  6
Continuous
370
    -3
390
F
  0
LAYER
  5
9D
330
2
100
AcDbSymbolTableRecord
100
AcDbLayerTableRecord
  2
画層87
 70
     0
 62
   179
  6
Continuous
370
    -3
390
F
  0
LAYER
  5
9E
330
2
100
AcDbSymbolTableRecord
100
AcDbLayerTableRecord
  2
画層88
 70
     0
 62
   179
  6
Continuous
370
    -3
390
F
  0
LAYER
  5
9F
330
2
100
AcDbSymbolTableRecord
100
AcDbLayerTableRecord
  2
画層89
 70
     0
 62
   179
  6
Continuous
370
    -3
390
F
  0
LAYER
  5
A0
330
2
100
AcDbSymbolTableRecord
100
AcDbLayerTableRecord
  2
画層90
 70
     0
 62
   179
  6
Continuous
370
    -3
390
F
  0
LAYER
  5
A1
330
2
100
AcDbSymbolTableRecord
100
AcDbLayerTableRecord
  2
画層91
 70
     0
 62
   179
  6
Continuous
370
    -3
390
F
  0
LAYER
  5
A2
330
2
100
AcDbSymbolTableRecord
100
AcDbLayerTableRecord
  2
画層92
 70
     0
 62
   179
  6
Continuous
370
    -3
390
F
  0
LAYER
  5
A3
330
2
100
AcDbSymbolTableRecord
100
AcDbLayerTableRecord
  2
画層93
 70
     0
 62
   179
  6
Continuous
370
    -3
390
F
  0
LAYER
  5
A4
330
2
100
AcDbSymbolTableRecord
100
AcDbLayerTableRecord
  2
画層94
 70
     0
 62
   179
  6
Continuous
370
    -3
390
F
  0
LAYER
  5
A5
330
2
100
AcDbSymbolTableRecord
100
AcDbLayerTableRecord
  2
画層95
 70
     0
 62
   179
  6
Continuous
370
    -3
390
F
  0
LAYER
  5
A6
330
2
100
AcDbSymbolTableRecord
100
AcDbLayerTableRecord
  2
画層96
 70
     0
 62
   179
  6
Continuous
370
    -3
390
F
  0
LAYER
  5
A7
330
2
100
AcDbSymbolTableRecord
100
AcDbLayerTableRecord
  2
画層97
 70
     0
 62
   179
  6
Continuous
370
    -3
390
F
  0
LAYER
  5
A8
330
2
100
AcDbSymbolTableRecord
100
AcDbLayerTableRecord
  2
画層98
 70
     0
 62
   179
  6
Continuous
370
    -3
390
F
  0
LAYER
  5
A9
330
2
100
AcDbSymbolTableRecord
100
AcDbLayerTableRecord
  2
画層99
 70
     0
 62
   179
  6
Continuous
370
    -3
390
F
  0
LAYER
  5
AA
330
2
100
AcDbSymbolTableRecord
100
AcDbLayerTableRecord
  2
画層100
 70
     0
 62
   179
  6
Continuous
370
    -3
390
F
  0
LAYER
  5
AB
330
2
100
AcDbSymbolTableRecord
100
AcDbLayerTableRecord
  2
画層101
 70
     0
 62
   179
  6
Continuous
370
    -3
390
F
  0
LAYER
  5
AC
330
2
100
AcDbSymbolTableRecord
100
AcDbLayerTableRecord
  2
画層102
 70
     0
 62
   179
  6
Continuous
370
    -3
390
F
  0
LAYER
  5
AD
330
2
100
AcDbSymbolTableRecord
100
AcDbLayerTableRecord
  2
画層103
 70
     0
 62
   179
  6
Continuous
370
    -3
390
F
  0
LAYER
  5
AE
330
2
100
AcDbSymbolTableRecord
100
AcDbLayerTableRecord
  2
画層104
 70
     0
 62
   179
  6
Continuous
370
    -3
390
F
  0
LAYER
  5
AF
330
2
100
AcDbSymbolTableRecord
100
AcDbLayerTableRecord
  2
画層105
 70
     0
 62
   179
  6
Continuous
370
    -3
390
F
  0
LAYER
  5
B0
330
2
100
AcDbSymbolTableRecord
100
AcDbLayerTableRecord
  2
画層106
 70
     0
 62
   179
  6
Continuous
370
    -3
390
F
  0
LAYER
  5
B1
330
2
100
AcDbSymbolTableRecord
100
AcDbLayerTableRecord
  2
画層107
 70
     0
 62
   179
  6
Continuous
370
    -3
390
F
  0
LAYER
  5
B2
330
2
100
AcDbSymbolTableRecord
100
AcDbLayerTableRecord
  2
画層108
 70
     0
 62
   179
  6
Continuous
370
    -3
390
F
  0
LAYER
  5
B3
330
2
100
AcDbSymbolTableRecord
100
AcDbLayerTableRecord
  2
画層109
 70
     0
 62
   179
  6
Continuous
370
    -3
390
F
  0
LAYER
  5
B4
330
2
100
AcDbSymbolTableRecord
100
AcDbLayerTableRecord
  2
画層110
 70
     0
 62
   179
  6
Continuous
370
    -3
390
F
  0
LAYER
  5
B5
330
2
100
AcDbSymbolTableRecord
100
AcDbLayerTableRecord
  2
画層111
 70
     0
 62
   179
  6
Continuous
370
    -3
390
F
  0
LAYER
  5
B6
330
2
100
AcDbSymbolTableRecord
100
AcDbLayerTableRecord
  2
画層112
 70
     0
 62
   179
  6
Continuous
370
    -3
390
F
  0
LAYER
  5
B7
330
2
100
AcDbSymbolTableRecord
100
AcDbLayerTableRecord
  2
画層113
 70
     0
 62
   179
  6
Continuous
370
    -3
390
F
  0
LAYER
  5
B8
330
2
100
AcDbSymbolTableRecord
100
AcDbLayerTableRecord
  2
画層114
 70
     0
 62
   179
  6
Continuous
370
    -3
390
F
  0
LAYER
  5
B9
330
2
100
AcDbSymbolTableRecord
100
AcDbLayerTableRecord
  2
画層115
 70
     0
 62
   179
  6
Continuous
370
    -3
390
F
  0
LAYER
  5
BA
330
2
100
AcDbSymbolTableRecord
100
AcDbLayerTableRecord
  2
画層116
 70
     0
 62
   179
  6
Continuous
370
    -3
390
F
  0
LAYER
  5
BB
330
2
100
AcDbSymbolTableRecord
100
AcDbLayerTableRecord
  2
画層117
 70
     0
 62
   179
  6
Continuous
370
    -3
390
F
  0
LAYER
  5
BC
330
2
100
AcDbSymbolTableRecord
100
AcDbLayerTableRecord
  2
画層118
 70
     0
 62
   179
  6
Continuous
370
    -3
390
F
  0
LAYER
  5
BD
330
2
100
AcDbSymbolTableRecord
100
AcDbLayerTableRecord
  2
画層119
 70
     0
 62
   179
  6
Continuous
370
    -3
390
F
  0
LAYER
  5
BE
330
2
100
AcDbSymbolTableRecord
100
AcDbLayerTableRecord
  2
画層120
 70
     0
 62
   179
  6
Continuous
370
    -3
390
F
  0
LAYER
  5
BF
330
2
100
AcDbSymbolTableRecord
100
AcDbLayerTableRecord
  2
画層121
 70
     0
 62
   179
  6
Continuous
370
    -3
390
F
  0
LAYER
  5
C0
330
2
100
AcDbSymbolTableRecord
100
AcDbLayerTableRecord
  2
画層122
 70
     0
 62
   179
  6
Continuous
370
    -3
390
F
  0
LAYER
  5
C1
330
2
100
AcDbSymbolTableRecord
100
AcDbLayerTableRecord
  2
画層123
 70
     0
 62
   179
  6
Continuous
370
    -3
390
F
  0
LAYER
  5
C2
330
2
100
AcDbSymbolTableRecord
100
AcDbLayerTableRecord
  2
画層124
 70
     0
 62
   179
  6
Continuous
370
    -3
390
F
  0
LAYER
  5
C3
330
2
100
AcDbSymbolTableRecord
100
AcDbLayerTableRecord
  2
画層125
 70
     0
 62
   179
  6
Continuous
370
    -3
390
F
  0
LAYER
  5
C4
330
2
100
AcDbSymbolTableRecord
100
AcDbLayerTableRecord
  2
画層126
 70
     0
 62
   179
  6
Continuous
370
    -3
390
F
  0
LAYER
  5
C5
330
2
100
AcDbSymbolTableRecord
100
AcDbLayerTableRecord
  2
画層127
 70
     0
 62
   179
  6
Continuous
370
    -3
390
F
  0
LAYER
  5
C6
330
2
100
AcDbSymbolTableRecord
100
AcDbLayerTableRecord
  2
画層128
 70
     0
 62
   179
  6
Continuous
370
    -3
390
F
  0
LAYER
  5
C7
330
2
100
AcDbSymbolTableRecord
100
AcDbLayerTableRecord
  2
画層129
 70
     0
 62
   179
  6
Continuous
370
    -3
390
F
  0
LAYER
  5
C8
330
2
100
AcDbSymbolTableRecord
100
AcDbLayerTableRecord
  2
画層130
 70
     0
 62
   179
  6
Continuous
370
    -3
390
F
  0
LAYER
  5
C9
330
2
100
AcDbSymbolTableRecord
100
AcDbLayerTableRecord
  2
画層131
 70
     0
 62
   179
  6
Continuous
370
    -3
390
F
  0
LAYER
  5
CA
330
2
100
AcDbSymbolTableRecord
100
AcDbLayerTableRecord
  2
画層132
 70
     0
 62
   179
  6
Continuous
370
    -3
390
F
  0
LAYER
  5
CB
330
2
100
AcDbSymbolTableRecord
100
AcDbLayerTableRecord
  2
画層133
 70
     0
 62
   179
  6
Continuous
370
    -3
390
F
  0
LAYER
  5
CC
330
2
100
AcDbSymbolTableRecord
100
AcDbLayerTableRecord
  2
画層134
 70
     0
 62
   179
  6
Continuous
370
    -3
390
F
  0
LAYER
  5
CD
330
2
100
AcDbSymbolTableRecord
100
AcDbLayerTableRecord
  2
画層135
 70
     0
 62
   179
  6
Continuous
370
    -3
390
F
  0
LAYER
  5
CE
330
2
100
AcDbSymbolTableRecord
100
AcDbLayerTableRecord
  2
画層136
 70
     0
 62
   179
  6
Continuous
370
    -3
390
F
  0
LAYER
  5
CF
330
2
100
AcDbSymbolTableRecord
100
AcDbLayerTableRecord
  2
画層137
 70
     0
 62
   179
  6
Continuous
370
    -3
390
F
  0
LAYER
  5
D0
330
2
100
AcDbSymbolTableRecord
100
AcDbLayerTableRecord
  2
画層138
 70
     0
 62
   179
  6
Continuous
370
    -3
390
F
  0
LAYER
  5
D1
330
2
100
AcDbSymbolTableRecord
100
AcDbLayerTableRecord
  2
画層139
 70
     0
 62
   179
  6
Continuous
370
    -3
390
F
  0
LAYER
  5
D2
330
2
100
AcDbSymbolTableRecord
100
AcDbLayerTableRecord
  2
画層140
 70
     0
 62
   179
  6
Continuous
370
    -3
390
F
  0
LAYER
  5
D3
330
2
100
AcDbSymbolTableRecord
100
AcDbLayerTableRecord
  2
画層141
 70
     0
 62
   179
  6
Continuous
370
    -3
390
F
  0
LAYER
  5
D4
330
2
100
AcDbSymbolTableRecord
100
AcDbLayerTableRecord
  2
画層142
 70
     0
 62
   179
  6
Continuous
370
    -3
390
F
  0
LAYER
  5
D5
330
2
100
AcDbSymbolTableRecord
100
AcDbLayerTableRecord
  2
画層143
 70
     0
 62
   179
  6
Continuous
370
    -3
390
F
  0
LAYER
  5
D6
330
2
100
AcDbSymbolTableRecord
100
AcDbLayerTableRecord
  2
画層144
 70
     0
 62
   179
  6
Continuous
370
    -3
390
F
  0
LAYER
  5
D7
330
2
100
AcDbSymbolTableRecord
100
AcDbLayerTableRecord
  2
画層145
 70
     0
 62
   179
  6
Continuous
370
    -3
390
F
  0
LAYER
  5
D8
330
2
100
AcDbSymbolTableRecord
100
AcDbLayerTableRecord
  2
画層146
 70
     0
 62
   179
  6
Continuous
370
    -3
390
F
  0
LAYER
  5
D9
330
2
100
AcDbSymbolTableRecord
100
AcDbLayerTableRecord
  2
画層147
 70
     0
 62
   179
  6
Continuous
370
    -3
390
F
  0
LAYER
  5
DA
330
2
100
AcDbSymbolTableRecord
100
AcDbLayerTableRecord
  2
画層148
 70
     0
 62
   179
  6
Continuous
370
    -3
390
F
  0
LAYER
  5
DB
330
2
100
AcDbSymbolTableRecord
100
AcDbLayerTableRecord
  2
画層149
 70
     0
 62
   179
  6
Continuous
370
    -3
390
F
  0
LAYER
  5
DC
330
2
100
AcDbSymbolTableRecord
100
AcDbLayerTableRecord
  2
画層150
 70
     0
 62
   179
  6
Continuous
370
    -3
390
F
  0
LAYER
  5
DD
330
2
100
AcDbSymbolTableRecord
100
AcDbLayerTableRecord
  2
画層151
 70
     0
 62
   179
  6
Continuous
370
    -3
390
F
  0
LAYER
  5
DE
330
2
100
AcDbSymbolTableRecord
100
AcDbLayerTableRecord
  2
画層152
 70
     0
 62
   179
  6
Continuous
370
    -3
390
F
  0
LAYER
  5
DF
330
2
100
AcDbSymbolTableRecord
100
AcDbLayerTableRecord
  2
画層153
 70
     0
 62
   179
  6
Continuous
370
    -3
390
F
  0
LAYER
  5
E0
330
2
100
AcDbSymbolTableRecord
100
AcDbLayerTableRecord
  2
画層154
 70
     0
 62
   179
  6
Continuous
370
    -3
390
F
  0
LAYER
  5
E1
330
2
100
AcDbSymbolTableRecord
100
AcDbLayerTableRecord
  2
画層155
 70
     0
 62
   179
  6
Continuous
370
    -3
390
F
  0
LAYER
  5
E2
330
2
100
AcDbSymbolTableRecord
100
AcDbLayerTableRecord
  2
画層156
 70
     0
 62
   179
  6
Continuous
370
    -3
390
F
  0
LAYER
  5
E3
330
2
100
AcDbSymbolTableRecord
100
AcDbLayerTableRecord
  2
画層157
 70
     0
 62
   179
  6
Continuous
370
    -3
390
F
  0
LAYER
  5
E4
330
2
100
AcDbSymbolTableRecord
100
AcDbLayerTableRecord
  2
画層158
 70
     0
 62
   179
  6
Continuous
370
    -3
390
F
  0
LAYER
  5
E5
330
2
100
AcDbSymbolTableRecord
100
AcDbLayerTableRecord
  2
画層159
 70
     0
 62
   179
  6
Continuous
370
    -3
390
F
  0
LAYER
  5
E6
330
2
100
AcDbSymbolTableRecord
100
AcDbLayerTableRecord
  2
画層160
 70
     0
 62
   179
  6
Continuous
370
    -3
390
F
  0
LAYER
  5
E7
330
2
100
AcDbSymbolTableRecord
100
AcDbLayerTableRecord
  2
画層161
 70
     0
 62
   179
  6
Continuous
370
    -3
390
F
  0
LAYER
  5
E8
330
2
100
AcDbSymbolTableRecord
100
AcDbLayerTableRecord
  2
画層162
 70
     0
 62
   179
  6
Continuous
370
    -3
390
F
  0
LAYER
  5
E9
330
2
100
AcDbSymbolTableRecord
100
AcDbLayerTableRecord
  2
画層163
 70
     0
 62
   179
  6
Continuous
370
    -3
390
F
  0
LAYER
  5
EA
330
2
100
AcDbSymbolTableRecord
100
AcDbLayerTableRecord
  2
画層164
 70
     0
 62
   179
  6
Continuous
370
    -3
390
F
  0
LAYER
  5
EB
330
2
100
AcDbSymbolTableRecord
100
AcDbLayerTableRecord
  2
画層165
 70
     0
 62
   179
  6
Continuous
370
    -3
390
F
  0
LAYER
  5
EC
330
2
100
AcDbSymbolTableRecord
100
AcDbLayerTableRecord
  2
画層166
 70
     0
 62
   179
  6
Continuous
370
    -3
390
F
  0
LAYER
  5
ED
330
2
100
AcDbSymbolTableRecord
100
AcDbLayerTableRecord
  2
画層167
 70
     0
 62
   179
  6
Continuous
370
    -3
390
F
  0
LAYER
  5
EE
330
2
100
AcDbSymbolTableRecord
100
AcDbLayerTableRecord
  2
画層168
 70
     0
 62
   179
  6
Continuous
370
    -3
390
F
  0
LAYER
  5
EF
330
2
100
AcDbSymbolTableRecord
100
AcDbLayerTableRecord
  2
画層169
 70
     0
 62
   179
  6
Continuous
370
    -3
390
F
  0
LAYER
  5
F0
330
2
100
AcDbSymbolTableRecord
100
AcDbLayerTableRecord
  2
画層170
 70
     0
 62
   179
  6
Continuous
370
    -3
390
F
  0
LAYER
  5
F1
330
2
100
AcDbSymbolTableRecord
100
AcDbLayerTableRecord
  2
画層171
 70
     0
 62
   179
  6
Continuous
370
    -3
390
F
  0
LAYER
  5
F2
330
2
100
AcDbSymbolTableRecord
100
AcDbLayerTableRecord
  2
画層172
 70
     0
 62
   179
  6
Continuous
370
    -3
390
F
  0
LAYER
  5
F3
330
2
100
AcDbSymbolTableRecord
100
AcDbLayerTableRecord
  2
画層173
 70
     0
 62
   179
  6
Continuous
370
    -3
390
F
  0
LAYER
  5
F4
330
2
100
AcDbSymbolTableRecord
100
AcDbLayerTableRecord
  2
画層174
 70
     0
 62
   179
  6
Continuous
370
    -3
390
F
  0
LAYER
  5
F5
330
2
100
AcDbSymbolTableRecord
100
AcDbLayerTableRecord
  2
画層175
 70
     0
 62
   179
  6
Continuous
370
    -3
390
F
  0
LAYER
  5
F6
330
2
100
AcDbSymbolTableRecord
100
AcDbLayerTableRecord
  2
画層176
 70
     0
 62
   179
  6
Continuous
370
    -3
390
F
  0
LAYER
  5
F7
330
2
100
AcDbSymbolTableRecord
100
AcDbLayerTableRecord
  2
画層177
 70
     0
 62
   179
  6
Continuous
370
    -3
390
F
  0
LAYER
  5
F8
330
2
100
AcDbSymbolTableRecord
100
AcDbLayerTableRecord
  2
画層178
 70
     0
 62
   179
  6
Continuous
370
    -3
390
F
  0
LAYER
  5
F9
330
2
100
AcDbSymbolTableRecord
100
AcDbLayerTableRecord
  2
画層179
 70
     0
 62
   179
  6
Continuous
370
    -3
390
F
  0
LAYER
  5
FA
330
2
100
AcDbSymbolTableRecord
100
AcDbLayerTableRecord
  2
画層180
 70
     0
 62
   179
  6
Continuous
370
    -3
390
F
  0
LAYER
  5
FB
330
2
100
AcDbSymbolTableRecord
100
AcDbLayerTableRecord
  2
画層181
 70
     0
 62
   179
  6
Continuous
370
    -3
390
F
  0
LAYER
  5
FC
330
2
100
AcDbSymbolTableRecord
100
AcDbLayerTableRecord
  2
画層182
 70
     0
 62
   179
  6
Continuous
370
    -3
390
F
  0
LAYER
  5
FD
330
2
100
AcDbSymbolTableRecord
100
AcDbLayerTableRecord
  2
画層183
 70
     0
 62
   179
  6
Continuous
370
    -3
390
F
  0
LAYER
  5
FE
330
2
100
AcDbSymbolTableRecord
100
AcDbLayerTableRecord
  2
画層184
 70
     0
 62
   179
  6
Continuous
370
    -3
390
F
  0
LAYER
  5
FF
330
2
100
AcDbSymbolTableRecord
100
AcDbLayerTableRecord
  2
画層185
 70
     0
 62
   179
  6
Continuous
370
    -3
390
F
  0
LAYER
  5
100
330
2
100
AcDbSymbolTableRecord
100
AcDbLayerTableRecord
  2
画層186
 70
     0
 62
   179
  6
Continuous
370
    -3
390
F
  0
LAYER
  5
101
330
2
100
AcDbSymbolTableRecord
100
AcDbLayerTableRecord
  2
画層187
 70
     0
 62
   179
  6
Continuous
370
    -3
390
F
  0
LAYER
  5
102
330
2
100
AcDbSymbolTableRecord
100
AcDbLayerTableRecord
  2
画層188
 70
     0
 62
   179
  6
Continuous
370
    -3
390
F
  0
LAYER
  5
103
330
2
100
AcDbSymbolTableRecord
100
AcDbLayerTableRecord
  2
画層189
 70
     0
 62
   179
  6
Continuous
370
    -3
390
F
  0
LAYER
  5
104
330
2
100
AcDbSymbolTableRecord
100
AcDbLayerTableRecord
  2
画層190
 70
     0
 62
   179
  6
Continuous
370
    -3
390
F
  0
LAYER
  5
105
330
2
100
AcDbSymbolTableRecord
100
AcDbLayerTableRecord
  2
画層191
 70
     0
 62
   179
  6
Continuous
370
    -3
390
F
  0
LAYER
  5
106
330
2
100
AcDbSymbolTableRecord
100
AcDbLayerTableRecord
  2
画層192
 70
     0
 62
   179
  6
Continuous
370
    -3
390
F
  0
LAYER
  5
107
330
2
100
AcDbSymbolTableRecord
100
AcDbLayerTableRecord
  2
画層193
 70
     0
 62
   179
  6
Continuous
370
    -3
390
F
  0
LAYER
  5
108
330
2
100
AcDbSymbolTableRecord
100
AcDbLayerTableRecord
  2
画層194
 70
     0
 62
   179
  6
Continuous
370
    -3
390
F
  0
LAYER
  5
109
330
2
100
AcDbSymbolTableRecord
100
AcDbLayerTableRecord
  2
画層195
 70
     0
 62
   179
  6
Continuous
370
    -3
390
F
  0
LAYER
  5
10A
330
2
100
AcDbSymbolTableRecord
100
AcDbLayerTableRecord
  2
画層196
 70
     0
 62
   179
  6
Continuous
370
    -3
390
F
  0
LAYER
  5
10B
330
2
100
AcDbSymbolTableRecord
100
AcDbLayerTableRecord
  2
画層197
 70
     0
 62
   179
  6
Continuous
370
    -3
390
F
  0
LAYER
  5
10C
330
2
100
AcDbSymbolTableRecord
100
AcDbLayerTableRecord
  2
画層198
 70
     0
 62
   179
  6
Continuous
370
    -3
390
F
  0
LAYER
  5
10D
330
2
100
AcDbSymbolTableRecord
100
AcDbLayerTableRecord
  2
画層199
 70
     0
 62
   179
  6
Continuous
370
    -3
390
F
  0
LAYER
  5
10E
330
2
100
AcDbSymbolTableRecord
100
AcDbLayerTableRecord
  2
画層200
 70
     0
 62
   179
  6
Continuous
370
    -3
390
F
  0
LAYER
  5
10F
330
2
100
AcDbSymbolTableRecord
100
AcDbLayerTableRecord
  2
画層201
 70
     0
 62
   179
  6
Continuous
370
    -3
390
F
  0
LAYER
  5
110
330
2
100
AcDbSymbolTableRecord
100
AcDbLayerTableRecord
  2
画層202
 70
     0
 62
   179
  6
Continuous
370
    -3
390
F
  0
LAYER
  5
111
330
2
100
AcDbSymbolTableRecord
100
AcDbLayerTableRecord
  2
画層203
 70
     0
 62
   179
  6
Continuous
370
    -3
390
F
  0
LAYER
  5
112
330
2
100
AcDbSymbolTableRecord
100
AcDbLayerTableRecord
  2
画層204
 70
     0
 62
   179
  6
Continuous
370
    -3
390
F
  0
LAYER
  5
113
330
2
100
AcDbSymbolTableRecord
100
AcDbLayerTableRecord
  2
画層205
 70
     0
 62
   179
  6
Continuous
370
    -3
390
F
  0
LAYER
  5
114
330
2
100
AcDbSymbolTableRecord
100
AcDbLayerTableRecord
  2
画層206
 70
     0
 62
   179
  6
Continuous
370
    -3
390
F
  0
LAYER
  5
115
330
2
100
AcDbSymbolTableRecord
100
AcDbLayerTableRecord
  2
画層207
 70
     0
 62
   179
  6
Continuous
370
    -3
390
F
  0
LAYER
  5
116
330
2
100
AcDbSymbolTableRecord
100
AcDbLayerTableRecord
  2
画層208
 70
     0
 62
   179
  6
Continuous
370
    -3
390
F
  0
LAYER
  5
117
330
2
100
AcDbSymbolTableRecord
100
AcDbLayerTableRecord
  2
画層209
 70
     0
 62
   179
  6
Continuous
370
    -3
390
F
  0
LAYER
  5
118
330
2
100
AcDbSymbolTableRecord
100
AcDbLayerTableRecord
  2
画層210
 70
     0
 62
   179
  6
Continuous
370
    -3
390
F
  0
LAYER
  5
119
330
2
100
AcDbSymbolTableRecord
100
AcDbLayerTableRecord
  2
画層211
 70
     0
 62
   179
  6
Continuous
370
    -3
390
F
  0
LAYER
  5
11A
330
2
100
AcDbSymbolTableRecord
100
AcDbLayerTableRecord
  2
画層212
 70
     0
 62
   179
  6
Continuous
370
    -3
390
F
  0
LAYER
  5
11B
330
2
100
AcDbSymbolTableRecord
100
AcDbLayerTableRecord
  2
画層213
 70
     0
 62
   179
  6
Continuous
370
    -3
390
F
  0
LAYER
  5
11C
330
2
100
AcDbSymbolTableRecord
100
AcDbLayerTableRecord
  2
画層214
 70
     0
 62
   179
  6
Continuous
370
    -3
390
F
  0
LAYER
  5
11D
330
2
100
AcDbSymbolTableRecord
100
AcDbLayerTableRecord
  2
画層215
 70
     0
 62
   179
  6
Continuous
370
    -3
390
F
  0
LAYER
  5
11E
330
2
100
AcDbSymbolTableRecord
100
AcDbLayerTableRecord
  2
画層216
 70
     0
 62
   179
  6
Continuous
370
    -3
390
F
  0
LAYER
  5
11F
330
2
100
AcDbSymbolTableRecord
100
AcDbLayerTableRecord
  2
画層217
 70
     0
 62
   179
  6
Continuous
370
    -3
390
F
  0
LAYER
  5
120
330
2
100
AcDbSymbolTableRecord
100
AcDbLayerTableRecord
  2
画層218
 70
     0
 62
   179
  6
Continuous
370
    -3
390
F
  0
LAYER
  5
121
330
2
100
AcDbSymbolTableRecord
100
AcDbLayerTableRecord
  2
画層219
 70
     0
 62
   179
  6
Continuous
370
    -3
390
F
  0
LAYER
  5
122
330
2
100
AcDbSymbolTableRecord
100
AcDbLayerTableRecord
  2
画層220
 70
     0
 62
   179
  6
Continuous
370
    -3
390
F
  0
LAYER
  5
123
330
2
100
AcDbSymbolTableRecord
100
AcDbLayerTableRecord
  2
画層221
 70
     0
 62
   179
  6
Continuous
370
    -3
390
F
  0
LAYER
  5
124
330
2
100
AcDbSymbolTableRecord
100
AcDbLayerTableRecord
  2
画層222
 70
     0
 62
   179
  6
Continuous
370
    -3
390
F
  0
LAYER
  5
125
330
2
100
AcDbSymbolTableRecord
100
AcDbLayerTableRecord
  2
画層223
 70
     0
 62
   179
  6
Continuous
370
    -3
390
F
  0
LAYER
  5
126
330
2
100
AcDbSymbolTableRecord
100
AcDbLayerTableRecord
  2
画層224
 70
     0
 62
   179
  6
Continuous
370
    -3
390
F
  0
LAYER
  5
127
330
2
100
AcDbSymbolTableRecord
100
AcDbLayerTableRecord
  2
画層225
 70
     0
 62
   179
  6
Continuous
370
    -3
390
F
  0
LAYER
  5
128
330
2
100
AcDbSymbolTableRecord
100
AcDbLayerTableRecord
  2
画層226
 70
     0
 62
   179
  6
Continuous
370
    -3
390
F
  0
LAYER
  5
129
330
2
100
AcDbSymbolTableRecord
100
AcDbLayerTableRecord
  2
画層227
 70
     0
 62
   179
  6
Continuous
370
    -3
390
F
  0
LAYER
  5
12A
330
2
100
AcDbSymbolTableRecord
100
AcDbLayerTableRecord
  2
画層228
 70
     0
 62
   179
  6
Continuous
370
    -3
390
F
  0
LAYER
  5
12B
330
2
100
AcDbSymbolTableRecord
100
AcDbLayerTableRecord
  2
画層229
 70
     0
 62
   179
  6
Continuous
370
    -3
390
F
  0
LAYER
  5
12C
330
2
100
AcDbSymbolTableRecord
100
AcDbLayerTableRecord
  2
画層230
 70
     0
 62
   179
  6
Continuous
370
    -3
390
F
  0
LAYER
  5
12D
330
2
100
AcDbSymbolTableRecord
100
AcDbLayerTableRecord
  2
画層231
 70
     0
 62
   179
  6
Continuous
370
    -3
390
F
  0
LAYER
  5
12E
330
2
100
AcDbSymbolTableRecord
100
AcDbLayerTableRecord
  2
画層232
 70
     0
 62
   179
  6
Continuous
370
    -3
390
F
  0
LAYER
  5
12F
330
2
100
AcDbSymbolTableRecord
100
AcDbLayerTableRecord
  2
画層233
 70
     0
 62
   179
  6
Continuous
370
    -3
390
F
  0
LAYER
  5
130
330
2
100
AcDbSymbolTableRecord
100
AcDbLayerTableRecord
  2
画層234
 70
     0
 62
   179
  6
Continuous
370
    -3
390
F
  0
LAYER
  5
131
330
2
100
AcDbSymbolTableRecord
100
AcDbLayerTableRecord
  2
画層235
 70
     0
 62
   179
  6
Continuous
370
    -3
390
F
  0
LAYER
  5
132
330
2
100
AcDbSymbolTableRecord
100
AcDbLayerTableRecord
  2
画層236
 70
     0
 62
   179
  6
Continuous
370
    -3
390
F
  0
LAYER
  5
133
330
2
100
AcDbSymbolTableRecord
100
AcDbLayerTableRecord
  2
画層237
 70
     0
 62
   179
  6
Continuous
370
    -3
390
F
  0
LAYER
  5
134
330
2
100
AcDbSymbolTableRecord
100
AcDbLayerTableRecord
  2
画層238
 70
     0
 62
   179
  6
Continuous
370
    -3
390
F
  0
LAYER
  5
135
330
2
100
AcDbSymbolTableRecord
100
AcDbLayerTableRecord
  2
画層239
 70
     0
 62
   179
  6
Continuous
370
    -3
390
F
  0
LAYER
  5
136
330
2
100
AcDbSymbolTableRecord
100
AcDbLayerTableRecord
  2
画層240
 70
     0
 62
   179
  6
Continuous
370
    -3
390
F
  0
LAYER
  5
137
330
2
100
AcDbSymbolTableRecord
100
AcDbLayerTableRecord
  2
画層241
 70
     0
 62
   179
  6
Continuous
370
    -3
390
F
  0
LAYER
  5
138
330
2
100
AcDbSymbolTableRecord
100
AcDbLayerTableRecord
  2
画層242
 70
     0
 62
   179
  6
Continuous
370
    -3
390
F
  0
LAYER
  5
139
330
2
100
AcDbSymbolTableRecord
100
AcDbLayerTableRecord
  2
画層243
 70
     0
 62
   179
  6
Continuous
370
    -3
390
F
  0
LAYER
  5
13A
330
2
100
AcDbSymbolTableRecord
100
AcDbLayerTableRecord
  2
画層244
 70
     0
 62
   179
  6
Continuous
370
    -3
390
F
  0
LAYER
  5
13B
330
2
100
AcDbSymbolTableRecord
100
AcDbLayerTableRecord
  2
画層245
 70
     0
 62
   179
  6
Continuous
370
    -3
390
F
  0
LAYER
  5
13C
330
2
100
AcDbSymbolTableRecord
100
AcDbLayerTableRecord
  2
画層246
 70
     0
 62
   179
  6
Continuous
370
    -3
390
F
  0
LAYER
  5
13D
330
2
100
AcDbSymbolTableRecord
100
AcDbLayerTableRecord
  2
画層247
 70
     0
 62
   179
  6
Continuous
370
    -3
390
F
  0
LAYER
  5
13E
330
2
100
AcDbSymbolTableRecord
100
AcDbLayerTableRecord
  2
画層248
 70
     0
 62
   179
  6
Continuous
370
    -3
390
F
  0
LAYER
  5
13F
330
2
100
AcDbSymbolTableRecord
100
AcDbLayerTableRecord
  2
画層249
 70
     0
 62
   179
  6
Continuous
370
    -3
390
F
  0
LAYER
  5
140
330
2
100
AcDbSymbolTableRecord
100
AcDbLayerTableRecord
  2
画層250
 70
     0
 62
   179
  6
Continuous
370
    -3
390
F
  0
LAYER
  5
141
330
2
100
AcDbSymbolTableRecord
100
AcDbLayerTableRecord
  2
画層251
 70
     0
 62
   179
  6
Continuous
370
    -3
390
F
  0
LAYER
  5
142
330
2
100
AcDbSymbolTableRecord
100
AcDbLayerTableRecord
  2
画層252
 70
     0
 62
   179
  6
Continuous
370
    -3
390
F
  0
LAYER
  5
143
330
2
100
AcDbSymbolTableRecord
100
AcDbLayerTableRecord
  2
画層253
 70
     0
 62
   179
  6
Continuous
370
    -3
390
F
  0
ENDTAB
  0
TABLE
  2
STYLE
  5
3
330
0
100
AcDbSymbolTable
 70
     4
  0
STYLE
  5
11
330
3
100
AcDbSymbolTableRecord
100
AcDbTextStyleTableRecord
  2
Standard
 70
     0
 40
0.0
 41
1.0
 50
0.0
 71
     0
 42
3.5
  3
txt
  4
bigfont
  0
STYLE
  5
216
330
3
100
AcDbSymbolTableRecord
100
AcDbTextStyleTableRecord
  2
SLDTEXTSTYLE0
 70
     0
 40
0.0
 41
1.0
 50
0.0
 71
     0
 42
0.2
  3
TXT
  4
bigfont
  0
STYLE
  5
21D
330
3
100
AcDbSymbolTableRecord
100
AcDbTextStyleTableRecord
  2
SLDTEXTSTYLE1
 70
     0
 40
0.0
 41
0.6666666667
 50
0.0
 71
     0
 42
0.2
  3
TXT
  4
bigfont
  0
STYLE
  5
221
330
3
100
AcDbSymbolTableRecord
100
AcDbTextStyleTableRecord
  2
SLDTEXTSTYLE2
 70
     0
 40
0.0
 41
0.7
 50
0.0
 71
     0
 42
0.2
  3
TXT
  4
bigfont
  0
ENDTAB
  0
TABLE
  2
VIEW
  5
6
330
0
100
AcDbSymbolTable
 70
     0
  0
ENDTAB
  0
TABLE
  2
UCS
  5
7
330
0
100
AcDbSymbolTable
 70
     0
  0
ENDTAB
  0
TABLE
  2
APPID
  5
9
330
0
100
AcDbSymbolTable
 70
     1
  0
APPID
  5
12
330
9
100
AcDbSymbolTableRecord
100
AcDbRegAppTableRecord
  2
ACAD
 70
     0
  0
ENDTAB
  0
TABLE
  2
DIMSTYLE
  5
A
330
0
100
AcDbSymbolTable
 70
     1
100
AcDbDimStyleTable
  0
DIMSTYLE
105
27
330
A
100
AcDbSymbolTableRecord
100
AcDbDimStyleTableRecord
  2
ISO-25
 70
     0
 41
2.5
 42
0.625
 43
3.75
 44
1.25
 73
     0
 74
     0
 77
     1
 78
     8
140
2.5
141
2.5
143
0.0393700787
147
0.625
171
     3
172
     1
178
     0
271
     2
272
     2
274
     3
278
    44
283
     0
284
     8
340
11
  0
ENDTAB
  0
TABLE
  2
BLOCK_RECORD
  5
1
330
0
100
AcDbSymbolTable
 70
     1
  0
BLOCK_RECORD
  5
1F
330
1
100
AcDbSymbolTableRecord
100
AcDbBlockTableRecord
  2
*Model_Space
340
22
  0
BLOCK_RECORD
  5
1B
330
1
100
AcDbSymbolTableRecord
100
AcDbBlockTableRecord
  2
*Paper_Space
340
1E
  0
BLOCK_RECORD
  5
23
330
1
100
AcDbSymbolTableRecord
100
AcDbBlockTableRecord
  2
*Paper_Space0
340
26
  0
ENDTAB
  0
ENDSEC
  0
SECTION
  2
BLOCKS
  0
BLOCK
  5
20
330
1F
100
AcDbEntity
  8
0
100
AcDbBlockBegin
  2
*Model_Space
 70
     0
 10
0.0
 20
0.0
 30
0.0
  3
*Model_Space
  1

  0
ENDBLK
  5
21
330
1F
100
AcDbEntity
  8
0
100
AcDbBlockEnd
  0
BLOCK
  5
1C
330
1B
100
AcDbEntity
 67
     1
  8
0
100
AcDbBlockBegin
  2
*Paper_Space
 70
     0
 10
0.0
 20
0.0
 30
0.0
  3
*Paper_Space
  1

  0
ENDBLK
  5
1D
330
1B
100
AcDbEntity
 67
     1
  8
0
100
AcDbBlockEnd
  0
BLOCK
  5
24
330
23
100
AcDbEntity
  8
0
100
AcDbBlockBegin
  2
*Paper_Space0
 70
     0
 10
0.0
 20
0.0
 30
0.0
  3
*Paper_Space0
  1

  0
ENDBLK
  5
25
330
23
100
AcDbEntity
  8
0
100
AcDbBlockEnd
  0
ENDSEC
  0
SECTION
  2
ENTITIES
  0
LINE
  5
144
330
1F
100
AcDbEntity
  8
SLD-0_0
  6
Continuous
100
AcDbLine
 10
141.5731718647
 20
138.8629954569
 30
0.0
 11
159.6015585875
 21
138.8629954569
 31
0.0
  0
LINE
  5
145
330
1F
100
AcDbEntity
  8
SLD-0_0
  6
Continuous
100
AcDbLine
 10
159.6015585875
 20
138.8629954569
 30
0.0
 11
159.6015585875
 21
178.8629954569
 31
0.0
  0
LINE
  5
146
330
1F
100
AcDbEntity
  8
SLD-0_0
  6
Continuous
100
AcDbLine
 10
159.6015585875
 20
178.8629954569
 30
0.0
 11
141.5731718647
 21
178.8629954569
 31
0.0
  0
LINE
  5
147
330
1F
100
AcDbEntity
  8
SLD-0_0
  6
Continuous
100
AcDbLine
 10
141.5731718647
 20
178.8629954569
 30
0.0
 11
141.5731718647
 21
138.8629954569
 31
0.0
  0
LINE
  5
148
330
1F
100
AcDbEntity
  8
SLD-0_0
  6
Continuous
100
AcDbLine
 10
160.6047212792
 20
138.8629954569
 30
0.0
 11
161.6047212792
 21
138.8629954569
 31
0.0
  0
LINE
  5
149
330
1F
100
AcDbEntity
  8
SLD-0_0
  6
Continuous
100
AcDbLine
 10
161.6047212792
 20
138.8629954569
 30
0.0
 11
161.6047212792
 21
178.8629954569
 31
0.0
  0
LINE
  5
14A
330
1F
100
AcDbEntity
  8
SLD-0_0
  6
Continuous
100
AcDbLine
 10
161.6047212792
 20
178.8629954569
 30
0.0
 11
160.6047212792
 21
178.8629954569
 31
0.0
  0
LINE
  5
14B
330
1F
100
AcDbEntity
  8
SLD-0_0
  6
Continuous
100
AcDbLine
 10
160.6047212792
 20
178.8629954569
 30
0.0
 11
160.6047212792
 21
138.8629954569
 31
0.0
  0
LINE
  5
14C
330
1F
100
AcDbEntity
  8
SLD-0_0
  6
Continuous
100
AcDbLine
 10
159.6047212792
 20
170.4419428253
 30
0.0
 11
160.6047212792
 21
170.4419428253
 31
0.0
  0
LINE
  5
14D
330
1F
100
AcDbEntity
  8
SLD-0_0
  6
Continuous
100
AcDbLine
 10
160.6047212792
 20
170.4419428253
 30
0.0
 11
160.6047212792
 21
174.6524691411
 31
0.0
  0
LINE
  5
14E
330
1F
100
AcDbEntity
  8
SLD-0_0
  6
Continuous
100
AcDbLine
 10
160.6047212792
 20
174.6524691411
 30
0.0
 11
159.6047212792
 21
174.6524691411
 31
0.0
  0
LINE
  5
14F
330
1F
100
AcDbEntity
  8
SLD-0_0
  6
Continuous
100
AcDbLine
 10
159.6047212792
 20
174.6524691411
 30
0.0
 11
159.6047212792
 21
170.4419428253
 31
0.0
  0
LINE
  5
150
330
1F
100
AcDbEntity
  8
SLD-0_0
  6
Continuous
100
AcDbLine
 10
159.6047212792
 20
143.0735217726
 30
0.0
 11
160.6047212792
 21
143.0735217726
 31
0.0
  0
LINE
  5
151
330
1F
100
AcDbEntity
  8
SLD-0_0
  6
Continuous
100
AcDbLine
 10
160.6047212792
 20
143.0735217726
 30
0.0
 11
160.6047212792
 21
147.2840480884
 31
0.0
  0
LINE
  5
152
330
1F
100
AcDbEntity
  8
SLD-0_0
  6
Continuous
100
AcDbLine
 10
160.6047212792
 20
147.2840480884
 30
0.0
 11
159.6047212792
 21
147.2840480884
 31
0.0
  0
LINE
  5
153
330
1F
100
AcDbEntity
  8
SLD-0_0
  6
Continuous
100
AcDbLine
 10
159.6047212792
 20
147.2840480884
 30
0.0
 11
159.6047212792
 21
143.0735217726
 31
0.0
  0
LINE
  5
154
330
1F
100
AcDbEntity
  8
SLD-0_0
  6
Continuous
100
AcDbLine
 10
55.658817706
 20
179.317197526
 30
0.0
 11
55.658817706
 21
197.3870045431
 31
0.0
  0
LINE
  5
155
330
1F
100
AcDbEntity
  8
SLD-0_0
  6
Continuous
100
AcDbLine
 10
55.658817706
 20
196.8870045431
 30
0.0
 11
127.658817706
 21
196.8870045431
 31
0.0
  0
LINE
  5
156
330
1F
100
AcDbEntity
  8
SLD-0_0
  6
Continuous
100
AcDbLine
 10
55.658817706
 20
196.8870045431
 30
0.0
 11
57.5906693586
 21
197.4046426334
 31
0.0
  0
LINE
  5
157
330
1F
100
AcDbEntity
  8
SLD-0_0
  6
Continuous
100
AcDbLine
 10
55.658817706
 20
196.8870045431
 30
0.0
 11
57.5906693586
 21
196.3693664529
 31
0.0
  0
LINE
  5
158
330
1F
100
AcDbEntity
  8
SLD-0_0
  6
Continuous
100
AcDbLine
 10
127.658817706
 20
196.8870045431
 30
0.0
 11
125.7269660534
 21
196.3693664529
 31
0.0
  0
LINE
  5
159
330
1F
100
AcDbEntity
  8
SLD-0_0
  6
Continuous
100
AcDbLine
 10
127.658817706
 20
196.8870045431
 30
0.0
 11
125.7269660534
 21
197.4046426334
 31
0.0
  0
LINE
  5
15A
330
1F
100
AcDbEntity
  8
SLD-0_0
  6
Continuous
100
AcDbLine
 10
127.658817706
 20
179.3300782461
 30
0.0
 11
127.658817706
 21
197.3870045431
 31
0.0
  0
LINE
  5
15B
330
1F
100
AcDbEntity
  8
SLD-0_0
  6
Continuous
100
AcDbLine
 10
58.658817706
 20
163.699478506
 30
0.0
 11
58.658817706
 21
187.3870045431
 31
0.0
  0
LINE
  5
15C
330
1F
100
AcDbEntity
  8
SLD-0_0
  6
Continuous
100
AcDbLine
 10
58.658817706
 20
186.8870045431
 30
0.0
 11
124.658817706
 21
186.8870045431
 31
0.0
  0
LINE
  5
15D
330
1F
100
AcDbEntity
  8
SLD-0_0
  6
Continuous
100
AcDbLine
 10
58.658817706
 20
186.8870045431
 30
0.0
 11
60.5906693586
 21
187.4046426334
 31
0.0
  0
LINE
  5
15E
330
1F
100
AcDbEntity
  8
SLD-0_0
  6
Continuous
100
AcDbLine
 10
58.658817706
 20
186.8870045431
 30
0.0
 11
60.5906693586
 21
186.3693664529
 31
0.0
  0
LINE
  5
15F
330
1F
100
AcDbEntity
  8
SLD-0_0
  6
Continuous
100
AcDbLine
 10
124.658817706
 20
186.8870045431
 30
0.0
 11
122.7269660534
 21
186.3693664529
 31
0.0
  0
LINE
  5
160
330
1F
100
AcDbEntity
  8
SLD-0_0
  6
Continuous
100
AcDbLine
 10
124.658817706
 20
186.8870045431
 30
0.0
 11
122.7269660534
 21
187.4046426334
 31
0.0
  0
LINE
  5
161
330
1F
100
AcDbEntity
  8
SLD-0_0
  6
Continuous
100
AcDbLine
 10
124.658817706
 20
163.5092654517
 30
0.0
 11
124.658817706
 21
187.3870045431
 31
0.0
  0
LINE
  5
162
330
1F
100
AcDbEntity
  8
SLD-0_0
  6
Continuous
100
AcDbLine
 10
53.7791671519
 20
161.8602574799
 30
0.0
 11
48.2791680177
 21
161.8571714248
 31
0.0
  0
LINE
  5
163
330
1F
100
AcDbEntity
  8
SLD-0_0
  6
Continuous
100
AcDbLine
 10
48.779167939
 20
161.8574519753
 30
0.0
 11
48.7696292216
 21
178.8574519753
 31
0.0
  0
LINE
  5
164
330
1F
100
AcDbEntity
  8
SLD-0_0
  6
Continuous
100
AcDbLine
 10
48.779167939
 20
161.8574519753
 30
0.0
 11
48.2604459665
 21
163.7890128765
 31
0.0
  0
LINE
  5
165
330
1F
100
AcDbEntity
  8
SLD-0_0
  6
Continuous
100
AcDbLine
 10
48.779167939
 20
161.8574519753
 30
0.0
 11
49.295721984
 21
163.789593771
 31
0.0
  0
LINE
  5
166
330
1F
100
AcDbEntity
  8
SLD-0_0
  6
Continuous
100
AcDbLine
 10
48.7696292216
 20
178.8574519753
 30
0.0
 11
49.2883511941
 21
176.925891074
 31
0.0
  0
LINE
  5
167
330
1F
100
AcDbEntity
  8
SLD-0_0
  6
Continuous
100
AcDbLine
 10
48.7696292216
 20
178.8574519753
 30
0.0
 11
48.2530751767
 21
176.9253101796
 31
0.0
  0
LINE
  5
168
330
1F
100
AcDbEntity
  8
SLD-0_0
  6
Continuous
100
AcDbLine
 10
53.7696284345
 20
178.8602574799
 30
0.0
 11
48.2696293003
 21
178.8571714248
 31
0.0
  0
LINE
  5
169
330
1F
100
AcDbEntity
  8
SLD-0_0
  6
Continuous
100
AcDbLine
 10
53.7696284345
 20
178.8629954569
 30
0.0
 11
42.1452787208
 21
178.8629954569
 31
0.0
  0
LINE
  5
16A
330
1F
100
AcDbEntity
  8
SLD-0_0
  6
Continuous
100
AcDbLine
 10
42.6452787208
 20
178.8629954569
 30
0.0
 11
42.6452787208
 21
138.8629954569
 31
0.0
  0
LINE
  5
16B
330
1F
100
AcDbEntity
  8
SLD-0_0
  6
Continuous
100
AcDbLine
 10
42.6452787208
 20
178.8629954569
 30
0.0
 11
43.162916811
 21
176.9311438043
 31
0.0
  0
LINE
  5
16C
330
1F
100
AcDbEntity
  8
SLD-0_0
  6
Continuous
100
AcDbLine
 10
42.6452787208
 20
178.8629954569
 30
0.0
 11
42.1276406306
 21
176.9311438043
 31
0.0
  0
LINE
  5
16D
330
1F
100
AcDbEntity
  8
SLD-0_0
  6
Continuous
100
AcDbLine
 10
42.6452787208
 20
138.8629954569
 30
0.0
 11
42.1276406306
 21
140.7948471094
 31
0.0
  0
LINE
  5
16E
330
1F
100
AcDbEntity
  8
SLD-0_0
  6
Continuous
100
AcDbLine
 10
42.6452787208
 20
138.8629954569
 30
0.0
 11
43.162916811
 21
140.7948471094
 31
0.0
  0
LINE
  5
16F
330
1F
100
AcDbEntity
  8
SLD-0_0
  6
Continuous
100
AcDbLine
 10
54.7654184798
 20
138.8629954569
 30
0.0
 11
42.1452787208
 21
138.8629954569
 31
0.0
  0
LINE
  5
170
330
1F
100
AcDbEntity
  8
SLD-0_0
  6
Continuous
100
AcDbLine
 10
53.779167939
 20
161.8629954569
 30
0.0
 11
48.279167939
 21
161.8629954569
 31
0.0
  0
LINE
  5
171
330
1F
100
AcDbEntity
  8
SLD-0_0
  6
Continuous
100
AcDbLine
 10
48.779167939
 20
161.8629954569
 30
0.0
 11
48.779167939
 21
155.8629954569
 31
0.0
  0
LINE
  5
172
330
1F
100
AcDbEntity
  8
SLD-0_0
  6
Continuous
100
AcDbLine
 10
48.779167939
 20
161.8629954569
 30
0.0
 11
49.2968060292
 21
159.9311438043
 31
0.0
  0
LINE
  5
173
330
1F
100
AcDbEntity
  8
SLD-0_0
  6
Continuous
100
AcDbLine
 10
48.779167939
 20
161.8629954569
 30
0.0
 11
48.2615298488
 21
159.9311438043
 31
0.0
  0
LINE
  5
174
330
1F
100
AcDbEntity
  8
SLD-0_0
  6
Continuous
100
AcDbLine
 10
48.779167939
 20
155.8629954569
 30
0.0
 11
48.2615298488
 21
157.7948471094
 31
0.0
  0
LINE
  5
175
330
1F
100
AcDbEntity
  8
SLD-0_0
  6
Continuous
100
AcDbLine
 10
48.779167939
 20
155.8629954569
 30
0.0
 11
49.2968060292
 21
157.7948471094
 31
0.0
  0
LINE
  5
176
330
1F
100
AcDbEntity
  8
SLD-0_0
  6
Continuous
100
AcDbLine
 10
53.779167939
 20
155.8629954569
 30
0.0
 11
48.279167939
 21
155.8629954569
 31
0.0
  0
LINE
  5
177
330
1F
100
AcDbEntity
  8
SLD-0_0
  6
Continuous
100
AcDbLine
 10
141.5731718647
 20
179.5097543605
 30
0.0
 11
141.5731718647
 21
187.3870045431
 31
0.0
  0
LINE
  5
178
330
1F
100
AcDbEntity
  8
SLD-0_0
  6
Continuous
100
AcDbLine
 10
141.5731718647
 20
186.8870045431
 30
0.0
 11
161.6047212792
 21
186.8870045431
 31
0.0
  0
LINE
  5
179
330
1F
100
AcDbEntity
  8
SLD-0_0
  6
Continuous
100
AcDbLine
 10
141.5731718647
 20
186.8870045431
 30
0.0
 11
143.5050235173
 21
187.4046426334
 31
0.0
  0
LINE
  5
17A
330
1F
100
AcDbEntity
  8
SLD-0_0
  6
Continuous
100
AcDbLine
 10
141.5731718647
 20
186.8870045431
 30
0.0
 11
143.5050235173
 21
186.3693664529
 31
0.0
  0
LINE
  5
17B
330
1F
100
AcDbEntity
  8
SLD-0_0
  6
Continuous
100
AcDbLine
 10
161.6047212792
 20
186.8870045431
 30
0.0
 11
159.6728696266
 21
186.3693664529
 31
0.0
  0
LINE
  5
17C
330
1F
100
AcDbEntity
  8
SLD-0_0
  6
Continuous
100
AcDbLine
 10
161.6047212792
 20
186.8870045431
 30
0.0
 11
159.6728696266
 21
187.4046426334
 31
0.0
  0
LINE
  5
17D
330
1F
100
AcDbEntity
  8
SLD-0_0
  6
Continuous
100
AcDbLine
 10
161.6047212792
 20
179.8097626788
 30
0.0
 11
161.6047212792
 21
187.3870045431
 31
0.0
  0
LINE
  5
17E
330
1F
100
AcDbEntity
  8
画層1
  6
Continuous
 62
   179
100
AcDbLine
 10
69.158817706
 20
149.8629954569
 30
0.0
 11
72.658817706
 21
149.8629954569
 31
0.0
  0
LINE
  5
17F
330
1F
100
AcDbEntity
  8
画層1
  6
Continuous
 62
   179
100
AcDbLine
 10
72.658817706
 20
175.3629954569
 30
0.0
 11
69.158817706
 21
175.3629954569
 31
0.0
  0
LINE
  5
180
330
1F
100
AcDbEntity
  8
画層1
  6
Continuous
 62
   179
100
AcDbLine
 10
68.158817706
 20
174.3629954569
 30
0.0
 11
68.158817706
 21
150.8629954569
 31
0.0
  0
LINE
  5
181
330
1F
100
AcDbEntity
  8
画層0
  6
Continuous
 62
   179
100
AcDbLine
 10
118.658817706
 20
138.8629954569
 30
0.0
 11
64.658817706
 21
138.8629954569
 31
0.0
  0
LINE
  5
182
330
1F
100
AcDbEntity
  8
画層1
  6
Continuous
 62
   179
100
AcDbLine
 10
73.658817706
 20
150.8629954569
 30
0.0
 11
73.658817706
 21
174.3629954569
 31
0.0
  0
LINE
  5
183
330
1F
100
AcDbEntity
  8
画層0
  6
Continuous
 62
   179
100
AcDbLine
 10
64.658817706
 20
178.8629954569
 30
0.0
 11
118.658817706
 21
178.8629954569
 31
0.0
  0
LINE
  5
184
330
1F
100
AcDbEntity
  8
画層0
  6
Continuous
 62
   179
100
AcDbLine
 10
118.658817706
 20
178.8629954569
 30
0.0
 11
118.658817706
 21
138.8629954569
 31
0.0
  0
LINE
  5
185
330
1F
100
AcDbEntity
  8
画層0
  6
Continuous
 62
   179
100
AcDbLine
 10
118.658817706
 20
138.8629954569
 30
0.0
 11
64.658817706
 21
138.8629954569
 31
0.0
  0
LINE
  5
186
330
1F
100
AcDbEntity
  8
画層0
  6
Continuous
 62
   179
100
AcDbLine
 10
64.658817706
 20
138.8629954569
 30
0.0
 11
64.658817706
 21
178.8629954569
 31
0.0
  0
LINE
  5
187
330
1F
100
AcDbEntity
  8
画層0
  6
Continuous
 62
   179
100
AcDbLine
 10
118.658817706
 20
178.8629954569
 30
0.0
 11
64.658817706
 21
178.8629954569
 31
0.0
  0
LINE
  5
188
330
1F
100
AcDbEntity
  8
SLD-0
  6
Continuous
 62
   179
100
AcDbLine
 10
76.258817706
 20
172.2629954569
 30
0.0
 11
77.058817706
 21
172.2629954569
 31
0.0
  0
LINE
  5
189
330
1F
100
AcDbEntity
  8
SLD-0
  6
Continuous
 62
   179
100
AcDbLine
 10
77.058817706
 20
172.2629954569
 30
0.0
 11
77.058817706
 21
170.6629954569
 31
0.0
  0
LINE
  5
18A
330
1F
100
AcDbEntity
  8
SLD-0
  6
Continuous
 62
   179
100
AcDbLine
 10
77.058817706
 20
170.6629954569
 30
0.0
 11
76.258817706
 21
170.6629954569
 31
0.0
  0
LINE
  5
18B
330
1F
100
AcDbEntity
  8
SLD-0
  6
Continuous
 62
   179
100
AcDbLine
 10
76.258817706
 20
170.6629954569
 30
0.0
 11
76.258817706
 21
172.2629954569
 31
0.0
  0
LINE
  5
18C
330
1F
100
AcDbEntity
  8
SLD-0
  6
Continuous
 62
   179
100
AcDbLine
 10
80.258817706
 20
172.2629954569
 30
0.0
 11
81.058817706
 21
172.2629954569
 31
0.0
  0
LINE
  5
18D
330
1F
100
AcDbEntity
  8
SLD-0
  6
Continuous
 62
   179
100
AcDbLine
 10
81.058817706
 20
172.2629954569
 30
0.0
 11
81.058817706
 21
170.6629954569
 31
0.0
  0
LINE
  5
18E
330
1F
100
AcDbEntity
  8
SLD-0
  6
Continuous
 62
   179
100
AcDbLine
 10
81.058817706
 20
170.6629954569
 30
0.0
 11
80.258817706
 21
170.6629954569
 31
0.0
  0
LINE
  5
18F
330
1F
100
AcDbEntity
  8
SLD-0
  6
Continuous
 62
   179
100
AcDbLine
 10
80.258817706
 20
170.6629954569
 30
0.0
 11
80.258817706
 21
172.2629954569
 31
0.0
  0
LINE
  5
190
330
1F
100
AcDbEntity
  8
SLD-0
  6
Continuous
 62
   179
100
AcDbLine
 10
84.258817706
 20
172.2629954569
 30
0.0
 11
85.058817706
 21
172.2629954569
 31
0.0
  0
LINE
  5
191
330
1F
100
AcDbEntity
  8
SLD-0
  6
Continuous
 62
   179
100
AcDbLine
 10
85.058817706
 20
172.2629954569
 30
0.0
 11
85.058817706
 21
170.6629954569
 31
0.0
  0
LINE
  5
192
330
1F
100
AcDbEntity
  8
SLD-0
  6
Continuous
 62
   179
100
AcDbLine
 10
85.058817706
 20
170.6629954569
 30
0.0
 11
84.258817706
 21
170.6629954569
 31
0.0
  0
LINE
  5
193
330
1F
100
AcDbEntity
  8
SLD-0
  6
Continuous
 62
   179
100
AcDbLine
 10
84.258817706
 20
170.6629954569
 30
0.0
 11
84.258817706
 21
172.2629954569
 31
0.0
  0
LINE
  5
194
330
1F
100
AcDbEntity
  8
SLD-0
  6
Continuous
 62
   179
100
AcDbLine
 10
110.258817706
 20
171.2629954569
 30
0.0
 11
111.058817706
 21
171.2629954569
 31
0.0
  0
LINE
  5
195
330
1F
100
AcDbEntity
  8
SLD-0
  6
Continuous
 62
   179
100
AcDbLine
 10
111.058817706
 20
171.2629954569
 30
0.0
 11
111.058817706
 21
169.6629954569
 31
0.0
  0
LINE
  5
196
330
1F
100
AcDbEntity
  8
SLD-0
  6
Continuous
 62
   179
100
AcDbLine
 10
111.058817706
 20
169.6629954569
 30
0.0
 11
110.258817706
 21
169.6629954569
 31
0.0
  0
LINE
  5
197
330
1F
100
AcDbEntity
  8
SLD-0
  6
Continuous
 62
   179
100
AcDbLine
 10
110.258817706
 20
169.6629954569
 30
0.0
 11
110.258817706
 21
171.2629954569
 31
0.0
  0
LINE
  5
198
330
1F
100
AcDbEntity
  8
SLD-0
  6
Continuous
 62
   179
100
AcDbLine
 10
107.758817706
 20
171.2629954569
 30
0.0
 11
108.558817706
 21
171.2629954569
 31
0.0
  0
LINE
  5
199
330
1F
100
AcDbEntity
  8
SLD-0
  6
Continuous
 62
   179
100
AcDbLine
 10
108.558817706
 20
171.2629954569
 30
0.0
 11
108.558817706
 21
169.6629954569
 31
0.0
  0
LINE
  5
19A
330
1F
100
AcDbEntity
  8
SLD-0
  6
Continuous
 62
   179
100
AcDbLine
 10
108.558817706
 20
169.6629954569
 30
0.0
 11
107.758817706
 21
169.6629954569
 31
0.0
  0
LINE
  5
19B
330
1F
100
AcDbEntity
  8
SLD-0
  6
Continuous
 62
   179
100
AcDbLine
 10
107.758817706
 20
169.6629954569
 30
0.0
 11
107.758817706
 21
171.2629954569
 31
0.0
  0
LINE
  5
19C
330
1F
100
AcDbEntity
  8
SLD-0
  6
Continuous
 62
   179
100
AcDbLine
 10
105.258817706
 20
171.2629954569
 30
0.0
 11
106.058817706
 21
171.2629954569
 31
0.0
  0
LINE
  5
19D
330
1F
100
AcDbEntity
  8
SLD-0
  6
Continuous
 62
   179
100
AcDbLine
 10
106.058817706
 20
171.2629954569
 30
0.0
 11
106.058817706
 21
169.6629954569
 31
0.0
  0
LINE
  5
19E
330
1F
100
AcDbEntity
  8
SLD-0
  6
Continuous
 62
   179
100
AcDbLine
 10
106.058817706
 20
169.6629954569
 30
0.0
 11
105.258817706
 21
169.6629954569
 31
0.0
  0
LINE
  5
19F
330
1F
100
AcDbEntity
  8
SLD-0
  6
Continuous
 62
   179
100
AcDbLine
 10
105.258817706
 20
169.6629954569
 30
0.0
 11
105.258817706
 21
171.2629954569
 31
0.0
  0
LINE
  5
1A0
330
1F
100
AcDbEntity
  8
SLD-0
  6
Continuous
 62
   179
100
AcDbLine
 10
102.658817706
 20
148.2629954569
 30
0.0
 11
103.458817706
 21
148.2629954569
 31
0.0
  0
LINE
  5
1A1
330
1F
100
AcDbEntity
  8
SLD-0
  6
Continuous
 62
   179
100
AcDbLine
 10
103.458817706
 20
148.2629954569
 30
0.0
 11
103.458817706
 21
146.6629954569
 31
0.0
  0
LINE
  5
1A2
330
1F
100
AcDbEntity
  8
SLD-0
  6
Continuous
 62
   179
100
AcDbLine
 10
103.458817706
 20
146.6629954569
 30
0.0
 11
102.658817706
 21
146.6629954569
 31
0.0
  0
LINE
  5
1A3
330
1F
100
AcDbEntity
  8
SLD-0
  6
Continuous
 62
   179
100
AcDbLine
 10
102.658817706
 20
146.6629954569
 30
0.0
 11
102.658817706
 21
148.2629954569
 31
0.0
  0
LINE
  5
1A4
330
1F
100
AcDbEntity
  8
SLD-0
  6
Continuous
 62
   179
100
AcDbLine
 10
95.058817706
 20
148.2629954569
 30
0.0
 11
95.858817706
 21
148.2629954569
 31
0.0
  0
LINE
  5
1A5
330
1F
100
AcDbEntity
  8
SLD-0
  6
Continuous
 62
   179
100
AcDbLine
 10
95.858817706
 20
148.2629954569
 30
0.0
 11
95.858817706
 21
146.6629954569
 31
0.0
  0
LINE
  5
1A6
330
1F
100
AcDbEntity
  8
SLD-0
  6
Continuous
 62
   179
100
AcDbLine
 10
95.858817706
 20
146.6629954569
 30
0.0
 11
95.058817706
 21
146.6629954569
 31
0.0
  0
LINE
  5
1A7
330
1F
100
AcDbEntity
  8
SLD-0
  6
Continuous
 62
   179
100
AcDbLine
 10
95.058817706
 20
146.6629954569
 30
0.0
 11
95.058817706
 21
148.2629954569
 31
0.0
  0
LINE
  5
1A8
330
1F
100
AcDbEntity
  8
SLD-0
  6
Continuous
 62
   179
100
AcDbLine
 10
87.458817706
 20
148.2629954569
 30
0.0
 11
88.258817706
 21
148.2629954569
 31
0.0
  0
LINE
  5
1A9
330
1F
100
AcDbEntity
  8
SLD-0
  6
Continuous
 62
   179
100
AcDbLine
 10
88.258817706
 20
148.2629954569
 30
0.0
 11
88.258817706
 21
146.6629954569
 31
0.0
  0
LINE
  5
1AA
330
1F
100
AcDbEntity
  8
SLD-0
  6
Continuous
 62
   179
100
AcDbLine
 10
88.258817706
 20
146.6629954569
 30
0.0
 11
87.458817706
 21
146.6629954569
 31
0.0
  0
LINE
  5
1AB
330
1F
100
AcDbEntity
  8
SLD-0
  6
Continuous
 62
   179
100
AcDbLine
 10
87.458817706
 20
146.6629954569
 30
0.0
 11
87.458817706
 21
148.2629954569
 31
0.0
  0
LINE
  5
1AC
330
1F
100
AcDbEntity
  8
SLD-0
  6
Continuous
 62
   179
100
AcDbLine
 10
79.858817706
 20
148.2629954569
 30
0.0
 11
80.658817706
 21
148.2629954569
 31
0.0
  0
LINE
  5
1AD
330
1F
100
AcDbEntity
  8
SLD-0
  6
Continuous
 62
   179
100
AcDbLine
 10
80.658817706
 20
148.2629954569
 30
0.0
 11
80.658817706
 21
146.6629954569
 31
0.0
  0
LINE
  5
1AE
330
1F
100
AcDbEntity
  8
SLD-0
  6
Continuous
 62
   179
100
AcDbLine
 10
80.658817706
 20
146.6629954569
 30
0.0
 11
79.858817706
 21
146.6629954569
 31
0.0
  0
LINE
  5
1AF
330
1F
100
AcDbEntity
  8
SLD-0
  6
Continuous
 62
   179
100
AcDbLine
 10
79.858817706
 20
146.6629954569
 30
0.0
 11
79.858817706
 21
148.2629954569
 31
0.0
  0
LINE
  5
1B0
330
1F
100
AcDbEntity
  8
SLD-0
  6
Continuous
 62
   179
100
AcDbLine
 10
71.258817706
 20
177.0629954569
 30
0.0
 11
68.258817706
 21
177.0629954569
 31
0.0
  0
LINE
  5
1B1
330
1F
100
AcDbEntity
  8
SLD-0
  6
Continuous
 62
   179
100
AcDbLine
 10
69.809937706
 20
176.6747754569
 30
0.0
 11
71.258817706
 21
177.0629954569
 31
0.0
  0
LINE
  5
1B2
330
1F
100
AcDbEntity
  8
SLD-0
  6
Continuous
 62
   179
100
AcDbLine
 10
71.258817706
 20
177.0629954569
 30
0.0
 11
69.809937706
 21
177.4512154569
 31
0.0
  0
LINE
  5
1B3
330
1F
100
AcDbEntity
  8
SLD-0
  6
Continuous
 62
   179
100
AcDbLine
 10
75.658817706
 20
140.8629954569
 30
0.0
 11
75.658817706
 21
140.3629954569
 31
0.0
  0
LINE
  5
1B4
330
1F
100
AcDbEntity
  8
SLD-0
  6
Continuous
 62
   179
100
AcDbLine
 10
75.658817706
 20
140.3629954569
 30
0.0
 11
82.658817706
 21
140.3629954569
 31
0.0
  0
LINE
  5
1B5
330
1F
100
AcDbEntity
  8
SLD-0
  6
Continuous
 62
   179
100
AcDbLine
 10
82.658817706
 20
140.8629954569
 30
0.0
 11
82.658817706
 21
140.3629954569
 31
0.0
  0
LINE
  5
1B6
330
1F
100
AcDbEntity
  8
SLD-0
  6
Continuous
 62
   179
100
AcDbLine
 10
83.158817706
 20
140.8629954569
 30
0.0
 11
83.158817706
 21
140.3629954569
 31
0.0
  0
LINE
  5
1B7
330
1F
100
AcDbEntity
  8
SLD-0
  6
Continuous
 62
   179
100
AcDbLine
 10
83.158817706
 20
140.3629954569
 30
0.0
 11
90.158817706
 21
140.3629954569
 31
0.0
  0
LINE
  5
1B8
330
1F
100
AcDbEntity
  8
SLD-0
  6
Continuous
 62
   179
100
AcDbLine
 10
90.158817706
 20
140.8629954569
 30
0.0
 11
90.158817706
 21
140.3629954569
 31
0.0
  0
LINE
  5
1B9
330
1F
100
AcDbEntity
  8
SLD-0
  6
Continuous
 62
   179
100
AcDbLine
 10
90.658817706
 20
140.8629954569
 30
0.0
 11
90.658817706
 21
140.3629954569
 31
0.0
  0
LINE
  5
1BA
330
1F
100
AcDbEntity
  8
SLD-0
  6
Continuous
 62
   179
100
AcDbLine
 10
90.658817706
 20
140.3629954569
 30
0.0
 11
97.658817706
 21
140.3629954569
 31
0.0
  0
LINE
  5
1BB
330
1F
100
AcDbEntity
  8
SLD-0
  6
Continuous
 62
   179
100
AcDbLine
 10
97.658817706
 20
140.8629954569
 30
0.0
 11
97.658817706
 21
140.3629954569
 31
0.0
  0
LINE
  5
1BC
330
1F
100
AcDbEntity
  8
SLD-0
  6
Continuous
 62
   179
100
AcDbLine
 10
98.158817706
 20
140.8629954569
 30
0.0
 11
98.158817706
 21
140.3629954569
 31
0.0
  0
LINE
  5
1BD
330
1F
100
AcDbEntity
  8
SLD-0
  6
Continuous
 62
   179
100
AcDbLine
 10
98.158817706
 20
140.3629954569
 30
0.0
 11
105.158817706
 21
140.3629954569
 31
0.0
  0
LINE
  5
1BE
330
1F
100
AcDbEntity
  8
SLD-0
  6
Continuous
 62
   179
100
AcDbLine
 10
105.158817706
 20
140.8629954569
 30
0.0
 11
105.158817706
 21
140.3629954569
 31
0.0
  0
LINE
  5
1BF
330
1F
100
AcDbEntity
  8
SLD-0
  6
Continuous
 62
   179
100
AcDbLine
 10
113.158817706
 20
176.8629954569
 30
0.0
 11
113.158817706
 21
177.3629954569
 31
0.0
  0
LINE
  5
1C0
330
1F
100
AcDbEntity
  8
SLD-0
  6
Continuous
 62
   179
100
AcDbLine
 10
113.158817706
 20
177.3629954569
 30
0.0
 11
103.158817706
 21
177.3629954569
 31
0.0
  0
LINE
  5
1C1
330
1F
100
AcDbEntity
  8
SLD-0
  6
Continuous
 62
   179
100
AcDbLine
 10
103.158817706
 20
177.3629954569
 30
0.0
 11
103.158817706
 21
176.8629954569
 31
0.0
  0
LINE
  5
1C2
330
1F
100
AcDbEntity
  8
SLD-0
  6
Continuous
 62
   179
100
AcDbLine
 10
69.658817706
 20
152.8629954569
 30
0.0
 11
71.658817706
 21
152.8629954569
 31
0.0
  0
LINE
  5
1C3
330
1F
100
AcDbEntity
  8
SLD-0
  6
Continuous
 62
   179
100
AcDbLine
 10
71.658817706
 20
152.8629954569
 30
0.0
 11
71.658817706
 21
151.8629954569
 31
0.0
  0
LINE
  5
1C4
330
1F
100
AcDbEntity
  8
SLD-0
  6
Continuous
 62
   179
100
AcDbLine
 10
71.658817706
 20
151.8629954569
 30
0.0
 11
69.658817706
 21
151.8629954569
 31
0.0
  0
LINE
  5
1C5
330
1F
100
AcDbEntity
  8
SLD-0
  6
Continuous
 62
   179
100
AcDbLine
 10
69.658817706
 20
151.8629954569
 30
0.0
 11
69.658817706
 21
152.8629954569
 31
0.0
  0
LINE
  5
1C6
330
1F
100
AcDbEntity
  8
SLD-0
  6
Continuous
 62
   179
100
AcDbLine
 10
69.658817706
 20
155.4029954569
 30
0.0
 11
71.658817706
 21
155.4029954569
 31
0.0
  0
LINE
  5
1C7
330
1F
100
AcDbEntity
  8
SLD-0
  6
Continuous
 62
   179
100
AcDbLine
 10
71.658817706
 20
155.4029954569
 30
0.0
 11
71.658817706
 21
154.4029954569
 31
0.0
  0
LINE
  5
1C8
330
1F
100
AcDbEntity
  8
SLD-0
  6
Continuous
 62
   179
100
AcDbLine
 10
71.658817706
 20
154.4029954569
 30
0.0
 11
69.658817706
 21
154.4029954569
 31
0.0
  0
LINE
  5
1C9
330
1F
100
AcDbEntity
  8
SLD-0
  6
Continuous
 62
   179
100
AcDbLine
 10
69.658817706
 20
154.4029954569
 30
0.0
 11
69.658817706
 21
155.4029954569
 31
0.0
  0
LINE
  5
1CA
330
1F
100
AcDbEntity
  8
SLD-0
  6
Continuous
 62
   179
100
AcDbLine
 10
69.658817706
 20
157.9429954569
 30
0.0
 11
71.658817706
 21
157.9429954569
 31
0.0
  0
LINE
  5
1CB
330
1F
100
AcDbEntity
  8
SLD-0
  6
Continuous
 62
   179
100
AcDbLine
 10
71.658817706
 20
157.9429954569
 30
0.0
 11
71.658817706
 21
156.9429954569
 31
0.0
  0
LINE
  5
1CC
330
1F
100
AcDbEntity
  8
SLD-0
  6
Continuous
 62
   179
100
AcDbLine
 10
71.658817706
 20
156.9429954569
 30
0.0
 11
69.658817706
 21
156.9429954569
 31
0.0
  0
LINE
  5
1CD
330
1F
100
AcDbEntity
  8
SLD-0
  6
Continuous
 62
   179
100
AcDbLine
 10
69.658817706
 20
156.9429954569
 30
0.0
 11
69.658817706
 21
157.9429954569
 31
0.0
  0
LINE
  5
1CE
330
1F
100
AcDbEntity
  8
SLD-0
  6
Continuous
 62
   179
100
AcDbLine
 10
69.658817706
 20
160.4829954569
 30
0.0
 11
71.658817706
 21
160.4829954569
 31
0.0
  0
LINE
  5
1CF
330
1F
100
AcDbEntity
  8
SLD-0
  6
Continuous
 62
   179
100
AcDbLine
 10
71.658817706
 20
160.4829954569
 30
0.0
 11
71.658817706
 21
159.4829954569
 31
0.0
  0
LINE
  5
1D0
330
1F
100
AcDbEntity
  8
SLD-0
  6
Continuous
 62
   179
100
AcDbLine
 10
71.658817706
 20
159.4829954569
 30
0.0
 11
69.658817706
 21
159.4829954569
 31
0.0
  0
LINE
  5
1D1
330
1F
100
AcDbEntity
  8
SLD-0
  6
Continuous
 62
   179
100
AcDbLine
 10
69.658817706
 20
159.4829954569
 30
0.0
 11
69.658817706
 21
160.4829954569
 31
0.0
  0
LINE
  5
1D2
330
1F
100
AcDbEntity
  8
SLD-0
  6
Continuous
 62
   179
100
AcDbLine
 10
69.658817706
 20
163.0229954569
 30
0.0
 11
71.658817706
 21
163.0229954569
 31
0.0
  0
LINE
  5
1D3
330
1F
100
AcDbEntity
  8
SLD-0
  6
Continuous
 62
   179
100
AcDbLine
 10
71.658817706
 20
163.0229954569
 30
0.0
 11
71.658817706
 21
162.0229954569
 31
0.0
  0
LINE
  5
1D4
330
1F
100
AcDbEntity
  8
SLD-0
  6
Continuous
 62
   179
100
AcDbLine
 10
71.658817706
 20
162.0229954569
 30
0.0
 11
69.658817706
 21
162.0229954569
 31
0.0
  0
LINE
  5
1D5
330
1F
100
AcDbEntity
  8
SLD-0
  6
Continuous
 62
   179
100
AcDbLine
 10
69.658817706
 20
162.0229954569
 30
0.0
 11
69.658817706
 21
163.0229954569
 31
0.0
  0
LINE
  5
1D6
330
1F
100
AcDbEntity
  8
SLD-0
  6
Continuous
 62
   179
100
AcDbLine
 10
69.658817706
 20
165.5629954569
 30
0.0
 11
71.658817706
 21
165.5629954569
 31
0.0
  0
LINE
  5
1D7
330
1F
100
AcDbEntity
  8
SLD-0
  6
Continuous
 62
   179
100
AcDbLine
 10
71.658817706
 20
165.5629954569
 30
0.0
 11
71.658817706
 21
164.5629954569
 31
0.0
  0
LINE
  5
1D8
330
1F
100
AcDbEntity
  8
SLD-0
  6
Continuous
 62
   179
100
AcDbLine
 10
71.658817706
 20
164.5629954569
 30
0.0
 11
69.658817706
 21
164.5629954569
 31
0.0
  0
LINE
  5
1D9
330
1F
100
AcDbEntity
  8
SLD-0
  6
Continuous
 62
   179
100
AcDbLine
 10
69.658817706
 20
164.5629954569
 30
0.0
 11
69.658817706
 21
165.5629954569
 31
0.0
  0
LINE
  5
1DA
330
1F
100
AcDbEntity
  8
SLD-0
  6
Continuous
 62
   179
100
AcDbLine
 10
69.658817706
 20
168.1029954569
 30
0.0
 11
71.658817706
 21
168.1029954569
 31
0.0
  0
LINE
  5
1DB
330
1F
100
AcDbEntity
  8
SLD-0
  6
Continuous
 62
   179
100
AcDbLine
 10
71.658817706
 20
168.1029954569
 30
0.0
 11
71.658817706
 21
167.1029954569
 31
0.0
  0
LINE
  5
1DC
330
1F
100
AcDbEntity
  8
SLD-0
  6
Continuous
 62
   179
100
AcDbLine
 10
71.658817706
 20
167.1029954569
 30
0.0
 11
69.658817706
 21
167.1029954569
 31
0.0
  0
LINE
  5
1DD
330
1F
100
AcDbEntity
  8
SLD-0
  6
Continuous
 62
   179
100
AcDbLine
 10
69.658817706
 20
167.1029954569
 30
0.0
 11
69.658817706
 21
168.1029954569
 31
0.0
  0
LINE
  5
1DE
330
1F
100
AcDbEntity
  8
SLD-0
  6
Continuous
 62
   179
100
AcDbLine
 10
69.658817706
 20
170.6429954569
 30
0.0
 11
71.658817706
 21
170.6429954569
 31
0.0
  0
LINE
  5
1DF
330
1F
100
AcDbEntity
  8
SLD-0
  6
Continuous
 62
   179
100
AcDbLine
 10
71.658817706
 20
170.6429954569
 30
0.0
 11
71.658817706
 21
169.6429954569
 31
0.0
  0
LINE
  5
1E0
330
1F
100
AcDbEntity
  8
SLD-0
  6
Continuous
 62
   179
100
AcDbLine
 10
71.658817706
 20
169.6429954569
 30
0.0
 11
69.658817706
 21
169.6429954569
 31
0.0
  0
LINE
  5
1E1
330
1F
100
AcDbEntity
  8
SLD-0
  6
Continuous
 62
   179
100
AcDbLine
 10
69.658817706
 20
169.6429954569
 30
0.0
 11
69.658817706
 21
170.6429954569
 31
0.0
  0
LINE
  5
1E2
330
1F
100
AcDbEntity
  8
SLD-0_0
  6
Continuous
 62
   179
100
AcDbLine
 10
126.658817706
 20
138.8629954569
 30
0.0
 11
127.658817706
 21
139.8629954569
 31
0.0
  0
LINE
  5
1E3
330
1F
100
AcDbEntity
  8
SLD-0_0
  6
Continuous
 62
   179
100
AcDbLine
 10
55.658817706
 20
139.8629954569
 30
0.0
 11
55.658817706
 21
155.8629954569
 31
0.0
  0
LINE
  5
1E4
330
1F
100
AcDbEntity
  8
SLD-0
  6
Continuous
 62
   179
100
AcDbLine
 10
55.658817706
 20
161.8629954569
 30
0.0
 11
55.658817706
 21
177.8629954569
 31
0.0
  0
LINE
  5
1E5
330
1F
100
AcDbEntity
  8
SLD-0
  6
Continuous
 62
   179
100
AcDbLine
 10
58.658817706
 20
161.8629954569
 30
0.0
 11
55.658817706
 21
161.8629954569
 31
0.0
  0
LINE
  5
1E6
330
1F
100
AcDbEntity
  8
SLD-0
  6
Continuous
 62
   179
100
AcDbLine
 10
58.658817706
 20
155.8629954569
 30
0.0
 11
55.658817706
 21
155.8629954569
 31
0.0
  0
LINE
  5
1E7
330
1F
100
AcDbEntity
  8
SLD-0_0
  6
Continuous
 62
   179
100
AcDbLine
 10
56.658817706
 20
178.8629954569
 30
0.0
 11
55.658817706
 21
177.8629954569
 31
0.0
  0
LINE
  5
1E8
330
1F
100
AcDbEntity
  8
SLD-0_0
  6
Continuous
 62
   179
100
AcDbLine
 10
55.658817706
 20
139.8629954569
 30
0.0
 11
56.658817706
 21
138.8629954569
 31
0.0
  0
LINE
  5
1E9
330
1F
100
AcDbEntity
  8
SLD-0_0
  6
Continuous
 62
   179
100
AcDbLine
 10
126.658817706
 20
138.8629954569
 30
0.0
 11
56.658817706
 21
138.8629954569
 31
0.0
  0
LINE
  5
1EA
330
1F
100
AcDbEntity
  8
SLD-0_0
  6
Continuous
 62
   179
100
AcDbLine
 10
126.658817706
 20
178.8629954569
 30
0.0
 11
56.658817706
 21
178.8629954569
 31
0.0
  0
LINE
  5
1EB
330
1F
100
AcDbEntity
  8
SLD-0_0
  6
Continuous
 62
   179
100
AcDbLine
 10
127.658817706
 20
177.8629954569
 30
0.0
 11
126.658817706
 21
178.8629954569
 31
0.0
  0
LINE
  5
1EC
330
1F
100
AcDbEntity
  8
SLD-0_0
  6
Continuous
 62
   179
100
AcDbLine
 10
127.658817706
 20
139.8629954569
 30
0.0
 11
127.658817706
 21
155.8629954569
 31
0.0
  0
LINE
  5
1ED
330
1F
100
AcDbEntity
  8
SLD-0
  6
Continuous
 62
   179
100
AcDbLine
 10
127.658817706
 20
161.8629954569
 30
0.0
 11
127.658817706
 21
177.8629954569
 31
0.0
  0
LINE
  5
1EE
330
1F
100
AcDbEntity
  8
SLD-0
  6
Continuous
 62
   179
100
AcDbLine
 10
124.658817706
 20
161.8629954569
 30
0.0
 11
127.658817706
 21
161.8629954569
 31
0.0
  0
LINE
  5
1EF
330
1F
100
AcDbEntity
  8
SLD-0
  6
Continuous
 62
   179
100
AcDbLine
 10
124.658817706
 20
155.8629954569
 30
0.0
 11
127.658817706
 21
155.8629954569
 31
0.0
  0
LINE
  5
1F0
330
1F
100
AcDbEntity
  8
SLD-0_0
  6
Continuous
 62
   179
100
AcDbLine
 10
58.658817706
 20
158.8629954569
 30
0.0
 11
58.658817706
 21
160.8629954569
 31
0.0
  0
LINE
  5
1F1
330
1F
100
AcDbEntity
  8
SLD-0_0
  6
Continuous
 62
   179
100
AcDbLine
 10
58.658817706
 20
158.8629954569
 30
0.0
 11
58.658817706
 21
156.8629954569
 31
0.0
  0
LINE
  5
1F2
330
1F
100
AcDbEntity
  8
SLD-0_0
  6
Continuous
 62
   179
100
AcDbLine
 10
58.658817706
 20
158.8629954569
 30
0.0
 11
60.658817706
 21
158.8629954569
 31
0.0
  0
LINE
  5
1F3
330
1F
100
AcDbEntity
  8
SLD-0_0
  6
Continuous
 62
   179
100
AcDbLine
 10
58.658817706
 20
158.8629954569
 30
0.0
 11
56.658817706
 21
158.8629954569
 31
0.0
  0
LINE
  5
1F4
330
1F
100
AcDbEntity
  8
SLD-0_0
  6
Continuous
 62
   179
100
AcDbLine
 10
124.658817706
 20
158.8629954569
 30
0.0
 11
124.658817706
 21
160.8629954569
 31
0.0
  0
LINE
  5
1F5
330
1F
100
AcDbEntity
  8
SLD-0_0
  6
Continuous
 62
   179
100
AcDbLine
 10
124.658817706
 20
158.8629954569
 30
0.0
 11
124.658817706
 21
156.8629954569
 31
0.0
  0
LINE
  5
1F6
330
1F
100
AcDbEntity
  8
SLD-0_0
  6
Continuous
 62
   179
100
AcDbLine
 10
124.658817706
 20
158.8629954569
 30
0.0
 11
126.658817706
 21
158.8629954569
 31
0.0
  0
LINE
  5
1F7
330
1F
100
AcDbEntity
  8
SLD-0_0
  6
Continuous
 62
   179
100
AcDbLine
 10
124.658817706
 20
158.8629954569
 30
0.0
 11
122.658817706
 21
158.8629954569
 31
0.0
  0
LINE
  5
1F8
330
1F
100
AcDbEntity
  8
0
  6
Continuous
 62
     7
370
     0
100
AcDbLine
 10
20.2604743903
 20
285.0
 30
0.0
 11
196.7604743903
 21
285.0
 31
0.0
  0
LINE
  5
1F9
330
1F
100
AcDbEntity
  8
0
  6
Continuous
 62
     7
370
     0
100
AcDbLine
 10
20.2604743903
 20
285.0
 30
0.0
 11
20.2604743903
 21
10.0
 31
0.0
  0
LINE
  5
1FA
330
1F
100
AcDbEntity
  8
0
  6
Continuous
 62
     7
370
     0
100
AcDbLine
 10
20.2604743903
 20
10.0
 30
0.0
 11
196.7604743903
 21
10.0
 31
0.0
  0
LINE
  5
1FB
330
1F
100
AcDbEntity
  8
0
  6
Continuous
 62
     7
370
     0
100
AcDbLine
 10
196.7604743903
 20
285.0
 30
0.0
 11
196.7604743903
 21
10.0
 31
0.0
  0
LINE
  5
1FC
330
1F
100
AcDbEntity
  8
0
  6
Continuous
 62
     7
370
     0
100
AcDbLine
 10
127.0104743903
 20
50.75
 30
0.0
 11
196.7604743903
 21
50.75
 31
0.0
  0
LINE
  5
1FD
330
1F
100
AcDbEntity
  8
0
  6
Continuous
 62
     7
370
     0
100
AcDbLine
 10
127.0104743903
 20
50.75
 30
0.0
 11
127.0104743903
 21
10.0
 31
0.0
  0
LINE
  5
1FE
330
1F
100
AcDbEntity
  8
0
  6
Continuous
 62
     7
370
     0
100
AcDbLine
 10
127.0104743903
 20
22.75
 30
0.0
 11
196.7604743903
 21
22.75
 31
0.0
  0
LINE
  5
1FF
330
1F
100
AcDbEntity
  8
0
  6
Continuous
 62
     7
370
     0
100
AcDbLine
 10
127.0104743903
 20
36.75
 30
0.0
 11
196.7604743903
 21
36.75
 31
0.0
  0
CIRCLE
  5
200
330
1F
100
AcDbEntity
  8
画層1
  6
Continuous
 62
   179
100
AcDbCircle
 10
71.658817706
 20
145.8629954569
 30
0.0
 40
1.5
  0
CIRCLE
  5
201
330
1F
100
AcDbEntity
  8
画層1
  6
Continuous
 62
   179
100
AcDbCircle
 10
111.658817706
 20
145.8629954569
 30
0.0
 40
1.500000000000014
  0
CIRCLE
  5
202
330
1F
100
AcDbEntity
  8
画層1
  6
Continuous
 62
   179
100
AcDbCircle
 10
111.658817706
 20
145.8629954569
 30
0.0
 40
2.500000000000014
  0
CIRCLE
  5
203
330
1F
100
AcDbEntity
  8
画層1
  6
Continuous
 62
   179
100
AcDbCircle
 10
91.658817706
 20
171.8629954569
 30
0.0
 40
1.5
  0
CIRCLE
  5
204
330
1F
100
AcDbEntity
  8
画層1
  6
Continuous
 62
   179
100
AcDbCircle
 10
91.658817706
 20
171.8629954569
 30
0.0
 40
2.500000000000014
  0
CIRCLE
  5
205
330
1F
100
AcDbEntity
  8
画層1
  6
Continuous
 62
   179
100
AcDbCircle
 10
71.658817706
 20
145.8629954569
 30
0.0
 40
1.5
  0
ARC
  5
206
330
1F
100
AcDbEntity
  8
画層1
  6
Continuous
 62
   179
100
AcDbCircle
 10
69.158817706
 20
174.3629954569
 30
0.0
 40
1.000000000000057
100
AcDbArc
 50
89.9999999999
 51
180.0
  0
ARC
  5
207
330
1F
100
AcDbEntity
  8
画層1
  6
Continuous
 62
   179
100
AcDbCircle
 10
72.658817706
 20
174.3629954569
 30
0.0
 40
1.000000000000114
100
AcDbArc
 50
0.0000000001
 51
89.9999999999
  0
ARC
  5
208
330
1F
100
AcDbEntity
  8
画層1
  6
Continuous
 62
   179
100
AcDbCircle
 10
69.158817706
 20
150.8629954569
 30
0.0
 40
1.0
100
AcDbArc
 50
180.0
 51
270.0
  0
ARC
  5
209
330
1F
100
AcDbEntity
  8
画層1
  6
Continuous
 62
   179
100
AcDbCircle
 10
72.658817706
 20
150.8629954569
 30
0.0
 40
1.000000000000114
100
AcDbArc
 50
270.0
 51
0.0000000001
  0
CIRCLE
  5
20A
330
1F
100
AcDbEntity
  8
画層1
  6
Continuous
 62
   179
100
AcDbCircle
 10
111.658817706
 20
145.8629954569
 30
0.0
 40
1.5
  0
CIRCLE
  5
20B
330
1F
100
AcDbEntity
  8
画層1
  6
Continuous
 62
   179
100
AcDbCircle
 10
91.658817706
 20
171.8629954569
 30
0.0
 40
1.5
  0
CIRCLE
  5
20C
330
1F
100
AcDbEntity
  8
画層1
  6
Continuous
 62
   179
100
AcDbCircle
 10
71.658817706
 20
145.8629954569
 30
0.0
 40
2.5
  0
CIRCLE
  5
20D
330
1F
100
AcDbEntity
  8
SLD-0
  6
Continuous
 62
   179
100
AcDbCircle
 10
71.658817706
 20
145.8629954569
 30
0.0
 40
1.500000000000313
  0
CIRCLE
  5
20E
330
1F
100
AcDbEntity
  8
SLD-0
  6
Continuous
 62
   179
100
AcDbCircle
 10
71.658817706
 20
145.8629954569
 30
0.0
 40
2.500000000000313
  0
CIRCLE
  5
20F
330
1F
100
AcDbEntity
  8
SLD-0
  6
Continuous
 62
   179
100
AcDbCircle
 10
111.658817706
 20
145.8629954569
 30
0.0
 40
1.5
  0
CIRCLE
  5
210
330
1F
100
AcDbEntity
  8
SLD-0
  6
Continuous
 62
   179
100
AcDbCircle
 10
111.658817706
 20
145.8629954569
 30
0.0
 40
2.5
  0
ARC
  5
211
330
1F
100
AcDbEntity
  8
SLD-0
  6
Continuous
 62
   179
100
AcDbCircle
 10
58.658817706
 20
158.8629954569
 30
0.0
 40
3.0
100
AcDbArc
 50
270.0
 51
0.0
  0
ARC
  5
212
330
1F
100
AcDbEntity
  8
SLD-0
  6
Continuous
 62
   179
100
AcDbCircle
 10
58.658817706
 20
158.8629954569
 30
0.0
 40
3.0
100
AcDbArc
 50
0.0
 51
90.0
  0
ARC
  5
213
330
1F
100
AcDbEntity
  8
SLD-0
  6
Continuous
 62
   179
100
AcDbCircle
 10
124.658817706
 20
158.8629954569
 30
0.0
 40
3.0
100
AcDbArc
 50
90.0
 51
270.0
  0
CIRCLE
  5
214
330
1F
100
AcDbEntity
  8
SLD-0
  6
Continuous
 62
   179
100
AcDbCircle
 10
91.658817706
 20
171.8629954569
 30
0.0
 40
1.499999999999915
  0
CIRCLE
  5
215
330
1F
100
AcDbEntity
  8
SLD-0
  6
Continuous
 62
   179
100
AcDbCircle
 10
91.658817706
 20
171.8629954569
 30
0.0
 40
2.499999999999915
  0
MTEXT
  5
217
330
1F
100
AcDbEntity
  8
SLD-0_0
100
AcDbMText
 10
91.6643732935
 20
200.8377197587
 30
0.0
 40
4.0
 41
0.0
 71
     2
 72
     1
  1
72
  7
SLDTEXTSTYLE0
 73
     1
 44
1.0
  0
MTEXT
  5
218
330
1F
100
AcDbEntity
  8
SLD-0_0
100
AcDbMText
 10
91.6643732935
 20
190.8377197587
 30
0.0
 40
4.0
 41
0.0
 71
     2
 72
     1
  1
66
  7
SLDTEXTSTYLE0
 73
     1
 44
1.0
  0
MTEXT
  5
219
330
1F
100
AcDbEntity
  8
SLD-0_0
100
AcDbMText
 10
38.6945635052
 20
158.8251482459
 30
0.0
 40
4.0
 41
0.0
 71
     2
 72
     1
  1
40
  7
SLDTEXTSTYLE0
 11
6.123233995736766E-17
 21
1.0
 31
0.0
 73
     1
 44
1.0
  0
MTEXT
  5
21A
330
1F
100
AcDbEntity
  8
SLD-0_0
100
AcDbMText
 10
44.8284527235
 20
158.8657732506
 30
0.0
 40
4.0
 41
0.0
 71
     2
 72
     1
  1
6
  7
SLDTEXTSTYLE0
 11
6.123233995736766E-17
 21
1.0
 31
0.0
 73
     1
 44
1.0
  0
MTEXT
  5
21B
330
1F
100
AcDbEntity
  8
SLD-0_0
100
AcDbMText
 10
151.551099361
 20
190.8377197587
 30
0.0
 40
4.0
 41
0.0
 71
     2
 72
     1
  1
20
  7
SLDTEXTSTYLE0
 73
     1
 44
1.0
  0
MTEXT
  5
21C
330
1F
100
AcDbEntity
  8
SLD-0_0
100
AcDbMText
 10
44.924965249
 20
170.6626751611
 30
0.0
 40
4.0
 41
0.0
 71
     2
 72
     1
  1
17
  7
SLDTEXTSTYLE0
 11
6.123233995736766E-17
 21
1.0
 31
0.0
 73
     1
 44
1.0
  0
MTEXT
  5
21E
330
1F
100
AcDbEntity
  8
SLD-0
 62
   179
100
AcDbMText
 10
107.0328715264
 20
165.8629954569
 30
0.0
 40
3.0
 41
0.0
 71
     1
 72
     1
  1
O
  7
SLDTEXTSTYLE1
 11
6.123233995736766E-17
 21
1.0
 31
0.0
 73
     1
 44
1.0
  0
MTEXT
  5
21F
330
1F
100
AcDbEntity
  8
SLD-0
 62
   179
100
AcDbMText
 10
107.0328715264
 20
166.8629954569
 30
0.0
 40
3.0
 41
0.0
 71
     1
 72
     1
  1
U
  7
SLDTEXTSTYLE1
 11
6.123233995736766E-17
 21
1.0
 31
0.0
 73
     1
 44
1.0
  0
MTEXT
  5
220
330
1F
100
AcDbEntity
  8
SLD-0
 62
   179
100
AcDbMText
 10
107.0328715264
 20
167.8629954569
 30
0.0
 40
3.0
 41
0.0
 71
     1
 72
     1
  1
T
  7
SLDTEXTSTYLE1
 11
6.123233995736766E-17
 21
1.0
 31
0.0
 73
     1
 44
1.0
  0
MTEXT
  5
222
330
1F
100
AcDbEntity
  8
SLD-0
 62
   179
100
AcDbMText
 10
64.3916144831
 20
156.8629954569
 30
0.0
 40
3.0
 41
0.0
 71
     1
 72
     1
  1
Ｓ
  7
SLDTEXTSTYLE2
 11
6.123233995736766E-17
 21
1.0
 31
0.0
 73
     1
 44
1.0
  0
MTEXT
  5
223
330
1F
100
AcDbEntity
  8
SLD-0
 62
   179
100
AcDbMText
 10
64.3916144831
 20
158.8629954569
 30
0.0
 40
3.0
 41
0.0
 71
     1
 72
     1
  1
Ｅ
  7
SLDTEXTSTYLE2
 11
6.123233995736766E-17
 21
1.0
 31
0.0
 73
     1
 44
1.0
  0
MTEXT
  5
224
330
1F
100
AcDbEntity
  8
SLD-0
 62
   179
100
AcDbMText
 10
64.3916144831
 20
160.8629954569
 30
0.0
 40
3.0
 41
0.0
 71
     1
 72
     1
  1
Ｌ
  7
SLDTEXTSTYLE2
 11
6.123233995736766E-17
 21
1.0
 31
0.0
 73
     1
 44
1.0
  0
MTEXT
  5
225
330
1F
100
AcDbEntity
  8
SLD-0
 62
   179
100
AcDbMText
 10
64.3916144831
 20
162.8629954569
 30
0.0
 40
3.0
 41
0.0
 71
     1
 72
     1
  1
Ｅ
  7
SLDTEXTSTYLE2
 11
6.123233995736766E-17
 21
1.0
 31
0.0
 73
     1
 44
1.0
  0
MTEXT
  5
226
330
1F
100
AcDbEntity
  8
SLD-0
 62
   179
100
AcDbMText
 10
64.3916144831
 20
164.8629954569
 30
0.0
 40
3.0
 41
0.0
 71
     1
 72
     1
  1
Ｃ
  7
SLDTEXTSTYLE2
 11
6.123233995736766E-17
 21
1.0
 31
0.0
 73
     1
 44
1.0
  0
MTEXT
  5
227
330
1F
100
AcDbEntity
  8
SLD-0
 62
   179
100
AcDbMText
 10
64.3916144831
 20
166.8629954569
 30
0.0
 40
3.0
 41
0.0
 71
     1
 72
     1
  1
Ｔ
  7
SLDTEXTSTYLE2
 11
6.123233995736766E-17
 21
1.0
 31
0.0
 73
     1
 44
1.0
  0
MTEXT
  5
228
330
1F
100
AcDbEntity
  8
SLD-0
 62
   179
100
AcDbMText
 10
72.058817706
 20
178.1624382836
 30
0.0
 40
3.0
 41
0.0
 71
     1
 72
     1
  1
O
  7
SLDTEXTSTYLE1
 73
     1
 44
1.0
  0
MTEXT
  5
229
330
1F
100
AcDbEntity
  8
SLD-0
 62
   179
100
AcDbMText
 10
73.058817706
 20
178.1624382836
 30
0.0
 40
3.0
 41
0.0
 71
     1
 72
     1
  1
N
  7
SLDTEXTSTYLE1
 73
     1
 44
1.0
  0
MTEXT
  5
22A
330
1F
100
AcDbEntity
  8
SLD-0
 62
   179
100
AcDbMText
 10
77.9738178557
 20
141.3629954569
 30
0.0
 40
3.0
 41
0.0
 71
     1
 72
     1
  1
I
  7
SLDTEXTSTYLE1
 11
6.123233995736766E-17
 21
1.0
 31
0.0
 73
     1
 44
1.0
  0
MTEXT
  5
22B
330
1F
100
AcDbEntity
  8
SLD-0
 62
   179
100
AcDbMText
 10
77.9738178557
 20
142.3629954569
 30
0.0
 40
3.0
 41
0.0
 71
     1
 72
     1
  1
N
  7
SLDTEXTSTYLE1
 11
6.123233995736766E-17
 21
1.0
 31
0.0
 73
     1
 44
1.0
  0
MTEXT
  5
22C
330
1F
100
AcDbEntity
  8
SLD-0
 62
   179
100
AcDbMText
 10
77.9738178557
 20
143.3629954569
 30
0.0
 40
3.0
 41
0.0
 71
     1
 72
     1
  1
1
  7
SLDTEXTSTYLE1
 11
6.123233995736766E-17
 21
1.0
 31
0.0
 73
     1
 44
1.0
  0
MTEXT
  5
22D
330
1F
100
AcDbEntity
  8
SLD-0
 62
   179
100
AcDbMText
 10
80.4738178557
 20
141.3629954569
 30
0.0
 40
3.0
 41
0.0
 71
     1
 72
     1
  1
G
  7
SLDTEXTSTYLE1
 11
6.123233995736766E-17
 21
1.0
 31
0.0
 73
     1
 44
1.0
  0
MTEXT
  5
22E
330
1F
100
AcDbEntity
  8
SLD-0
 62
   179
100
AcDbMText
 10
80.4738178557
 20
142.3629954569
 30
0.0
 40
3.0
 41
0.0
 71
     1
 72
     1
  1
N
  7
SLDTEXTSTYLE1
 11
6.123233995736766E-17
 21
1.0
 31
0.0
 73
     1
 44
1.0
  0
MTEXT
  5
22F
330
1F
100
AcDbEntity
  8
SLD-0
 62
   179
100
AcDbMText
 10
80.4738178557
 20
143.3629954569
 30
0.0
 40
3.0
 41
0.0
 71
     1
 72
     1
  1
D
  7
SLDTEXTSTYLE1
 11
6.123233995736766E-17
 21
1.0
 31
0.0
 73
     1
 44
1.0
  0
MTEXT
  5
230
330
1F
100
AcDbEntity
  8
SLD-0
 62
   179
100
AcDbMText
 10
82.9738178557
 20
141.3629954569
 30
0.0
 40
3.0
 41
0.0
 71
     1
 72
     1
  1
2
  7
SLDTEXTSTYLE1
 11
6.123233995736766E-17
 21
1.0
 31
0.0
 73
     1
 44
1.0
  0
MTEXT
  5
231
330
1F
100
AcDbEntity
  8
SLD-0
 62
   179
100
AcDbMText
 10
82.9738178557
 20
142.3629954569
 30
0.0
 40
3.0
 41
0.0
 71
     1
 72
     1
  1
4
  7
SLDTEXTSTYLE1
 11
6.123233995736766E-17
 21
1.0
 31
0.0
 73
     1
 44
1.0
  0
MTEXT
  5
232
330
1F
100
AcDbEntity
  8
SLD-0
 62
   179
100
AcDbMText
 10
82.9738178557
 20
143.3629954569
 30
0.0
 40
3.0
 41
0.0
 71
     1
 72
     1
  1
V
  7
SLDTEXTSTYLE1
 11
6.123233995736766E-17
 21
1.0
 31
0.0
 73
     1
 44
1.0
  0
MTEXT
  5
233
330
1F
100
AcDbEntity
  8
SLD-0
 62
   179
100
AcDbMText
 10
85.4738178557
 20
141.3629954569
 30
0.0
 40
3.0
 41
0.0
 71
     1
 72
     1
  1
I
  7
SLDTEXTSTYLE1
 11
6.123233995736766E-17
 21
1.0
 31
0.0
 73
     1
 44
1.0
  0
MTEXT
  5
234
330
1F
100
AcDbEntity
  8
SLD-0
 62
   179
100
AcDbMText
 10
85.4738178557
 20
142.3629954569
 30
0.0
 40
3.0
 41
0.0
 71
     1
 72
     1
  1
N
  7
SLDTEXTSTYLE1
 11
6.123233995736766E-17
 21
1.0
 31
0.0
 73
     1
 44
1.0
  0
MTEXT
  5
235
330
1F
100
AcDbEntity
  8
SLD-0
 62
   179
100
AcDbMText
 10
85.4738178557
 20
143.3629954569
 30
0.0
 40
3.0
 41
0.0
 71
     1
 72
     1
  1
2
  7
SLDTEXTSTYLE1
 11
6.123233995736766E-17
 21
1.0
 31
0.0
 73
     1
 44
1.0
  0
MTEXT
  5
236
330
1F
100
AcDbEntity
  8
SLD-0
 62
   179
100
AcDbMText
 10
87.9738178557
 20
141.3629954569
 30
0.0
 40
3.0
 41
0.0
 71
     1
 72
     1
  1
G
  7
SLDTEXTSTYLE1
 11
6.123233995736766E-17
 21
1.0
 31
0.0
 73
     1
 44
1.0
  0
MTEXT
  5
237
330
1F
100
AcDbEntity
  8
SLD-0
 62
   179
100
AcDbMText
 10
87.9738178557
 20
142.3629954569
 30
0.0
 40
3.0
 41
0.0
 71
     1
 72
     1
  1
N
  7
SLDTEXTSTYLE1
 11
6.123233995736766E-17
 21
1.0
 31
0.0
 73
     1
 44
1.0
  0
MTEXT
  5
238
330
1F
100
AcDbEntity
  8
SLD-0
 62
   179
100
AcDbMText
 10
87.9738178557
 20
143.3629954569
 30
0.0
 40
3.0
 41
0.0
 71
     1
 72
     1
  1
D
  7
SLDTEXTSTYLE1
 11
6.123233995736766E-17
 21
1.0
 31
0.0
 73
     1
 44
1.0
  0
MTEXT
  5
239
330
1F
100
AcDbEntity
  8
SLD-0
 62
   179
100
AcDbMText
 10
90.4738178557
 20
141.3629954569
 30
0.0
 40
3.0
 41
0.0
 71
     1
 72
     1
  1
2
  7
SLDTEXTSTYLE1
 11
6.123233995736766E-17
 21
1.0
 31
0.0
 73
     1
 44
1.0
  0
MTEXT
  5
23A
330
1F
100
AcDbEntity
  8
SLD-0
 62
   179
100
AcDbMText
 10
90.4738178557
 20
142.3629954569
 30
0.0
 40
3.0
 41
0.0
 71
     1
 72
     1
  1
4
  7
SLDTEXTSTYLE1
 11
6.123233995736766E-17
 21
1.0
 31
0.0
 73
     1
 44
1.0
  0
MTEXT
  5
23B
330
1F
100
AcDbEntity
  8
SLD-0
 62
   179
100
AcDbMText
 10
90.4738178557
 20
143.3629954569
 30
0.0
 40
3.0
 41
0.0
 71
     1
 72
     1
  1
V
  7
SLDTEXTSTYLE1
 11
6.123233995736766E-17
 21
1.0
 31
0.0
 73
     1
 44
1.0
  0
MTEXT
  5
23C
330
1F
100
AcDbEntity
  8
SLD-0
 62
   179
100
AcDbMText
 10
92.9738178557
 20
141.3629954569
 30
0.0
 40
3.0
 41
0.0
 71
     1
 72
     1
  1
I
  7
SLDTEXTSTYLE1
 11
6.123233995736766E-17
 21
1.0
 31
0.0
 73
     1
 44
1.0
  0
MTEXT
  5
23D
330
1F
100
AcDbEntity
  8
SLD-0
 62
   179
100
AcDbMText
 10
92.9738178557
 20
142.3629954569
 30
0.0
 40
3.0
 41
0.0
 71
     1
 72
     1
  1
N
  7
SLDTEXTSTYLE1
 11
6.123233995736766E-17
 21
1.0
 31
0.0
 73
     1
 44
1.0
  0
MTEXT
  5
23E
330
1F
100
AcDbEntity
  8
SLD-0
 62
   179
100
AcDbMText
 10
92.9738178557
 20
143.3629954569
 30
0.0
 40
3.0
 41
0.0
 71
     1
 72
     1
  1
3
  7
SLDTEXTSTYLE1
 11
6.123233995736766E-17
 21
1.0
 31
0.0
 73
     1
 44
1.0
  0
MTEXT
  5
23F
330
1F
100
AcDbEntity
  8
SLD-0
 62
   179
100
AcDbMText
 10
95.4738178557
 20
141.3629954569
 30
0.0
 40
3.0
 41
0.0
 71
     1
 72
     1
  1
G
  7
SLDTEXTSTYLE1
 11
6.123233995736766E-17
 21
1.0
 31
0.0
 73
     1
 44
1.0
  0
MTEXT
  5
240
330
1F
100
AcDbEntity
  8
SLD-0
 62
   179
100
AcDbMText
 10
95.4738178557
 20
142.3629954569
 30
0.0
 40
3.0
 41
0.0
 71
     1
 72
     1
  1
N
  7
SLDTEXTSTYLE1
 11
6.123233995736766E-17
 21
1.0
 31
0.0
 73
     1
 44
1.0
  0
MTEXT
  5
241
330
1F
100
AcDbEntity
  8
SLD-0
 62
   179
100
AcDbMText
 10
95.4738178557
 20
143.3629954569
 30
0.0
 40
3.0
 41
0.0
 71
     1
 72
     1
  1
D
  7
SLDTEXTSTYLE1
 11
6.123233995736766E-17
 21
1.0
 31
0.0
 73
     1
 44
1.0
  0
MTEXT
  5
242
330
1F
100
AcDbEntity
  8
SLD-0
 62
   179
100
AcDbMText
 10
97.9738178557
 20
141.3629954569
 30
0.0
 40
3.0
 41
0.0
 71
     1
 72
     1
  1
2
  7
SLDTEXTSTYLE1
 11
6.123233995736766E-17
 21
1.0
 31
0.0
 73
     1
 44
1.0
  0
MTEXT
  5
243
330
1F
100
AcDbEntity
  8
SLD-0
 62
   179
100
AcDbMText
 10
97.9738178557
 20
142.3629954569
 30
0.0
 40
3.0
 41
0.0
 71
     1
 72
     1
  1
4
  7
SLDTEXTSTYLE1
 11
6.123233995736766E-17
 21
1.0
 31
0.0
 73
     1
 44
1.0
  0
MTEXT
  5
244
330
1F
100
AcDbEntity
  8
SLD-0
 62
   179
100
AcDbMText
 10
97.9738178557
 20
143.3629954569
 30
0.0
 40
3.0
 41
0.0
 71
     1
 72
     1
  1
V
  7
SLDTEXTSTYLE1
 11
6.123233995736766E-17
 21
1.0
 31
0.0
 73
     1
 44
1.0
  0
MTEXT
  5
245
330
1F
100
AcDbEntity
  8
SLD-0
 62
   179
100
AcDbMText
 10
100.4738178557
 20
141.3629954569
 30
0.0
 40
3.0
 41
0.0
 71
     1
 72
     1
  1
I
  7
SLDTEXTSTYLE1
 11
6.123233995736766E-17
 21
1.0
 31
0.0
 73
     1
 44
1.0
  0
MTEXT
  5
246
330
1F
100
AcDbEntity
  8
SLD-0
 62
   179
100
AcDbMText
 10
100.4738178557
 20
142.3629954569
 30
0.0
 40
3.0
 41
0.0
 71
     1
 72
     1
  1
N
  7
SLDTEXTSTYLE1
 11
6.123233995736766E-17
 21
1.0
 31
0.0
 73
     1
 44
1.0
  0
MTEXT
  5
247
330
1F
100
AcDbEntity
  8
SLD-0
 62
   179
100
AcDbMText
 10
100.4738178557
 20
143.3629954569
 30
0.0
 40
3.0
 41
0.0
 71
     1
 72
     1
  1
4
  7
SLDTEXTSTYLE1
 11
6.123233995736766E-17
 21
1.0
 31
0.0
 73
     1
 44
1.0
  0
MTEXT
  5
248
330
1F
100
AcDbEntity
  8
SLD-0
 62
   179
100
AcDbMText
 10
102.9738178557
 20
141.3629954569
 30
0.0
 40
3.0
 41
0.0
 71
     1
 72
     1
  1
G
  7
SLDTEXTSTYLE1
 11
6.123233995736766E-17
 21
1.0
 31
0.0
 73
     1
 44
1.0
  0
MTEXT
  5
249
330
1F
100
AcDbEntity
  8
SLD-0
 62
   179
100
AcDbMText
 10
102.9738178557
 20
142.3629954569
 30
0.0
 40
3.0
 41
0.0
 71
     1
 72
     1
  1
N
  7
SLDTEXTSTYLE1
 11
6.123233995736766E-17
 21
1.0
 31
0.0
 73
     1
 44
1.0
  0
MTEXT
  5
24A
330
1F
100
AcDbEntity
  8
SLD-0
 62
   179
100
AcDbMText
 10
102.9738178557
 20
143.3629954569
 30
0.0
 40
3.0
 41
0.0
 71
     1
 72
     1
  1
D
  7
SLDTEXTSTYLE1
 11
6.123233995736766E-17
 21
1.0
 31
0.0
 73
     1
 44
1.0
  0
MTEXT
  5
24B
330
1F
100
AcDbEntity
  8
SLD-0
 62
   179
100
AcDbMText
 10
75.4738178557
 20
141.3629954569
 30
0.0
 40
3.0
 41
0.0
 71
     1
 72
     1
  1
2
  7
SLDTEXTSTYLE1
 11
6.123233995736766E-17
 21
1.0
 31
0.0
 73
     1
 44
1.0
  0
MTEXT
  5
24C
330
1F
100
AcDbEntity
  8
SLD-0
 62
   179
100
AcDbMText
 10
75.4738178557
 20
142.3629954569
 30
0.0
 40
3.0
 41
0.0
 71
     1
 72
     1
  1
4
  7
SLDTEXTSTYLE1
 11
6.123233995736766E-17
 21
1.0
 31
0.0
 73
     1
 44
1.0
  0
MTEXT
  5
24D
330
1F
100
AcDbEntity
  8
SLD-0
 62
   179
100
AcDbMText
 10
75.4738178557
 20
143.3629954569
 30
0.0
 40
3.0
 41
0.0
 71
     1
 72
     1
  1
V
  7
SLDTEXTSTYLE1
 11
6.123233995736766E-17
 21
1.0
 31
0.0
 73
     1
 44
1.0
  0
MTEXT
  5
24E
330
1F
100
AcDbEntity
  8
SLD-0
 62
   179
100
AcDbMText
 10
74.658817706
 20
153.5324546035
 30
0.0
 40
3.0
 41
0.0
 71
     1
 72
     1
  1
I
  7
SLDTEXTSTYLE1
 73
     1
 44
1.0
  0
MTEXT
  5
24F
330
1F
100
AcDbEntity
  8
SLD-0
 62
   179
100
AcDbMText
 10
75.825477706
 20
153.5324546035
 30
0.0
 40
3.0
 41
0.0
 71
     1
 72
     1
  1
N
  7
SLDTEXTSTYLE1
 73
     1
 44
1.0
  0
MTEXT
  5
250
330
1F
100
AcDbEntity
  8
SLD-0
 62
   179
100
AcDbMText
 10
76.992147706
 20
153.5324546035
 30
0.0
 40
3.0
 41
0.0
 71
     1
 72
     1
  1
1
  7
SLDTEXTSTYLE1
 73
     1
 44
1.0
  0
MTEXT
  5
251
330
1F
100
AcDbEntity
  8
SLD-0
 62
   179
100
AcDbMText
 10
74.658817706
 20
156.1324546035
 30
0.0
 40
3.0
 41
0.0
 71
     1
 72
     1
  1
I
  7
SLDTEXTSTYLE1
 73
     1
 44
1.0
  0
MTEXT
  5
252
330
1F
100
AcDbEntity
  8
SLD-0
 62
   179
100
AcDbMText
 10
75.825477706
 20
156.1324546035
 30
0.0
 40
3.0
 41
0.0
 71
     1
 72
     1
  1
N
  7
SLDTEXTSTYLE1
 73
     1
 44
1.0
  0
MTEXT
  5
253
330
1F
100
AcDbEntity
  8
SLD-0
 62
   179
100
AcDbMText
 10
76.992147706
 20
156.1324546035
 30
0.0
 40
3.0
 41
0.0
 71
     1
 72
     1
  1
2
  7
SLDTEXTSTYLE1
 73
     1
 44
1.0
  0
MTEXT
  5
254
330
1F
100
AcDbEntity
  8
SLD-0
 62
   179
100
AcDbMText
 10
74.658817706
 20
158.7324546035
 30
0.0
 40
3.0
 41
0.0
 71
     1
 72
     1
  1
I
  7
SLDTEXTSTYLE1
 73
     1
 44
1.0
  0
MTEXT
  5
255
330
1F
100
AcDbEntity
  8
SLD-0
 62
   179
100
AcDbMText
 10
75.825477706
 20
158.7324546035
 30
0.0
 40
3.0
 41
0.0
 71
     1
 72
     1
  1
N
  7
SLDTEXTSTYLE1
 73
     1
 44
1.0
  0
MTEXT
  5
256
330
1F
100
AcDbEntity
  8
SLD-0
 62
   179
100
AcDbMText
 10
76.992147706
 20
158.7324546035
 30
0.0
 40
3.0
 41
0.0
 71
     1
 72
     1
  1
3
  7
SLDTEXTSTYLE1
 73
     1
 44
1.0
  0
MTEXT
  5
257
330
1F
100
AcDbEntity
  8
SLD-0
 62
   179
100
AcDbMText
 10
74.658817706
 20
161.3324546035
 30
0.0
 40
3.0
 41
0.0
 71
     1
 72
     1
  1
I
  7
SLDTEXTSTYLE1
 73
     1
 44
1.0
  0
MTEXT
  5
258
330
1F
100
AcDbEntity
  8
SLD-0
 62
   179
100
AcDbMText
 10
75.825477706
 20
161.3324546035
 30
0.0
 40
3.0
 41
0.0
 71
     1
 72
     1
  1
N
  7
SLDTEXTSTYLE1
 73
     1
 44
1.0
  0
MTEXT
  5
259
330
1F
100
AcDbEntity
  8
SLD-0
 62
   179
100
AcDbMText
 10
76.992147706
 20
161.3324546035
 30
0.0
 40
3.0
 41
0.0
 71
     1
 72
     1
  1
4
  7
SLDTEXTSTYLE1
 73
     1
 44
1.0
  0
MTEXT
  5
25A
330
1F
100
AcDbEntity
  8
SLD-0
 62
   179
100
AcDbMText
 10
74.658817706
 20
163.8324546035
 30
0.0
 40
3.0
 41
0.0
 71
     1
 72
     1
  1
I
  7
SLDTEXTSTYLE1
 73
     1
 44
1.0
  0
MTEXT
  5
25B
330
1F
100
AcDbEntity
  8
SLD-0
 62
   179
100
AcDbMText
 10
75.825477706
 20
163.8324546035
 30
0.0
 40
3.0
 41
0.0
 71
     1
 72
     1
  1
N
  7
SLDTEXTSTYLE1
 73
     1
 44
1.0
  0
MTEXT
  5
25C
330
1F
100
AcDbEntity
  8
SLD-0
 62
   179
100
AcDbMText
 10
76.992147706
 20
163.8324546035
 30
0.0
 40
3.0
 41
0.0
 71
     1
 72
     1
  1
-
  7
SLDTEXTSTYLE1
 73
     1
 44
1.0
  0
MTEXT
  5
25D
330
1F
100
AcDbEntity
  8
SLD-0
 62
   179
100
AcDbMText
 10
78.158817706
 20
163.8324546035
 30
0.0
 40
3.0
 41
0.0
 71
     1
 72
     1
  1
N
  7
SLDTEXTSTYLE1
 73
     1
 44
1.0
  0
MTEXT
  5
25E
330
1F
100
AcDbEntity
  8
SLD-0
 62
   179
100
AcDbMText
 10
79.325477706
 20
163.8324546035
 30
0.0
 40
3.0
 41
0.0
 71
     1
 72
     1
  1
/
  7
SLDTEXTSTYLE1
 73
     1
 44
1.0
  0
MTEXT
  5
25F
330
1F
100
AcDbEntity
  8
SLD-0
 62
   179
100
AcDbMText
 10
80.492147706
 20
163.8324546035
 30
0.0
 40
3.0
 41
0.0
 71
     1
 72
     1
  1
P
  7
SLDTEXTSTYLE1
 73
     1
 44
1.0
  0
MTEXT
  5
260
330
1F
100
AcDbEntity
  8
SLD-0
 62
   179
100
AcDbMText
 10
74.658817706
 20
166.3324546035
 30
0.0
 40
3.0
 41
0.0
 71
     1
 72
     1
  1
O
  7
SLDTEXTSTYLE1
 73
     1
 44
1.0
  0
MTEXT
  5
261
330
1F
100
AcDbEntity
  8
SLD-0
 62
   179
100
AcDbMText
 10
75.801667706
 20
166.3324546035
 30
0.0
 40
3.0
 41
0.0
 71
     1
 72
     1
  1
U
  7
SLDTEXTSTYLE1
 73
     1
 44
1.0
  0
MTEXT
  5
262
330
1F
100
AcDbEntity
  8
SLD-0
 62
   179
100
AcDbMText
 10
76.944527706
 20
166.3324546035
 30
0.0
 40
3.0
 41
0.0
 71
     1
 72
     1
  1
T
  7
SLDTEXTSTYLE1
 73
     1
 44
1.0
  0
MTEXT
  5
263
330
1F
100
AcDbEntity
  8
SLD-0
 62
   179
100
AcDbMText
 10
78.087387706
 20
166.3324546035
 30
0.0
 40
3.0
 41
0.0
 71
     1
 72
     1
  1
-
  7
SLDTEXTSTYLE1
 73
     1
 44
1.0
  0
MTEXT
  5
264
330
1F
100
AcDbEntity
  8
SLD-0
 62
   179
100
AcDbMText
 10
79.230237706
 20
166.3324546035
 30
0.0
 40
3.0
 41
0.0
 71
     1
 72
     1
  1
N
  7
SLDTEXTSTYLE1
 73
     1
 44
1.0
  0
MTEXT
  5
265
330
1F
100
AcDbEntity
  8
SLD-0
 62
   179
100
AcDbMText
 10
80.373097706
 20
166.3324546035
 30
0.0
 40
3.0
 41
0.0
 71
     1
 72
     1
  1
/
  7
SLDTEXTSTYLE1
 73
     1
 44
1.0
  0
MTEXT
  5
266
330
1F
100
AcDbEntity
  8
SLD-0
 62
   179
100
AcDbMText
 10
81.515957706
 20
166.3324546035
 30
0.0
 40
3.0
 41
0.0
 71
     1
 72
     1
  1
P
  7
SLDTEXTSTYLE1
 73
     1
 44
1.0
  0
MTEXT
  5
267
330
1F
100
AcDbEntity
  8
SLD-0
 62
   179
100
AcDbMText
 10
74.658817706
 20
171.7584128232
 30
0.0
 40
3.0
 41
0.0
 71
     1
 72
     1
  1
/
  7
SLDTEXTSTYLE1
 73
     1
 44
1.0
  0
MTEXT
  5
268
330
1F
100
AcDbEntity
  8
SLD-0
 62
   179
100
AcDbMText
 10
75.742147706
 20
171.7584128232
 30
0.0
 40
3.0
 41
0.0
 71
     1
 72
     1
  1
O
  7
SLDTEXTSTYLE1
 73
     1
 44
1.0
  0
MTEXT
  5
269
330
1F
100
AcDbEntity
  8
SLD-0
 62
   179
100
AcDbMText
 10
76.825477706
 20
171.7584128232
 30
0.0
 40
3.0
 41
0.0
 71
     1
 72
     1
  1
R
  7
SLDTEXTSTYLE1
 73
     1
 44
1.0
  0
MTEXT
  5
26A
330
1F
100
AcDbEntity
  8
SLD-0
 62
   179
100
AcDbMText
 10
77.908817706
 20
171.7584128232
 30
0.0
 40
3.0
 41
0.0
 71
     1
 72
     1
  1
-
  7
SLDTEXTSTYLE1
 73
     1
 44
1.0
  0
MTEXT
  5
26B
330
1F
100
AcDbEntity
  8
SLD-0
 62
   179
100
AcDbMText
 10
78.992147706
 20
171.7584128232
 30
0.0
 40
3.0
 41
0.0
 71
     1
 72
     1
  1
O
  7
SLDTEXTSTYLE1
 73
     1
 44
1.0
  0
MTEXT
  5
26C
330
1F
100
AcDbEntity
  8
SLD-0
 62
   179
100
AcDbMText
 10
80.075477706
 20
171.7584128232
 30
0.0
 40
3.0
 41
0.0
 71
     1
 72
     1
  1
R
  7
SLDTEXTSTYLE1
 73
     1
 44
1.0
  0
MTEXT
  5
26D
330
1F
100
AcDbEntity
  8
SLD-0
 62
   179
100
AcDbMText
 10
101.558817706
 20
151.638532014
 30
0.0
 40
3.0
 41
0.0
 71
     1
 72
     1
  1
I
  7
SLDTEXTSTYLE1
 73
     1
 44
1.0
  0
MTEXT
  5
26E
330
1F
100
AcDbEntity
  8
SLD-0
 62
   179
100
AcDbMText
 10
102.558817706
 20
151.638532014
 30
0.0
 40
3.0
 41
0.0
 71
     1
 72
     1
  1
N
  7
SLDTEXTSTYLE1
 73
     1
 44
1.0
  0
MTEXT
  5
26F
330
1F
100
AcDbEntity
  8
SLD-0
 62
   179
100
AcDbMText
 10
103.558817706
 20
151.638532014
 30
0.0
 40
3.0
 41
0.0
 71
     1
 72
     1
  1
4
  7
SLDTEXTSTYLE1
 73
     1
 44
1.0
  0
MTEXT
  5
270
330
1F
100
AcDbEntity
  8
SLD-0
 62
   179
100
AcDbMText
 10
93.958817706
 20
151.638532014
 30
0.0
 40
3.0
 41
0.0
 71
     1
 72
     1
  1
I
  7
SLDTEXTSTYLE1
 73
     1
 44
1.0
  0
MTEXT
  5
271
330
1F
100
AcDbEntity
  8
SLD-0
 62
   179
100
AcDbMText
 10
94.958817706
 20
151.638532014
 30
0.0
 40
3.0
 41
0.0
 71
     1
 72
     1
  1
N
  7
SLDTEXTSTYLE1
 73
     1
 44
1.0
  0
MTEXT
  5
272
330
1F
100
AcDbEntity
  8
SLD-0
 62
   179
100
AcDbMText
 10
95.958817706
 20
151.638532014
 30
0.0
 40
3.0
 41
0.0
 71
     1
 72
     1
  1
3
  7
SLDTEXTSTYLE1
 73
     1
 44
1.0
  0
MTEXT
  5
273
330
1F
100
AcDbEntity
  8
SLD-0
 62
   179
100
AcDbMText
 10
86.358817706
 20
151.638532014
 30
0.0
 40
3.0
 41
0.0
 71
     1
 72
     1
  1
I
  7
SLDTEXTSTYLE1
 73
     1
 44
1.0
  0
MTEXT
  5
274
330
1F
100
AcDbEntity
  8
SLD-0
 62
   179
100
AcDbMText
 10
87.358817706
 20
151.638532014
 30
0.0
 40
3.0
 41
0.0
 71
     1
 72
     1
  1
N
  7
SLDTEXTSTYLE1
 73
     1
 44
1.0
  0
MTEXT
  5
275
330
1F
100
AcDbEntity
  8
SLD-0
 62
   179
100
AcDbMText
 10
88.358817706
 20
151.638532014
 30
0.0
 40
3.0
 41
0.0
 71
     1
 72
     1
  1
2
  7
SLDTEXTSTYLE1
 73
     1
 44
1.0
  0
MTEXT
  5
276
330
1F
100
AcDbEntity
  8
SLD-0
 62
   179
100
AcDbMText
 10
78.758817706
 20
151.638532014
 30
0.0
 40
3.0
 41
0.0
 71
     1
 72
     1
  1
I
  7
SLDTEXTSTYLE1
 73
     1
 44
1.0
  0
MTEXT
  5
277
330
1F
100
AcDbEntity
  8
SLD-0
 62
   179
100
AcDbMText
 10
79.758817706
 20
151.638532014
 30
0.0
 40
3.0
 41
0.0
 71
     1
 72
     1
  1
N
  7
SLDTEXTSTYLE1
 73
     1
 44
1.0
  0
MTEXT
  5
278
330
1F
100
AcDbEntity
  8
SLD-0
 62
   179
100
AcDbMText
 10
80.758817706
 20
151.638532014
 30
0.0
 40
3.0
 41
0.0
 71
     1
 72
     1
  1
1
  7
SLDTEXTSTYLE1
 73
     1
 44
1.0
  0
MTEXT
  5
279
330
1F
100
AcDbEntity
  8
SLD-0
 62
   179
100
AcDbMText
 10
110.8738178557
 20
171.7629954569
 30
0.0
 40
3.0
 41
0.0
 71
     1
 72
     1
  1
O
  7
SLDTEXTSTYLE1
 11
6.123233995736766E-17
 21
1.0
 31
0.0
 73
     1
 44
1.0
  0
MTEXT
  5
27A
330
1F
100
AcDbEntity
  8
SLD-0
 62
   179
100
AcDbMText
 10
110.8738178557
 20
172.7629954569
 30
0.0
 40
3.0
 41
0.0
 71
     1
 72
     1
  1
R
  7
SLDTEXTSTYLE1
 11
6.123233995736766E-17
 21
1.0
 31
0.0
 73
     1
 44
1.0
  0
MTEXT
  5
27B
330
1F
100
AcDbEntity
  8
SLD-0
 62
   179
100
AcDbMText
 10
110.8738178557
 20
173.7629954569
 30
0.0
 40
3.0
 41
0.0
 71
     1
 72
     1
  1
-
  7
SLDTEXTSTYLE1
 11
6.123233995736766E-17
 21
1.0
 31
0.0
 73
     1
 44
1.0
  0
MTEXT
  5
27C
330
1F
100
AcDbEntity
  8
SLD-0
 62
   179
100
AcDbMText
 10
110.8738178557
 20
174.7629954569
 30
0.0
 40
3.0
 41
0.0
 71
     1
 72
     1
  1
I
  7
SLDTEXTSTYLE1
 11
6.123233995736766E-17
 21
1.0
 31
0.0
 73
     1
 44
1.0
  0
MTEXT
  5
27D
330
1F
100
AcDbEntity
  8
SLD-0
 62
   179
100
AcDbMText
 10
110.8738178557
 20
175.7629954569
 30
0.0
 40
3.0
 41
0.0
 71
     1
 72
     1
  1
N
  7
SLDTEXTSTYLE1
 11
6.123233995736766E-17
 21
1.0
 31
0.0
 73
     1
 44
1.0
  0
MTEXT
  5
27E
330
1F
100
AcDbEntity
  8
SLD-0
 62
   179
100
AcDbMText
 10
108.2738178557
 20
172.7629954569
 30
0.0
 40
3.0
 41
0.0
 71
     1
 72
     1
  1
G
  7
SLDTEXTSTYLE1
 11
6.123233995736766E-17
 21
1.0
 31
0.0
 73
     1
 44
1.0
  0
MTEXT
  5
27F
330
1F
100
AcDbEntity
  8
SLD-0
 62
   179
100
AcDbMText
 10
108.2738178557
 20
173.7629954569
 30
0.0
 40
3.0
 41
0.0
 71
     1
 72
     1
  1
N
  7
SLDTEXTSTYLE1
 11
6.123233995736766E-17
 21
1.0
 31
0.0
 73
     1
 44
1.0
  0
MTEXT
  5
280
330
1F
100
AcDbEntity
  8
SLD-0
 62
   179
100
AcDbMText
 10
108.2738178557
 20
174.7629954569
 30
0.0
 40
3.0
 41
0.0
 71
     1
 72
     1
  1
D
  7
SLDTEXTSTYLE1
 11
6.123233995736766E-17
 21
1.0
 31
0.0
 73
     1
 44
1.0
  0
MTEXT
  5
281
330
1F
100
AcDbEntity
  8
SLD-0
 62
   179
100
AcDbMText
 10
105.6738178557
 20
172.7629954569
 30
0.0
 40
3.0
 41
0.0
 71
     1
 72
     1
  1
O
  7
SLDTEXTSTYLE1
 11
6.123233995736766E-17
 21
1.0
 31
0.0
 73
     1
 44
1.0
  0
MTEXT
  5
282
330
1F
100
AcDbEntity
  8
SLD-0
 62
   179
100
AcDbMText
 10
105.6738178557
 20
173.7629954569
 30
0.0
 40
3.0
 41
0.0
 71
     1
 72
     1
  1
U
  7
SLDTEXTSTYLE1
 11
6.123233995736766E-17
 21
1.0
 31
0.0
 73
     1
 44
1.0
  0
MTEXT
  5
283
330
1F
100
AcDbEntity
  8
SLD-0
 62
   179
100
AcDbMText
 10
105.6738178557
 20
174.7629954569
 30
0.0
 40
3.0
 41
0.0
 71
     1
 72
     1
  1
T
  7
SLDTEXTSTYLE1
 11
6.123233995736766E-17
 21
1.0
 31
0.0
 73
     1
 44
1.0
  0
MTEXT
  5
284
330
1F
100
AcDbEntity
  8
SLD-0
 62
   179
100
AcDbMText
 10
103.0738178557
 20
172.7629954569
 30
0.0
 40
3.0
 41
0.0
 71
     1
 72
     1
  1
2
  7
SLDTEXTSTYLE1
 11
6.123233995736766E-17
 21
1.0
 31
0.0
 73
     1
 44
1.0
  0
MTEXT
  5
285
330
1F
100
AcDbEntity
  8
SLD-0
 62
   179
100
AcDbMText
 10
103.0738178557
 20
173.7629954569
 30
0.0
 40
3.0
 41
0.0
 71
     1
 72
     1
  1
4
  7
SLDTEXTSTYLE1
 11
6.123233995736766E-17
 21
1.0
 31
0.0
 73
     1
 44
1.0
  0
MTEXT
  5
286
330
1F
100
AcDbEntity
  8
SLD-0
 62
   179
100
AcDbMText
 10
103.0738178557
 20
174.7629954569
 30
0.0
 40
3.0
 41
0.0
 71
     1
 72
     1
  1
V
  7
SLDTEXTSTYLE1
 11
6.123233995736766E-17
 21
1.0
 31
0.0
 73
     1
 44
1.0
  0
MTEXT
  5
287
330
1F
100
AcDbEntity
  8
SLD-0
 62
   179
100
AcDbMText
 10
109.5328715264
 20
164.2629954569
 30
0.0
 40
3.0
 41
0.0
 71
     1
 72
     1
  1
O
  7
SLDTEXTSTYLE1
 11
6.123233995736766E-17
 21
1.0
 31
0.0
 73
     1
 44
1.0
  0
MTEXT
  5
288
330
1F
100
AcDbEntity
  8
SLD-0
 62
   179
100
AcDbMText
 10
109.5328715264
 20
165.2629954569
 30
0.0
 40
3.0
 41
0.0
 71
     1
 72
     1
  1
R
  7
SLDTEXTSTYLE1
 11
6.123233995736766E-17
 21
1.0
 31
0.0
 73
     1
 44
1.0
  0
MTEXT
  5
289
330
1F
100
AcDbEntity
  8
SLD-0
 62
   179
100
AcDbMText
 10
109.5328715264
 20
166.2629954569
 30
0.0
 40
3.0
 41
0.0
 71
     1
 72
     1
  1
-
  7
SLDTEXTSTYLE1
 11
6.123233995736766E-17
 21
1.0
 31
0.0
 73
     1
 44
1.0
  0
MTEXT
  5
28A
330
1F
100
AcDbEntity
  8
SLD-0
 62
   179
100
AcDbMText
 10
109.5328715264
 20
167.2629954569
 30
0.0
 40
3.0
 41
0.0
 71
     1
 72
     1
  1
I
  7
SLDTEXTSTYLE1
 11
6.123233995736766E-17
 21
1.0
 31
0.0
 73
     1
 44
1.0
  0
MTEXT
  5
28B
330
1F
100
AcDbEntity
  8
SLD-0
 62
   179
100
AcDbMText
 10
109.5328715264
 20
168.2629954569
 30
0.0
 40
3.0
 41
0.0
 71
     1
 72
     1
  1
N
  7
SLDTEXTSTYLE1
 11
6.123233995736766E-17
 21
1.0
 31
0.0
 73
     1
 44
1.0
  0
MTEXT
  5
28C
330
1F
100
AcDbEntity
  8
SLD-0
 62
   179
100
AcDbMText
 10
104.5328715264
 20
165.8629954569
 30
0.0
 40
3.0
 41
0.0
 71
     1
 72
     1
  1
P
  7
SLDTEXTSTYLE1
 11
6.123233995736766E-17
 21
1.0
 31
0.0
 73
     1
 44
1.0
  0
MTEXT
  5
28D
330
1F
100
AcDbEntity
  8
SLD-0
 62
   179
100
AcDbMText
 10
104.5328715264
 20
166.8629954569
 30
0.0
 40
3.0
 41
0.0
 71
     1
 72
     1
  1
O
  7
SLDTEXTSTYLE1
 11
6.123233995736766E-17
 21
1.0
 31
0.0
 73
     1
 44
1.0
  0
MTEXT
  5
28E
330
1F
100
AcDbEntity
  8
SLD-0
 62
   179
100
AcDbMText
 10
104.5328715264
 20
167.8629954569
 30
0.0
 40
3.0
 41
0.0
 71
     1
 72
     1
  1
W
  7
SLDTEXTSTYLE1
 11
6.123233995736766E-17
 21
1.0
 31
0.0
 73
     1
 44
1.0
  0
MTEXT
  5
28F
330
1F
100
AcDbEntity
  8
SLD-0_0
100
AcDbMText
 10
75.4547759757
 20
172.0146945187
 30
0.0
 40
3.0
 41
0.0
 71
     1
 72
     1
  1
IN-P
  7
SLDTEXTSTYLE1
 11
6.123233995736766E-17
 21
1.0
 31
0.0
 73
     1
 44
1.0
  0
MTEXT
  5
290
330
1F
100
AcDbEntity
  8
SLD-0_0
100
AcDbMText
 10
79.4458937222
 20
173.1766049305
 30
0.0
 40
3.0
 41
0.0
 71
     1
 72
     1
  1
OR
  7
SLDTEXTSTYLE1
 11
6.123233995736766E-17
 21
1.0
 31
0.0
 73
     1
 44
1.0
  0
MTEXT
  5
291
330
1F
100
AcDbEntity
  8
SLD-0_0
100
AcDbMText
 10
83.4173672004
 20
172.7592036099
 30
0.0
 40
3.0
 41
0.0
 71
     1
 72
     1
  1
OR-P
  7
SLDTEXTSTYLE1
 11
6.123233995736766E-17
 21
1.0
 31
0.0
 73
     1
 44
1.0
  0
MTEXT
  5
292
330
1F
100
AcDbEntity
  8
SLD-0
 62
   179
100
AcDbMText
 10
79.5684892315
 20
168.8014442135
 30
0.0
 40
3.0
 41
0.0
 71
     1
 72
     1
  1
N
  7
SLDTEXTSTYLE1
 73
     1
 44
1.0
  0
MTEXT
  5
293
330
1F
100
AcDbEntity
  8
SLD-0
 62
   179
100
AcDbMText
 10
80.6786677006
 20
168.8583638768
 30
0.0
 40
3.0
 41
0.0
 71
     1
 72
     1
  1
/
  7
SLDTEXTSTYLE1
 73
     1
 44
1.0
  0
MTEXT
  5
294
330
1F
100
AcDbEntity
  8
SLD-0
 62
   179
100
AcDbMText
 10
81.9277409181
 20
168.7785643144
 30
0.0
 40
3.0
 41
0.0
 71
     1
 72
     1
  1
P
  7
SLDTEXTSTYLE1
 73
     1
 44
1.0
  0
MTEXT
  5
295
330
1F
100
AcDbEntity
  8
SLD-0
 62
   179
100
AcDbMText
 10
78.518262199
 20
168.852153432
 30
0.0
 40
3.0
 41
0.0
 71
     1
 72
     1
  1
-
  7
SLDTEXTSTYLE1
 73
     1
 44
1.0
  0
MTEXT
  5
296
330
1F
100
AcDbEntity
  8
SLD-0
 62
   179
100
AcDbMText
 10
74.6006911741
 20
168.8440613653
 30
0.0
 40
3.0
 41
0.0
 71
     1
 72
     1
  1
O
  7
SLDTEXTSTYLE1
 73
     1
 44
1.0
  0
MTEXT
  5
297
330
1F
100
AcDbEntity
  8
SLD-0
 62
   179
100
AcDbMText
 10
75.6897213692
 20
168.8440613653
 30
0.0
 40
3.0
 41
0.0
 71
     1
 72
     1
  1
R
  7
SLDTEXTSTYLE1
 73
     1
 44
1.0
  0
MTEXT
  5
298
330
1F
100
AcDbEntity
  8
SLD-0
 62
   179
100
AcDbMText
 10
76.483127208
 20
168.8427303283
 30
0.0
 40
3.0
 41
0.0
 71
     1
 72
     1
  1
I
  7
SLDTEXTSTYLE1
 73
     1
 44
1.0
  0
MTEXT
  5
299
330
1F
100
AcDbEntity
  8
SLD-0
 62
   179
100
AcDbMText
 10
77.4428076948
 20
168.8427303283
 30
0.0
 40
3.0
 41
0.0
 71
     1
 72
     1
  1
N
  7
SLDTEXTSTYLE1
 73
     1
 44
1.0
  0
MTEXT
  5
29A
330
1F
100
AcDbEntity
  8
0
  6
Continuous
 62
     7
370
     0
100
AcDbMText
 10
161.3469950486
 20
30.4171580599
 30
0.0
 40
4.2333333333
 41
0.0
 71
     2
 72
     1
  1
AND/OR-EU-4P
  7
SLDTEXTSTYLE2
 73
     1
 44
1.0
  0
MTEXT
  5
29B
330
1F
100
AcDbEntity
  8
0
  6
Continuous
 62
     7
370
     0
100
AcDbMText
 10
160.8115596363
 20
43.9409716768
 30
0.0
 40
4.2333333333
 41
0.0
 71
     2
 72
     1
  1
マルチAND基板 ４P
  7
SLDTEXTSTYLE2
 73
     1
 44
1.0
  0
MTEXT
  5
29C
330
1F
100
AcDbEntity
  8
0
  6
Continuous
 62
     7
370
     0
100
AcDbMText
 10
162.5133683704
 20
16.8228187305
 30
0.0
 40
4.2333333333
 41
0.0
 71
     2
 72
     1
  1
002237
  7
SLDTEXTSTYLE2
 73
     1
 44
1.0
  0
ENDSEC
  0
SECTION
  2
OBJECTS
  0
DICTIONARY
  5
C
330
0
100
AcDbDictionary
281
     1
  3
ACAD_GROUP
350
D
  3
ACAD_LAYOUT
350
1A
  3
ACAD_MLINESTYLE
350
17
  3
ACAD_PLOTSETTINGS
350
19
  3
ACAD_PLOTSTYLENAME
350
E
  0
DICTIONARY
  5
D
102
{ACAD_REACTORS
330
C
102
}
330
C
100
AcDbDictionary
281
     1
  0
DICTIONARY
  5
1A
102
{ACAD_REACTORS
330
C
102
}
330
C
100
AcDbDictionary
281
     1
  3
Layout1
350
1E
  3
Layout2
350
26
  3
Model
350
22
  0
DICTIONARY
  5
17
102
{ACAD_REACTORS
330
C
102
}
330
C
100
AcDbDictionary
281
     1
  3
Standard
350
18
  0
DICTIONARY
  5
19
102
{ACAD_REACTORS
330
C
102
}
330
C
100
AcDbDictionary
281
     1
  0
ACDBDICTIONARYWDFLT
  5
E
102
{ACAD_REACTORS
330
C
102
}
330
C
100
AcDbDictionary
281
     1
  3
Normal
350
F
100
AcDbDictionaryWithDefault
340
F
  0
LAYOUT
  5
1E
102
{ACAD_REACTORS
330
1A
102
}
330
1A
100
AcDbPlotSettings
  1

  2
none_device
  4

  6

 40
0.0
 41
0.0
 42
0.0
 43
0.0
 44
0.0
 45
0.0
 46
0.0
 47
0.0
 48
0.0
 49
0.0
140
0.0
141
0.0
142
1.0
143
1.0
 70
   688
 72
     0
 73
     0
 74
     5
  7

 75
    16
147
1.0
148
0.0
149
0.0
100
AcDbLayout
  1
Layout1
 70
     1
 71
     1
 10
0.0
 20
0.0
 11
420.0
 21
297.0
 12
0.0
 22
0.0
 32
0.0
 14
1.0000000000E+20
 24
1.0000000000E+20
 34
1.0000000000E+20
 15
-1.0000000000E+20
 25
-1.0000000000E+20
 35
-1.0000000000E+20
146
0.0
 13
0.0
 23
0.0
 33
0.0
 16
1.0
 26
0.0
 36
0.0
 17
0.0
 27
1.0
 37
0.0
 76
     0
330
1B
  0
LAYOUT
  5
26
102
{ACAD_REACTORS
330
1A
102
}
330
1A
100
AcDbPlotSettings
  1

  2
none_device
  4

  6

 40
0.0
 41
0.0
 42
0.0
 43
0.0
 44
0.0
 45
0.0
 46
0.0
 47
0.0
 48
0.0
 49
0.0
140
0.0
141
0.0
142
1.0
143
1.0
 70
   688
 72
     0
 73
     0
 74
     5
  7

 75
    16
147
1.0
148
0.0
149
0.0
100
AcDbLayout
  1
Layout2
 70
     1
 71
     2
 10
0.0
 20
0.0
 11
0.0
 21
0.0
 12
0.0
 22
0.0
 32
0.0
 14
0.0
 24
0.0
 34
0.0
 15
0.0
 25
0.0
 35
0.0
146
0.0
 13
0.0
 23
0.0
 33
0.0
 16
1.0
 26
0.0
 36
0.0
 17
0.0
 27
1.0
 37
0.0
 76
     0
330
23
  0
LAYOUT
  5
22
102
{ACAD_REACTORS
330
1A
102
}
330
1A
100
AcDbPlotSettings
  1

  2
none_device
  4

  6

 40
0.0
 41
0.0
 42
0.0
 43
0.0
 44
0.0
 45
0.0
 46
0.0
 47
0.0
 48
0.0
 49
0.0
140
0.0
141
0.0
142
1.0
143
1.0
 70
  1712
 72
     0
 73
     0
 74
     0
  7

 75
     0
147
1.0
148
0.0
149
0.0
100
AcDbLayout
  1
Model
 70
     1
 71
     0
 10
0.0
 20
0.0
 11
210.0
 21
297.0
 12
0.0
 22
0.0
 32
0.0
 14
0.0
 24
0.0
 34
0.0
 15
210.0
 25
297.0
 35
0.0
146
0.0
 13
0.0
 23
0.0
 33
0.0
 16
1.0
 26
0.0
 36
0.0
 17
0.0
 27
1.0
 37
0.0
 76
     0
330
1F
331
29
  0
MLINESTYLE
  5
18
102
{ACAD_REACTORS
330
17
102
}
330
17
100
AcDbMlineStyle
  2
Standard
 70
     0
  3

 62
   256
 51
90.0
 52
90.0
 71
     2
 49
0.5
 62
   256
  6
BYLAYER
 49
-0.5
 62
   256
  6
BYLAYER
  0
ACDBPLACEHOLDER
  5
F
102
{ACAD_REACTORS
330
E
102
}
330
E
  0
ENDSEC
  0
EOF
