  0
SECTION
  2
HEADER
  9
$ACADVER
  1
AC1015
  9
$ACADMAINTVER
 70
     6
  9
$DWGCODEPAGE
  3
ANSI_932
  9
$INSBASE
 10
0.0
 20
0.0
 30
0.0
  9
$EXTMIN
 10
16.375
 20
11.3
 30
0.0
  9
$EXTMAX
 10
193.5749999999999
 20
285.70001
 30
0.0
  9
$LIMMIN
 10
0.0
 20
0.0
  9
$LIMMAX
 10
0.0
 20
0.0
  9
$ORTHOMODE
 70
     0
  9
$REGENMODE
 70
     1
  9
$FILLMODE
 70
     1
  9
$QTEXTMODE
 70
     0
  9
$MIRRTEXT
 70
     1
  9
$LTSCALE
 40
1.0
  9
$ATTMODE
 70
     1
  9
$TEXTSIZE
 40
2.5
  9
$TRACEWID
 40
1.0
  9
$TEXTSTYLE
  7
Standard
  9
$CLAYER
  8
0
  9
$CELTYPE
  6
ByLayer
  9
$CECOLOR
 62
   256
  9
$CELTSCALE
 40
1.0
  9
$DISPSILH
 70
     0
  9
$DIMSCALE
 40
1.0
  9
$DIMASZ
 40
3.0
  9
$DIMEXO
 40
1.0
  9
$DIMDLI
 40
3.75
  9
$DIMRND
 40
0.0
  9
$DIMDLE
 40
0.0
  9
$DIMEXE
 40
1.0
  9
$DIMTP
 40
0.0
  9
$DIMTM
 40
0.0
  9
$DIMTXT
 40
3.2
  9
$DIMCEN
 40
2.5
  9
$DIMTSZ
 40
0.0
  9
$DIMTOL
 70
     0
  9
$DIMLIM
 70
     0
  9
$DIMTIH
 70
     1
  9
$DIMTOH
 70
     1
  9
$DIMSE1
 70
     0
  9
$DIMSE2
 70
     0
  9
$DIMTAD
 70
     1
  9
$DIMZIN
 70
     1
  9
$DIMBLK
  1

  9
$DIMASO
 70
     1
  9
$DIMSHO
 70
     1
  9
$DIMPOST
  1

  9
$DIMAPOST
  1

  9
$DIMALT
 70
     0
  9
$DIMALTD
 70
     3
  9
$DIMALTF
 40
0.0393700787
  9
$DIMLFAC
 40
1.0
  9
$DIMTOFL
 70
     1
  9
$DIMTVP
 40
0.0
  9
$DIMTIX
 70
     0
  9
$DIMSOXD
 70
     0
  9
$DIMSAH
 70
     0
  9
$DIMBLK1
  1

  9
$DIMBLK2
  1

  9
$DIMSTYLE
  2
ISO-25
  9
$DIMCLRD
 70
     0
  9
$DIMCLRE
 70
     0
  9
$DIMCLRT
 70
     0
  9
$DIMTFAC
 40
1.0
  9
$DIMGAP
 40
1.524
  9
$DIMJUST
 70
     0
  9
$DIMSD1
 70
     0
  9
$DIMSD2
 70
     0
  9
$DIMTOLJ
 70
     0
  9
$DIMTZIN
 70
     1
  9
$DIMALTZ
 70
     0
  9
$DIMALTTZ
 70
     0
  9
$DIMUPT
 70
     0
  9
$DIMDEC
 70
     2
  9
$DIMTDEC
 70
     2
  9
$DIMALTU
 70
     2
  9
$DIMALTTD
 70
     3
  9
$DIMTXSTY
  7
Standard
  9
$DIMAUNIT
 70
     0
  9
$DIMADEC
 70
     0
  9
$DIMALTRND
 40
0.0
  9
$DIMAZIN
 70
     0
  9
$DIMDSEP
 70
    44
  9
$DIMATFIT
 70
     3
  9
$DIMFRAC
 70
     0
  9
$DIMLDRBLK
  1

  9
$DIMLUNIT
 70
     2
  9
$DIMLWD
 70
    -2
  9
$DIMLWE
 70
    -2
  9
$DIMTMOVE
 70
     0
  9
$LUNITS
 70
     2
  9
$LUPREC
 70
     4
  9
$SKETCHINC
 40
1.0
  9
$FILLETRAD
 40
10.0
  9
$AUNITS
 70
     0
  9
$AUPREC
 70
     0
  9
$MENU
  1
.
  9
$ELEVATION
 40
0.0
  9
$PELEVATION
 40
0.0
  9
$THICKNESS
 40
0.0
  9
$LIMCHECK
 70
     0
  9
$CHAMFERA
 40
10.0
  9
$CHAMFERB
 40
10.0
  9
$CHAMFERC
 40
20.0
  9
$CHAMFERD
 40
0.0
  9
$SKPOLY
 70
     0
  9
$TDCREATE
 40
2454307.455590995
  9
$TDUCREATE
 40
2454307.080590995
  9
$TDUPDATE
 40
2456252.794840671
  9
$TDUUPDATE
 40
2456252.419840671
  9
$TDINDWG
 40
0.0124066898
  9
$TDUSRTIMER
 40
0.0124066898
  9
$USRTIMER
 70
     1
  9
$ANGBASE
 50
0.0
  9
$ANGDIR
 70
     0
  9
$PDMODE
 70
     0
  9
$PDSIZE
 40
-1.0
  9
$PLINEWID
 40
0.0
  9
$SPLFRAME
 70
     0
  9
$SPLINETYPE
 70
     6
  9
$SPLINESEGS
 70
     8
  9
$HANDSEED
  5
2B9
  9
$SURFTAB1
 70
     6
  9
$SURFTAB2
 70
     6
  9
$SURFTYPE
 70
     6
  9
$SURFU
 70
     6
  9
$SURFV
 70
     6
  9
$UCSBASE
  2

  9
$UCSNAME
  2

  9
$UCSORG
 10
0.0
 20
0.0
 30
0.0
  9
$UCSXDIR
 10
1.0
 20
0.0
 30
0.0
  9
$UCSYDIR
 10
0.0
 20
1.0
 30
0.0
  9
$UCSORTHOREF
  2

  9
$UCSORTHOVIEW
 70
     0
  9
$UCSORGTOP
 10
0.0
 20
0.0
 30
0.0
  9
$UCSORGBOTTOM
 10
0.0
 20
0.0
 30
0.0
  9
$UCSORGLEFT
 10
0.0
 20
0.0
 30
0.0
  9
$UCSORGRIGHT
 10
0.0
 20
0.0
 30
0.0
  9
$UCSORGFRONT
 10
0.0
 20
0.0
 30
0.0
  9
$UCSORGBACK
 10
0.0
 20
0.0
 30
0.0
  9
$PUCSBASE
  2

  9
$PUCSNAME
  2

  9
$PUCSORG
 10
0.0
 20
0.0
 30
0.0
  9
$PUCSXDIR
 10
1.0
 20
0.0
 30
0.0
  9
$PUCSYDIR
 10
0.0
 20
1.0
 30
0.0
  9
$PUCSORTHOREF
  2

  9
$PUCSORTHOVIEW
 70
     0
  9
$PUCSORGTOP
 10
0.0
 20
0.0
 30
0.0
  9
$PUCSORGBOTTOM
 10
0.0
 20
0.0
 30
0.0
  9
$PUCSORGLEFT
 10
0.0
 20
0.0
 30
0.0
  9
$PUCSORGRIGHT
 10
0.0
 20
0.0
 30
0.0
  9
$PUCSORGFRONT
 10
0.0
 20
0.0
 30
0.0
  9
$PUCSORGBACK
 10
0.0
 20
0.0
 30
0.0
  9
$USERI1
 70
     0
  9
$USERI2
 70
     0
  9
$USERI3
 70
     0
  9
$USERI4
 70
     0
  9
$USERI5
 70
     0
  9
$USERR1
 40
0.0
  9
$USERR2
 40
0.0
  9
$USERR3
 40
0.0
  9
$USERR4
 40
0.0
  9
$USERR5
 40
0.0
  9
$WORLDVIEW
 70
     1
  9
$SHADEDGE
 70
     3
  9
$SHADEDIF
 70
    70
  9
$TILEMODE
 70
     1
  9
$MAXACTVP
 70
    64
  9
$PINSBASE
 10
0.0
 20
0.0
 30
0.0
  9
$PLIMCHECK
 70
     0
  9
$PEXTMIN
 10
1.000000000000000E+20
 20
1.000000000000000E+20
 30
1.000000000000000E+20
  9
$PEXTMAX
 10
-1.000000000000000E+20
 20
-1.000000000000000E+20
 30
-1.000000000000000E+20
  9
$PLIMMIN
 10
0.0
 20
0.0
  9
$PLIMMAX
 10
420.0
 20
297.0
  9
$UNITMODE
 70
     0
  9
$VISRETAIN
 70
     1
  9
$PLINEGEN
 70
     0
  9
$PSLTSCALE
 70
     1
  9
$TREEDEPTH
 70
  3020
  9
$CMLSTYLE
  2
Standard
  9
$CMLJUST
 70
     0
  9
$CMLSCALE
 40
20.0
  9
$PROXYGRAPHICS
 70
     1
  9
$MEASUREMENT
 70
     1
  9
$CELWEIGHT
370
    -1
  9
$ENDCAPS
280
     0
  9
$JOINSTYLE
280
     0
  9
$LWDISPLAY
290
     1
  9
$INSUNITS
 70
     4
  9
$HYPERLINKBASE
  1

  9
$STYLESHEET
  1

  9
$XEDIT
290
     1
  9
$CEPSNTYPE
380
     0
  9
$PSTYLEMODE
290
     1
  9
$FINGERPRINTGUID
  2
{7C763EDF-45BB-4CCE-AAA9-F21C38A1760F}
  9
$VERSIONGUID
  2
{83273A7D-495F-48EA-830D-E8167A3B0EBA}
  9
$EXTNAMES
290
     1
  9
$PSVPSCALE
 40
0.0
  9
$OLESTARTUP
290
     0
  0
ENDSEC
  0
SECTION
  2
CLASSES
  0
CLASS
  1
ACDBDICTIONARYWDFLT
  2
AcDbDictionaryWithDefault
  3
AutoCAD 2000
 90
        0
280
     0
281
     0
  0
CLASS
  1
ACDBPLACEHOLDER
  2
AcDbPlaceHolder
  3
AutoCAD 2000
 90
        0
280
     0
281
     0
  0
CLASS
  1
LAYOUT
  2
AcDbLayout
  3
AutoCAD 2000
 90
        0
280
     0
281
     0
  0
ENDSEC
  0
SECTION
  2
TABLES
  0
TABLE
  2
VPORT
  5
8
330
0
100
AcDbSymbolTable
 70
     2
  0
VPORT
  5
2B8
330
8
100
AcDbSymbolTableRecord
100
AcDbViewportTableRecord
  2
*Active
 70
     0
 10
0.0
 20
0.0
 11
1.0
 21
1.0
 12
115.9846230338623
 22
94.31625269018809
 13
0.0
 23
0.0
 14
10.0
 24
10.0
 15
10.0
 25
10.0
 16
0.0
 26
0.0
 36
1.0
 17
0.0
 27
0.0
 37
0.0
 40
337.8719403826787
 41
1.734304932735426
 42
50.0
 43
0.0
 44
0.0
 50
0.0
 51
0.0
 71
     0
 72
  2000
 73
     1
 74
     3
 75
     0
 76
     0
 77
     0
 78
     0
281
     0
 65
     1
110
0.0
120
0.0
130
0.0
111
1.0
121
0.0
131
0.0
112
0.0
122
1.0
132
0.0
 79
     0
146
0.0
  0
ENDTAB
  0
TABLE
  2
LTYPE
  5
5
330
0
100
AcDbSymbolTable
 70
     6
  0
LTYPE
  5
14
330
5
100
AcDbSymbolTableRecord
100
AcDbLinetypeTableRecord
  2
ByBlock
 70
     0
  3

 72
    65
 73
     0
 40
0.0
  0
LTYPE
  5
15
330
5
100
AcDbSymbolTableRecord
100
AcDbLinetypeTableRecord
  2
ByLayer
 70
     0
  3

 72
    65
 73
     0
 40
0.0
  0
LTYPE
  5
16
330
5
100
AcDbSymbolTableRecord
100
AcDbLinetypeTableRecord
  2
Continuous
 70
     0
  3
Solid line
 72
    65
 73
     0
 40
0.0
  0
LTYPE
  5
2A
330
5
100
AcDbSymbolTableRecord
100
AcDbLinetypeTableRecord
  2
HIDDEN
 70
     0
  3
Hidden __ __ __ __ __ __ __ __ __ __ __ __ __ __
 72
    65
 73
     2
 40
1.905
 49
1.27
 74
     0
 49
-0.635
 74
     0
  0
LTYPE
  5
2B
330
5
100
AcDbSymbolTableRecord
100
AcDbLinetypeTableRecord
  2
PHANTOM
 70
     0
  3
Phantom ______  __  __  ______  __  __  ______
 72
    65
 73
     6
 40
12.7
 49
6.349999999999998
 74
     0
 49
-1.27
 74
     0
 49
1.27
 74
     0
 49
-1.27
 74
     0
 49
1.27
 74
     0
 49
-1.27
 74
     0
  0
LTYPE
  5
2C
330
5
100
AcDbSymbolTableRecord
100
AcDbLinetypeTableRecord
  2
CENTER
 70
     0
  3
Center ____ _ ____ _ ____ _ ____ _ ____ _ ____
 72
    65
 73
     4
 40
10.16
 49
6.349999999999998
 74
     0
 49
-1.27
 74
     0
 49
1.27
 74
     0
 49
-1.27
 74
     0
  0
LTYPE
  5
2D
330
5
100
AcDbSymbolTableRecord
100
AcDbLinetypeTableRecord
  2
CENTERX2
 70
     0
  3
Center (2x) ________  __  ________  __  _____
 72
    65
 73
     4
 40
20.32
 49
12.7
 74
     0
 49
-2.54
 74
     0
 49
2.54
 74
     0
 49
-2.54
 74
     0
  0
LTYPE
  5
2E
330
5
100
AcDbSymbolTableRecord
100
AcDbLinetypeTableRecord
  2
DOT2
 70
     0
  3
Dot (.5x) ........................................
 72
    65
 73
     2
 40
0.635
 49
0.0
 74
     0
 49
-0.635
 74
     0
  0
ENDTAB
  0
TABLE
  2
LAYER
  5
2
330
0
100
AcDbSymbolTable
 70
     2
  0
LAYER
  5
10
330
2
100
AcDbSymbolTableRecord
100
AcDbLayerTableRecord
  2
0
 70
     0
 62
     7
  6
Continuous
370
    -3
390
F
  0
LAYER
  5
2F
330
2
100
AcDbSymbolTableRecord
100
AcDbLayerTableRecord
  2
SLD-0
 70
     0
 62
   179
  6
Continuous
370
     0
390
F
  0
ENDTAB
  0
TABLE
  2
STYLE
  5
3
330
0
100
AcDbSymbolTable
 70
     7
  0
STYLE
  5
11
330
3
100
AcDbSymbolTableRecord
100
AcDbTextStyleTableRecord
  2
Standard
 70
     0
 40
0.0
 41
1.0
 50
0.0
 71
     0
 42
2.5
  3
txt
  4
bigfont
  0
STYLE
  5
33
330
3
100
AcDbSymbolTableRecord
100
AcDbTextStyleTableRecord
  2
SLDTEXTSTYLE0
 70
     0
 40
0.0
 41
0.7
 50
0.0
 71
     0
 42
0.2
  3
TXT
  4
bigfont
  0
STYLE
  5
2A0
330
3
100
AcDbSymbolTableRecord
100
AcDbTextStyleTableRecord
  2
SLDTEXTSTYLE1
 70
     0
 40
0.0
 41
0.6349845526
 50
0.0
 71
     0
 42
0.2
  3
TXT
  4
bigfont
  0
STYLE
  5
2A2
330
3
100
AcDbSymbolTableRecord
100
AcDbTextStyleTableRecord
  2
SLDTEXTSTYLE2
 70
     0
 40
0.0
 41
0.6635061484
 50
0.0
 71
     0
 42
0.2
  3
TXT
  4
bigfont
  0
STYLE
  5
2A5
330
3
100
AcDbSymbolTableRecord
100
AcDbTextStyleTableRecord
  2
SLDTEXTSTYLE3
 70
     0
 40
0.0
 41
0.4945606842000001
 50
0.0
 71
     0
 42
0.2
  3
TXT
  4
bigfont
  0
STYLE
  5
2A7
330
3
100
AcDbSymbolTableRecord
100
AcDbTextStyleTableRecord
  2
SLDTEXTSTYLE4
 70
     0
 40
0.0
 41
0.6236261168000002
 50
0.0
 71
     0
 42
0.2
  3
TXT
  4
bigfont
  0
STYLE
  5
2A9
330
3
100
AcDbSymbolTableRecord
100
AcDbTextStyleTableRecord
  2
SLDTEXTSTYLE5
 70
     0
 40
0.0
 41
0.6244080758
 50
0.0
 71
     0
 42
0.2
  3
TXT
  4
bigfont
  0
ENDTAB
  0
TABLE
  2
VIEW
  5
6
330
0
100
AcDbSymbolTable
 70
     0
  0
ENDTAB
  0
TABLE
  2
UCS
  5
7
330
0
100
AcDbSymbolTable
 70
     0
  0
ENDTAB
  0
TABLE
  2
APPID
  5
9
330
0
100
AcDbSymbolTable
 70
     1
  0
APPID
  5
12
330
9
100
AcDbSymbolTableRecord
100
AcDbRegAppTableRecord
  2
ACAD
 70
     0
  0
ENDTAB
  0
TABLE
  2
DIMSTYLE
  5
A
330
0
100
AcDbSymbolTable
 70
     1
100
AcDbDimStyleTable
 71
     0
  0
DIMSTYLE
105
27
330
A
100
AcDbSymbolTableRecord
100
AcDbDimStyleTableRecord
  2
ISO-25
 70
     0
 41
2.5
 42
0.625
 43
3.75
 44
1.25
 73
     0
 74
     0
 77
     1
 78
     8
140
2.5
141
2.5
143
0.0393700787
147
0.625
171
     3
172
     1
271
     2
272
     2
274
     3
278
    44
283
     0
284
     8
340
11
  0
ENDTAB
  0
TABLE
  2
BLOCK_RECORD
  5
1
330
0
100
AcDbSymbolTable
 70
     2
  0
BLOCK_RECORD
  5
1F
330
1
100
AcDbSymbolTableRecord
100
AcDbBlockTableRecord
  2
*Model_Space
340
22
  0
BLOCK_RECORD
  5
1B
330
1
100
AcDbSymbolTableRecord
100
AcDbBlockTableRecord
  2
*Paper_Space
340
1E
  0
BLOCK_RECORD
  5
23
330
1
100
AcDbSymbolTableRecord
100
AcDbBlockTableRecord
  2
*Paper_Space0
340
26
  0
BLOCK_RECORD
  5
30
330
1
100
AcDbSymbolTableRecord
100
AcDbBlockTableRecord
  2
注記
340
0
  0
ENDTAB
  0
ENDSEC
  0
SECTION
  2
BLOCKS
  0
BLOCK
  5
20
330
1F
100
AcDbEntity
  8
0
100
AcDbBlockBegin
  2
*Model_Space
 70
     0
 10
0.0
 20
0.0
 30
0.0
  3
*Model_Space
  1

  0
ENDBLK
  5
21
330
1F
100
AcDbEntity
  8
0
100
AcDbBlockEnd
  0
BLOCK
  5
1C
330
1B
100
AcDbEntity
 67
     1
  8
0
100
AcDbBlockBegin
  2
*Paper_Space
 70
     0
 10
0.0
 20
0.0
 30
0.0
  3
*Paper_Space
  1

  0
ENDBLK
  5
1D
330
1B
100
AcDbEntity
 67
     1
  8
0
100
AcDbBlockEnd
  0
BLOCK
  5
24
330
23
100
AcDbEntity
  8
0
100
AcDbBlockBegin
  2
*Paper_Space0
 70
     0
 10
0.0
 20
0.0
 30
0.0
  3
*Paper_Space0
  1

  0
ENDBLK
  5
25
330
23
100
AcDbEntity
  8
0
100
AcDbBlockEnd
  0
BLOCK
  5
31
330
30
100
AcDbEntity
  8
0
100
AcDbBlockBegin
  2
注記
 70
     0
 10
0.0
 20
0.0
 30
0.0
  3
注記
  1

  0
MTEXT
  5
34
330
30
100
AcDbEntity
  8
0
  6
Continuous
 62
     7
370
     0
100
AcDbMText
 10
0.2636785918
 20
9.073977844799999
 30
0.0
 40
3.5
 41
0.0
 71
     1
 72
     1
  1
１．特記ナキ角部ハ、バリ　カエリノ無キコト。
  7
SLDTEXTSTYLE0
 73
     1
 44
1.0
  0
MTEXT
  5
35
330
30
100
AcDbEntity
  8
0
  6
Continuous
 62
     7
370
     0
100
AcDbMText
 10
0.2636785918
 20
3.575954998299998
 30
0.0
 40
3.5
 41
0.0
 71
     1
 72
     1
  1
２．特記ナキ隅部ハ、Ｒ０．４ＭＡＸトスル。
  7
SLDTEXTSTYLE0
 73
     1
 44
1.0
  0
ENDBLK
  5
32
330
30
100
AcDbEntity
  8
0
100
AcDbBlockEnd
  0
ENDSEC
  0
SECTION
  2
ENTITIES
  0
LINE
  5
36
330
1F
100
AcDbEntity
  8
SLD-0
  6
Continuous
 62
   179
100
AcDbLine
 10
47.19723
 20
172.3946399999999
 30
0.0
 11
46.66134
 21
171.8587399999999
 31
0.0
  0
LINE
  5
37
330
1F
100
AcDbEntity
  8
SLD-0
  6
Continuous
 62
   179
100
AcDbLine
 10
47.19723
 20
172.3946399999999
 30
0.0
 11
48.78566
 21
172.3946399999999
 31
0.0
  0
LINE
  5
38
330
1F
100
AcDbEntity
  8
SLD-0
  6
Continuous
 62
   179
100
AcDbLine
 10
46.66133
 20
171.85873
 30
0.0
 11
49.44809
 21
171.85873
 31
0.0
  0
LINE
  5
39
330
1F
100
AcDbEntity
  8
SLD-0
  6
Continuous
 62
   179
100
AcDbLine
 10
70.91133000000002
 20
167.1587399999999
 30
0.0
 11
74.91133000000002
 21
167.1587399999999
 31
0.0
  0
LINE
  5
3A
330
1F
100
AcDbEntity
  8
SLD-0
  6
Continuous
 62
   179
100
AcDbLine
 10
74.91133000000002
 20
167.1587399999999
 30
0.0
 11
74.91133000000002
 21
171.1587399999999
 31
0.0
  0
LINE
  5
3B
330
1F
100
AcDbEntity
  8
SLD-0
  6
Continuous
 62
   179
100
AcDbLine
 10
74.91133000000002
 20
171.1587399999999
 30
0.0
 11
70.91133000000002
 21
171.1587399999999
 31
0.0
  0
LINE
  5
3C
330
1F
100
AcDbEntity
  8
SLD-0
  6
Continuous
 62
   179
100
AcDbLine
 10
70.91133000000002
 20
171.1587399999999
 30
0.0
 11
70.91133000000002
 21
167.1587399999999
 31
0.0
  0
LINE
  5
3D
330
1F
100
AcDbEntity
  8
SLD-0
  6
Continuous
 62
   179
100
AcDbLine
 10
66.06132999999998
 20
167.1587399999999
 30
0.0
 11
70.06133
 21
167.1587399999999
 31
0.0
  0
LINE
  5
3E
330
1F
100
AcDbEntity
  8
SLD-0
  6
Continuous
 62
   179
100
AcDbLine
 10
70.06133
 20
167.1587399999999
 30
0.0
 11
70.06133
 21
171.1587399999999
 31
0.0
  0
LINE
  5
3F
330
1F
100
AcDbEntity
  8
SLD-0
  6
Continuous
 62
   179
100
AcDbLine
 10
70.06133
 20
171.1587399999999
 30
0.0
 11
66.06132999999998
 21
171.1587399999999
 31
0.0
  0
LINE
  5
40
330
1F
100
AcDbEntity
  8
SLD-0
  6
Continuous
 62
   179
100
AcDbLine
 10
66.06132999999998
 20
171.1587399999999
 30
0.0
 11
66.06132999999998
 21
167.1587399999999
 31
0.0
  0
LINE
  5
41
330
1F
100
AcDbEntity
  8
SLD-0
  6
Continuous
 62
   179
100
AcDbLine
 10
61.21133
 20
167.1587399999999
 30
0.0
 11
65.21133
 21
167.1587399999999
 31
0.0
  0
LINE
  5
42
330
1F
100
AcDbEntity
  8
SLD-0
  6
Continuous
 62
   179
100
AcDbLine
 10
65.21133
 20
167.1587399999999
 30
0.0
 11
65.21133
 21
171.1587399999999
 31
0.0
  0
LINE
  5
43
330
1F
100
AcDbEntity
  8
SLD-0
  6
Continuous
 62
   179
100
AcDbLine
 10
65.21133
 20
171.1587399999999
 30
0.0
 11
61.21133
 21
171.1587399999999
 31
0.0
  0
LINE
  5
44
330
1F
100
AcDbEntity
  8
SLD-0
  6
Continuous
 62
   179
100
AcDbLine
 10
61.21133
 20
171.1587399999999
 30
0.0
 11
61.21133
 21
167.1587399999999
 31
0.0
  0
LINE
  5
45
330
1F
100
AcDbEntity
  8
SLD-0
  6
Continuous
 62
   179
100
AcDbLine
 10
56.36133
 20
167.1587399999999
 30
0.0
 11
60.36133
 21
167.1587399999999
 31
0.0
  0
LINE
  5
46
330
1F
100
AcDbEntity
  8
SLD-0
  6
Continuous
 62
   179
100
AcDbLine
 10
60.36133
 20
167.1587399999999
 30
0.0
 11
60.36133
 21
171.1587399999999
 31
0.0
  0
LINE
  5
47
330
1F
100
AcDbEntity
  8
SLD-0
  6
Continuous
 62
   179
100
AcDbLine
 10
60.36133
 20
171.1587399999999
 30
0.0
 11
56.36133
 21
171.1587399999999
 31
0.0
  0
LINE
  5
48
330
1F
100
AcDbEntity
  8
SLD-0
  6
Continuous
 62
   179
100
AcDbLine
 10
56.36133
 20
171.1587399999999
 30
0.0
 11
56.36133
 21
167.1587399999999
 31
0.0
  0
LINE
  5
49
330
1F
100
AcDbEntity
  8
SLD-0
  6
Continuous
 62
   179
100
AcDbLine
 10
46.66133
 20
167.1587399999999
 30
0.0
 11
50.66133
 21
167.1587399999999
 31
0.0
  0
LINE
  5
4A
330
1F
100
AcDbEntity
  8
SLD-0
  6
Continuous
 62
   179
100
AcDbLine
 10
50.66133
 20
167.1587399999999
 30
0.0
 11
50.66133
 21
171.1587399999999
 31
0.0
  0
LINE
  5
4B
330
1F
100
AcDbEntity
  8
SLD-0
  6
Continuous
 62
   179
100
AcDbLine
 10
50.66133
 20
171.1587399999999
 30
0.0
 11
46.66133
 21
171.1587399999999
 31
0.0
  0
LINE
  5
4C
330
1F
100
AcDbEntity
  8
SLD-0
  6
Continuous
 62
   179
100
AcDbLine
 10
46.66133
 20
171.1587399999999
 30
0.0
 11
46.66133
 21
167.1587399999999
 31
0.0
  0
LINE
  5
4D
330
1F
100
AcDbEntity
  8
SLD-0
  6
Continuous
 62
   179
100
AcDbLine
 10
41.81134
 20
167.1587399999999
 30
0.0
 11
45.81134
 21
167.1587399999999
 31
0.0
  0
LINE
  5
4E
330
1F
100
AcDbEntity
  8
SLD-0
  6
Continuous
 62
   179
100
AcDbLine
 10
45.81134
 20
167.1587399999999
 30
0.0
 11
45.81134
 21
171.1587399999999
 31
0.0
  0
LINE
  5
4F
330
1F
100
AcDbEntity
  8
SLD-0
  6
Continuous
 62
   179
100
AcDbLine
 10
45.81134
 20
171.1587399999999
 30
0.0
 11
41.81134
 21
171.1587399999999
 31
0.0
  0
LINE
  5
50
330
1F
100
AcDbEntity
  8
SLD-0
  6
Continuous
 62
   179
100
AcDbLine
 10
41.81134
 20
171.1587399999999
 30
0.0
 11
41.81134
 21
167.1587399999999
 31
0.0
  0
LINE
  5
51
330
1F
100
AcDbEntity
  8
SLD-0
  6
Continuous
 62
   179
100
AcDbLine
 10
36.96132999999999
 20
167.1587399999999
 30
0.0
 11
40.96133
 21
167.1587399999999
 31
0.0
  0
LINE
  5
52
330
1F
100
AcDbEntity
  8
SLD-0
  6
Continuous
 62
   179
100
AcDbLine
 10
40.96133
 20
167.1587399999999
 30
0.0
 11
40.96133
 21
171.1587399999999
 31
0.0
  0
LINE
  5
53
330
1F
100
AcDbEntity
  8
SLD-0
  6
Continuous
 62
   179
100
AcDbLine
 10
40.96133
 20
171.1587399999999
 30
0.0
 11
36.96132999999999
 21
171.1587399999999
 31
0.0
  0
LINE
  5
54
330
1F
100
AcDbEntity
  8
SLD-0
  6
Continuous
 62
   179
100
AcDbLine
 10
36.96132999999999
 20
171.1587399999999
 30
0.0
 11
36.96132999999999
 21
167.1587399999999
 31
0.0
  0
LINE
  5
55
330
1F
100
AcDbEntity
  8
SLD-0
  6
Continuous
 62
   179
100
AcDbLine
 10
32.11133
 20
167.1587399999999
 30
0.0
 11
36.11133
 21
167.1587399999999
 31
0.0
  0
LINE
  5
56
330
1F
100
AcDbEntity
  8
SLD-0
  6
Continuous
 62
   179
100
AcDbLine
 10
36.11133
 20
167.1587399999999
 30
0.0
 11
36.11133
 21
171.1587399999999
 31
0.0
  0
LINE
  5
57
330
1F
100
AcDbEntity
  8
SLD-0
  6
Continuous
 62
   179
100
AcDbLine
 10
36.11133
 20
171.1587399999999
 30
0.0
 11
32.11133
 21
171.1587399999999
 31
0.0
  0
LINE
  5
58
330
1F
100
AcDbEntity
  8
SLD-0
  6
Continuous
 62
   179
100
AcDbLine
 10
32.11133
 20
171.1587399999999
 30
0.0
 11
32.11133
 21
167.1587399999999
 31
0.0
  0
LINE
  5
59
330
1F
100
AcDbEntity
  8
SLD-0
  6
Continuous
 62
   179
100
AcDbLine
 10
70.91133000000002
 20
171.85873
 30
0.0
 11
74.91133000000002
 21
171.85873
 31
0.0
  0
LINE
  5
5A
330
1F
100
AcDbEntity
  8
SLD-0
  6
Continuous
 62
   179
100
AcDbLine
 10
74.91133000000002
 20
171.85873
 30
0.0
 11
74.91133000000002
 21
175.85873
 31
0.0
  0
LINE
  5
5B
330
1F
100
AcDbEntity
  8
SLD-0
  6
Continuous
 62
   179
100
AcDbLine
 10
74.91133000000002
 20
175.85873
 30
0.0
 11
70.91133000000002
 21
175.85873
 31
0.0
  0
LINE
  5
5C
330
1F
100
AcDbEntity
  8
SLD-0
  6
Continuous
 62
   179
100
AcDbLine
 10
70.91133000000002
 20
175.85873
 30
0.0
 11
70.91133000000002
 21
171.85873
 31
0.0
  0
LINE
  5
5D
330
1F
100
AcDbEntity
  8
SLD-0
  6
Continuous
 62
   179
100
AcDbLine
 10
66.06132999999998
 20
171.85873
 30
0.0
 11
70.06133
 21
171.85873
 31
0.0
  0
LINE
  5
5E
330
1F
100
AcDbEntity
  8
SLD-0
  6
Continuous
 62
   179
100
AcDbLine
 10
70.06133
 20
171.85873
 30
0.0
 11
70.06133
 21
175.85873
 31
0.0
  0
LINE
  5
5F
330
1F
100
AcDbEntity
  8
SLD-0
  6
Continuous
 62
   179
100
AcDbLine
 10
70.06133
 20
175.85873
 30
0.0
 11
66.06132999999998
 21
175.85873
 31
0.0
  0
LINE
  5
60
330
1F
100
AcDbEntity
  8
SLD-0
  6
Continuous
 62
   179
100
AcDbLine
 10
66.06132999999998
 20
175.85873
 30
0.0
 11
66.06132999999998
 21
171.85873
 31
0.0
  0
LINE
  5
61
330
1F
100
AcDbEntity
  8
SLD-0
  6
Continuous
 62
   179
100
AcDbLine
 10
61.21133
 20
171.85873
 30
0.0
 11
65.21133
 21
171.85873
 31
0.0
  0
LINE
  5
62
330
1F
100
AcDbEntity
  8
SLD-0
  6
Continuous
 62
   179
100
AcDbLine
 10
65.21133
 20
171.85873
 30
0.0
 11
65.21133
 21
175.85873
 31
0.0
  0
LINE
  5
63
330
1F
100
AcDbEntity
  8
SLD-0
  6
Continuous
 62
   179
100
AcDbLine
 10
65.21133
 20
175.85873
 30
0.0
 11
61.21133
 21
175.85873
 31
0.0
  0
LINE
  5
64
330
1F
100
AcDbEntity
  8
SLD-0
  6
Continuous
 62
   179
100
AcDbLine
 10
61.21133
 20
175.85873
 30
0.0
 11
61.21133
 21
171.85873
 31
0.0
  0
LINE
  5
65
330
1F
100
AcDbEntity
  8
SLD-0
  6
Continuous
 62
   179
100
AcDbLine
 10
41.81134
 20
171.85873
 30
0.0
 11
45.81134
 21
171.85873
 31
0.0
  0
LINE
  5
66
330
1F
100
AcDbEntity
  8
SLD-0
  6
Continuous
 62
   179
100
AcDbLine
 10
45.81134
 20
171.85873
 30
0.0
 11
45.81134
 21
175.85873
 31
0.0
  0
LINE
  5
67
330
1F
100
AcDbEntity
  8
SLD-0
  6
Continuous
 62
   179
100
AcDbLine
 10
45.81134
 20
175.85873
 30
0.0
 11
41.81134
 21
175.85873
 31
0.0
  0
LINE
  5
68
330
1F
100
AcDbEntity
  8
SLD-0
  6
Continuous
 62
   179
100
AcDbLine
 10
41.81134
 20
175.85873
 30
0.0
 11
41.81134
 21
171.85873
 31
0.0
  0
LINE
  5
69
330
1F
100
AcDbEntity
  8
SLD-0
  6
Continuous
 62
   179
100
AcDbLine
 10
36.96132999999999
 20
171.85873
 30
0.0
 11
40.96133
 21
171.85873
 31
0.0
  0
LINE
  5
6A
330
1F
100
AcDbEntity
  8
SLD-0
  6
Continuous
 62
   179
100
AcDbLine
 10
40.96133
 20
171.85873
 30
0.0
 11
40.96133
 21
175.85873
 31
0.0
  0
LINE
  5
6B
330
1F
100
AcDbEntity
  8
SLD-0
  6
Continuous
 62
   179
100
AcDbLine
 10
40.96133
 20
175.85873
 30
0.0
 11
36.96132999999999
 21
175.85873
 31
0.0
  0
LINE
  5
6C
330
1F
100
AcDbEntity
  8
SLD-0
  6
Continuous
 62
   179
100
AcDbLine
 10
36.96132999999999
 20
175.85873
 30
0.0
 11
36.96132999999999
 21
171.85873
 31
0.0
  0
LINE
  5
6D
330
1F
100
AcDbEntity
  8
SLD-0
  6
Continuous
 62
   179
100
AcDbLine
 10
32.11133
 20
171.85873
 30
0.0
 11
36.11133
 21
171.85873
 31
0.0
  0
LINE
  5
6E
330
1F
100
AcDbEntity
  8
SLD-0
  6
Continuous
 62
   179
100
AcDbLine
 10
36.11133
 20
171.85873
 30
0.0
 11
36.11133
 21
175.85873
 31
0.0
  0
LINE
  5
6F
330
1F
100
AcDbEntity
  8
SLD-0
  6
Continuous
 62
   179
100
AcDbLine
 10
36.11133
 20
175.85873
 30
0.0
 11
32.11133
 21
175.85873
 31
0.0
  0
LINE
  5
70
330
1F
100
AcDbEntity
  8
SLD-0
  6
Continuous
 62
   179
100
AcDbLine
 10
32.11133
 20
175.85873
 30
0.0
 11
32.11133
 21
171.85873
 31
0.0
  0
LINE
  5
71
330
1F
100
AcDbEntity
  8
SLD-0
  6
Continuous
 62
   179
100
AcDbLine
 10
70.91133000000002
 20
176.55875
 30
0.0
 11
74.91133000000002
 21
176.55875
 31
0.0
  0
LINE
  5
72
330
1F
100
AcDbEntity
  8
SLD-0
  6
Continuous
 62
   179
100
AcDbLine
 10
74.91133000000002
 20
176.55875
 30
0.0
 11
74.91133000000002
 21
180.55875
 31
0.0
  0
LINE
  5
73
330
1F
100
AcDbEntity
  8
SLD-0
  6
Continuous
 62
   179
100
AcDbLine
 10
74.91133000000002
 20
180.55875
 30
0.0
 11
70.91133000000002
 21
180.55875
 31
0.0
  0
LINE
  5
74
330
1F
100
AcDbEntity
  8
SLD-0
  6
Continuous
 62
   179
100
AcDbLine
 10
70.91133000000002
 20
180.55875
 30
0.0
 11
70.91133000000002
 21
176.55875
 31
0.0
  0
LINE
  5
75
330
1F
100
AcDbEntity
  8
SLD-0
  6
Continuous
 62
   179
100
AcDbLine
 10
66.06132999999998
 20
176.55875
 30
0.0
 11
70.06133
 21
176.55875
 31
0.0
  0
LINE
  5
76
330
1F
100
AcDbEntity
  8
SLD-0
  6
Continuous
 62
   179
100
AcDbLine
 10
70.06133
 20
176.55875
 30
0.0
 11
70.06133
 21
180.55875
 31
0.0
  0
LINE
  5
77
330
1F
100
AcDbEntity
  8
SLD-0
  6
Continuous
 62
   179
100
AcDbLine
 10
70.06133
 20
180.55875
 30
0.0
 11
66.06132999999998
 21
180.55875
 31
0.0
  0
LINE
  5
78
330
1F
100
AcDbEntity
  8
SLD-0
  6
Continuous
 62
   179
100
AcDbLine
 10
66.06132999999998
 20
180.55875
 30
0.0
 11
66.06132999999998
 21
176.55875
 31
0.0
  0
LINE
  5
79
330
1F
100
AcDbEntity
  8
SLD-0
  6
Continuous
 62
   179
100
AcDbLine
 10
61.21133
 20
176.55875
 30
0.0
 11
65.21133
 21
176.55875
 31
0.0
  0
LINE
  5
7A
330
1F
100
AcDbEntity
  8
SLD-0
  6
Continuous
 62
   179
100
AcDbLine
 10
65.21133
 20
176.55875
 30
0.0
 11
65.21133
 21
180.55875
 31
0.0
  0
LINE
  5
7B
330
1F
100
AcDbEntity
  8
SLD-0
  6
Continuous
 62
   179
100
AcDbLine
 10
65.21133
 20
180.55875
 30
0.0
 11
61.21133
 21
180.55875
 31
0.0
  0
LINE
  5
7C
330
1F
100
AcDbEntity
  8
SLD-0
  6
Continuous
 62
   179
100
AcDbLine
 10
61.21133
 20
180.55875
 30
0.0
 11
61.21133
 21
176.55875
 31
0.0
  0
LINE
  5
7D
330
1F
100
AcDbEntity
  8
SLD-0
  6
Continuous
 62
   179
100
AcDbLine
 10
41.81134
 20
176.55875
 30
0.0
 11
45.81134
 21
176.55875
 31
0.0
  0
LINE
  5
7E
330
1F
100
AcDbEntity
  8
SLD-0
  6
Continuous
 62
   179
100
AcDbLine
 10
45.81134
 20
176.55875
 30
0.0
 11
45.81134
 21
180.55875
 31
0.0
  0
LINE
  5
7F
330
1F
100
AcDbEntity
  8
SLD-0
  6
Continuous
 62
   179
100
AcDbLine
 10
45.81134
 20
180.55875
 30
0.0
 11
41.81134
 21
180.55875
 31
0.0
  0
LINE
  5
80
330
1F
100
AcDbEntity
  8
SLD-0
  6
Continuous
 62
   179
100
AcDbLine
 10
41.81134
 20
180.55875
 30
0.0
 11
41.81134
 21
176.55875
 31
0.0
  0
LINE
  5
81
330
1F
100
AcDbEntity
  8
SLD-0
  6
Continuous
 62
   179
100
AcDbLine
 10
36.96132999999999
 20
176.55875
 30
0.0
 11
40.96133
 21
176.55875
 31
0.0
  0
LINE
  5
82
330
1F
100
AcDbEntity
  8
SLD-0
  6
Continuous
 62
   179
100
AcDbLine
 10
40.96133
 20
176.55875
 30
0.0
 11
40.96133
 21
180.55875
 31
0.0
  0
LINE
  5
83
330
1F
100
AcDbEntity
  8
SLD-0
  6
Continuous
 62
   179
100
AcDbLine
 10
40.96133
 20
180.55875
 30
0.0
 11
36.96132999999999
 21
180.55875
 31
0.0
  0
LINE
  5
84
330
1F
100
AcDbEntity
  8
SLD-0
  6
Continuous
 62
   179
100
AcDbLine
 10
36.96132999999999
 20
180.55875
 30
0.0
 11
36.96132999999999
 21
176.55875
 31
0.0
  0
LINE
  5
85
330
1F
100
AcDbEntity
  8
SLD-0
  6
Continuous
 62
   179
100
AcDbLine
 10
32.11133
 20
176.55875
 30
0.0
 11
36.11133
 21
176.55875
 31
0.0
  0
LINE
  5
86
330
1F
100
AcDbEntity
  8
SLD-0
  6
Continuous
 62
   179
100
AcDbLine
 10
36.11133
 20
176.55875
 30
0.0
 11
36.11133
 21
180.55875
 31
0.0
  0
LINE
  5
87
330
1F
100
AcDbEntity
  8
SLD-0
  6
Continuous
 62
   179
100
AcDbLine
 10
36.11133
 20
180.55875
 30
0.0
 11
32.11133
 21
180.55875
 31
0.0
  0
LINE
  5
88
330
1F
100
AcDbEntity
  8
SLD-0
  6
Continuous
 62
   179
100
AcDbLine
 10
32.11133
 20
180.55875
 30
0.0
 11
32.11133
 21
176.55875
 31
0.0
  0
LINE
  5
89
330
1F
100
AcDbEntity
  8
SLD-0
  6
Continuous
 62
   179
100
AcDbLine
 10
70.91133000000002
 20
181.2587399999999
 30
0.0
 11
74.91133000000002
 21
181.2587399999999
 31
0.0
  0
LINE
  5
8A
330
1F
100
AcDbEntity
  8
SLD-0
  6
Continuous
 62
   179
100
AcDbLine
 10
74.91133000000002
 20
181.2587399999999
 30
0.0
 11
74.91133000000002
 21
185.2587399999999
 31
0.0
  0
LINE
  5
8B
330
1F
100
AcDbEntity
  8
SLD-0
  6
Continuous
 62
   179
100
AcDbLine
 10
74.91133000000002
 20
185.2587399999999
 30
0.0
 11
70.91133000000002
 21
185.2587399999999
 31
0.0
  0
LINE
  5
8C
330
1F
100
AcDbEntity
  8
SLD-0
  6
Continuous
 62
   179
100
AcDbLine
 10
70.91133000000002
 20
185.2587399999999
 30
0.0
 11
70.91133000000002
 21
181.2587399999999
 31
0.0
  0
LINE
  5
8D
330
1F
100
AcDbEntity
  8
SLD-0
  6
Continuous
 62
   179
100
AcDbLine
 10
66.06132999999998
 20
181.2587399999999
 30
0.0
 11
70.06133
 21
181.2587399999999
 31
0.0
  0
LINE
  5
8E
330
1F
100
AcDbEntity
  8
SLD-0
  6
Continuous
 62
   179
100
AcDbLine
 10
70.06133
 20
181.2587399999999
 30
0.0
 11
70.06133
 21
185.2587399999999
 31
0.0
  0
LINE
  5
8F
330
1F
100
AcDbEntity
  8
SLD-0
  6
Continuous
 62
   179
100
AcDbLine
 10
70.06133
 20
185.2587399999999
 30
0.0
 11
66.06132999999998
 21
185.2587399999999
 31
0.0
  0
LINE
  5
90
330
1F
100
AcDbEntity
  8
SLD-0
  6
Continuous
 62
   179
100
AcDbLine
 10
66.06132999999998
 20
185.2587399999999
 30
0.0
 11
66.06132999999998
 21
181.2587399999999
 31
0.0
  0
LINE
  5
91
330
1F
100
AcDbEntity
  8
SLD-0
  6
Continuous
 62
   179
100
AcDbLine
 10
61.21133
 20
181.2587399999999
 30
0.0
 11
65.21133
 21
181.2587399999999
 31
0.0
  0
LINE
  5
92
330
1F
100
AcDbEntity
  8
SLD-0
  6
Continuous
 62
   179
100
AcDbLine
 10
65.21133
 20
181.2587399999999
 30
0.0
 11
65.21133
 21
185.2587399999999
 31
0.0
  0
LINE
  5
93
330
1F
100
AcDbEntity
  8
SLD-0
  6
Continuous
 62
   179
100
AcDbLine
 10
65.21133
 20
185.2587399999999
 30
0.0
 11
61.21133
 21
185.2587399999999
 31
0.0
  0
LINE
  5
94
330
1F
100
AcDbEntity
  8
SLD-0
  6
Continuous
 62
   179
100
AcDbLine
 10
61.21133
 20
185.2587399999999
 30
0.0
 11
61.21133
 21
181.2587399999999
 31
0.0
  0
LINE
  5
95
330
1F
100
AcDbEntity
  8
SLD-0
  6
Continuous
 62
   179
100
AcDbLine
 10
41.81134
 20
181.2587399999999
 30
0.0
 11
45.81134
 21
181.2587399999999
 31
0.0
  0
LINE
  5
96
330
1F
100
AcDbEntity
  8
SLD-0
  6
Continuous
 62
   179
100
AcDbLine
 10
45.81134
 20
181.2587399999999
 30
0.0
 11
45.81134
 21
185.2587399999999
 31
0.0
  0
LINE
  5
97
330
1F
100
AcDbEntity
  8
SLD-0
  6
Continuous
 62
   179
100
AcDbLine
 10
45.81134
 20
185.2587399999999
 30
0.0
 11
41.81134
 21
185.2587399999999
 31
0.0
  0
LINE
  5
98
330
1F
100
AcDbEntity
  8
SLD-0
  6
Continuous
 62
   179
100
AcDbLine
 10
41.81134
 20
185.2587399999999
 30
0.0
 11
41.81134
 21
181.2587399999999
 31
0.0
  0
LINE
  5
99
330
1F
100
AcDbEntity
  8
SLD-0
  6
Continuous
 62
   179
100
AcDbLine
 10
36.96132999999999
 20
181.2587399999999
 30
0.0
 11
40.96133
 21
181.2587399999999
 31
0.0
  0
LINE
  5
9A
330
1F
100
AcDbEntity
  8
SLD-0
  6
Continuous
 62
   179
100
AcDbLine
 10
40.96133
 20
181.2587399999999
 30
0.0
 11
40.96133
 21
185.2587399999999
 31
0.0
  0
LINE
  5
9B
330
1F
100
AcDbEntity
  8
SLD-0
  6
Continuous
 62
   179
100
AcDbLine
 10
40.96133
 20
185.2587399999999
 30
0.0
 11
36.96132999999999
 21
185.2587399999999
 31
0.0
  0
LINE
  5
9C
330
1F
100
AcDbEntity
  8
SLD-0
  6
Continuous
 62
   179
100
AcDbLine
 10
36.96132999999999
 20
185.2587399999999
 30
0.0
 11
36.96132999999999
 21
181.2587399999999
 31
0.0
  0
LINE
  5
9D
330
1F
100
AcDbEntity
  8
SLD-0
  6
Continuous
 62
   179
100
AcDbLine
 10
32.11133
 20
181.2587399999999
 30
0.0
 11
36.11133
 21
181.2587399999999
 31
0.0
  0
LINE
  5
9E
330
1F
100
AcDbEntity
  8
SLD-0
  6
Continuous
 62
   179
100
AcDbLine
 10
36.11133
 20
181.2587399999999
 30
0.0
 11
36.11133
 21
185.2587399999999
 31
0.0
  0
LINE
  5
9F
330
1F
100
AcDbEntity
  8
SLD-0
  6
Continuous
 62
   179
100
AcDbLine
 10
36.11133
 20
185.2587399999999
 30
0.0
 11
32.11133
 21
185.2587399999999
 31
0.0
  0
LINE
  5
A0
330
1F
100
AcDbEntity
  8
SLD-0
  6
Continuous
 62
   179
100
AcDbLine
 10
32.11133
 20
185.2587399999999
 30
0.0
 11
32.11133
 21
181.2587399999999
 31
0.0
  0
LINE
  5
A1
330
1F
100
AcDbEntity
  8
SLD-0
  6
Continuous
 62
   179
100
AcDbLine
 10
70.91133000000002
 20
185.9587399999999
 30
0.0
 11
74.91133000000002
 21
185.9587399999999
 31
0.0
  0
LINE
  5
A2
330
1F
100
AcDbEntity
  8
SLD-0
  6
Continuous
 62
   179
100
AcDbLine
 10
74.91133000000002
 20
185.9587399999999
 30
0.0
 11
74.91133000000002
 21
189.9587399999999
 31
0.0
  0
LINE
  5
A3
330
1F
100
AcDbEntity
  8
SLD-0
  6
Continuous
 62
   179
100
AcDbLine
 10
74.91133000000002
 20
189.9587399999999
 30
0.0
 11
70.91133000000002
 21
189.9587399999999
 31
0.0
  0
LINE
  5
A4
330
1F
100
AcDbEntity
  8
SLD-0
  6
Continuous
 62
   179
100
AcDbLine
 10
70.91133000000002
 20
189.9587399999999
 30
0.0
 11
70.91133000000002
 21
185.9587399999999
 31
0.0
  0
LINE
  5
A5
330
1F
100
AcDbEntity
  8
SLD-0
  6
Continuous
 62
   179
100
AcDbLine
 10
66.06132999999998
 20
185.9587399999999
 30
0.0
 11
70.06133
 21
185.9587399999999
 31
0.0
  0
LINE
  5
A6
330
1F
100
AcDbEntity
  8
SLD-0
  6
Continuous
 62
   179
100
AcDbLine
 10
70.06133
 20
185.9587399999999
 30
0.0
 11
70.06133
 21
189.9587399999999
 31
0.0
  0
LINE
  5
A7
330
1F
100
AcDbEntity
  8
SLD-0
  6
Continuous
 62
   179
100
AcDbLine
 10
70.06133
 20
189.9587399999999
 30
0.0
 11
66.06132999999998
 21
189.9587399999999
 31
0.0
  0
LINE
  5
A8
330
1F
100
AcDbEntity
  8
SLD-0
  6
Continuous
 62
   179
100
AcDbLine
 10
66.06132999999998
 20
189.9587399999999
 30
0.0
 11
66.06132999999998
 21
185.9587399999999
 31
0.0
  0
LINE
  5
A9
330
1F
100
AcDbEntity
  8
SLD-0
  6
Continuous
 62
   179
100
AcDbLine
 10
61.21133
 20
185.9587399999999
 30
0.0
 11
65.21133
 21
185.9587399999999
 31
0.0
  0
LINE
  5
AA
330
1F
100
AcDbEntity
  8
SLD-0
  6
Continuous
 62
   179
100
AcDbLine
 10
65.21133
 20
185.9587399999999
 30
0.0
 11
65.21133
 21
189.9587399999999
 31
0.0
  0
LINE
  5
AB
330
1F
100
AcDbEntity
  8
SLD-0
  6
Continuous
 62
   179
100
AcDbLine
 10
65.21133
 20
189.9587399999999
 30
0.0
 11
61.21133
 21
189.9587399999999
 31
0.0
  0
LINE
  5
AC
330
1F
100
AcDbEntity
  8
SLD-0
  6
Continuous
 62
   179
100
AcDbLine
 10
61.21133
 20
189.9587399999999
 30
0.0
 11
61.21133
 21
185.9587399999999
 31
0.0
  0
LINE
  5
AD
330
1F
100
AcDbEntity
  8
SLD-0
  6
Continuous
 62
   179
100
AcDbLine
 10
56.36133
 20
185.9587399999999
 30
0.0
 11
60.36133
 21
185.9587399999999
 31
0.0
  0
LINE
  5
AE
330
1F
100
AcDbEntity
  8
SLD-0
  6
Continuous
 62
   179
100
AcDbLine
 10
60.36133
 20
185.9587399999999
 30
0.0
 11
60.36133
 21
189.9587399999999
 31
0.0
  0
LINE
  5
AF
330
1F
100
AcDbEntity
  8
SLD-0
  6
Continuous
 62
   179
100
AcDbLine
 10
60.36133
 20
189.9587399999999
 30
0.0
 11
56.36133
 21
189.9587399999999
 31
0.0
  0
LINE
  5
B0
330
1F
100
AcDbEntity
  8
SLD-0
  6
Continuous
 62
   179
100
AcDbLine
 10
56.36133
 20
189.9587399999999
 30
0.0
 11
56.36133
 21
185.9587399999999
 31
0.0
  0
LINE
  5
B1
330
1F
100
AcDbEntity
  8
SLD-0
  6
Continuous
 62
   179
100
AcDbLine
 10
51.51134
 20
185.9587399999999
 30
0.0
 11
55.51134000000001
 21
185.9587399999999
 31
0.0
  0
LINE
  5
B2
330
1F
100
AcDbEntity
  8
SLD-0
  6
Continuous
 62
   179
100
AcDbLine
 10
55.51134000000001
 20
185.9587399999999
 30
0.0
 11
55.51134000000001
 21
189.9587399999999
 31
0.0
  0
LINE
  5
B3
330
1F
100
AcDbEntity
  8
SLD-0
  6
Continuous
 62
   179
100
AcDbLine
 10
55.51134000000001
 20
189.9587399999999
 30
0.0
 11
51.51134
 21
189.9587399999999
 31
0.0
  0
LINE
  5
B4
330
1F
100
AcDbEntity
  8
SLD-0
  6
Continuous
 62
   179
100
AcDbLine
 10
51.51134
 20
189.9587399999999
 30
0.0
 11
51.51134
 21
185.9587399999999
 31
0.0
  0
LINE
  5
B5
330
1F
100
AcDbEntity
  8
SLD-0
  6
Continuous
 62
   179
100
AcDbLine
 10
46.66133
 20
185.9587399999999
 30
0.0
 11
50.66133
 21
185.9587399999999
 31
0.0
  0
LINE
  5
B6
330
1F
100
AcDbEntity
  8
SLD-0
  6
Continuous
 62
   179
100
AcDbLine
 10
50.66133
 20
185.9587399999999
 30
0.0
 11
50.66133
 21
189.9587399999999
 31
0.0
  0
LINE
  5
B7
330
1F
100
AcDbEntity
  8
SLD-0
  6
Continuous
 62
   179
100
AcDbLine
 10
50.66133
 20
189.9587399999999
 30
0.0
 11
46.66133
 21
189.9587399999999
 31
0.0
  0
LINE
  5
B8
330
1F
100
AcDbEntity
  8
SLD-0
  6
Continuous
 62
   179
100
AcDbLine
 10
46.66133
 20
189.9587399999999
 30
0.0
 11
46.66133
 21
185.9587399999999
 31
0.0
  0
LINE
  5
B9
330
1F
100
AcDbEntity
  8
SLD-0
  6
Continuous
 62
   179
100
AcDbLine
 10
41.81134
 20
185.9587399999999
 30
0.0
 11
45.81134
 21
185.9587399999999
 31
0.0
  0
LINE
  5
BA
330
1F
100
AcDbEntity
  8
SLD-0
  6
Continuous
 62
   179
100
AcDbLine
 10
45.81134
 20
185.9587399999999
 30
0.0
 11
45.81134
 21
189.9587399999999
 31
0.0
  0
LINE
  5
BB
330
1F
100
AcDbEntity
  8
SLD-0
  6
Continuous
 62
   179
100
AcDbLine
 10
45.81134
 20
189.9587399999999
 30
0.0
 11
41.81134
 21
189.9587399999999
 31
0.0
  0
LINE
  5
BC
330
1F
100
AcDbEntity
  8
SLD-0
  6
Continuous
 62
   179
100
AcDbLine
 10
41.81134
 20
189.9587399999999
 30
0.0
 11
41.81134
 21
185.9587399999999
 31
0.0
  0
LINE
  5
BD
330
1F
100
AcDbEntity
  8
SLD-0
  6
Continuous
 62
   179
100
AcDbLine
 10
76.51134
 20
167.5587499999999
 30
0.0
 11
76.51134
 21
189.5587499999999
 31
0.0
  0
LINE
  5
BE
330
1F
100
AcDbEntity
  8
SLD-0
  6
Continuous
 62
   179
100
AcDbLine
 10
32.51134
 20
165.55875
 30
0.0
 11
74.51134
 21
165.55875
 31
0.0
  0
LINE
  5
BF
330
1F
100
AcDbEntity
  8
SLD-0
  6
Continuous
 62
   179
100
AcDbLine
 10
30.51134
 20
189.5587499999999
 30
0.0
 11
30.51134
 21
167.5587499999999
 31
0.0
  0
LINE
  5
C0
330
1F
100
AcDbEntity
  8
SLD-0
  6
Continuous
 62
   179
100
AcDbLine
 10
74.51134
 20
191.5587499999999
 30
0.0
 11
32.51134
 21
191.5587499999999
 31
0.0
  0
LINE
  5
C1
330
1F
100
AcDbEntity
  8
SLD-0
  6
Continuous
 62
   179
100
AcDbLine
 10
36.11133
 20
185.9587399999999
 30
0.0
 11
36.11133
 21
189.9587399999999
 31
0.0
  0
LINE
  5
C2
330
1F
100
AcDbEntity
  8
SLD-0
  6
Continuous
 62
   179
100
AcDbLine
 10
36.11133
 20
189.9587399999999
 30
0.0
 11
32.11133
 21
189.9587399999999
 31
0.0
  0
LINE
  5
C3
330
1F
100
AcDbEntity
  8
SLD-0
  6
Continuous
 62
   179
100
AcDbLine
 10
32.11133
 20
189.9587399999999
 30
0.0
 11
32.11133
 21
185.9587399999999
 31
0.0
  0
LINE
  5
C4
330
1F
100
AcDbEntity
  8
SLD-0
  6
Continuous
 62
   179
100
AcDbLine
 10
32.11133
 20
185.9587399999999
 30
0.0
 11
36.11133
 21
185.9587399999999
 31
0.0
  0
LINE
  5
C5
330
1F
100
AcDbEntity
  8
SLD-0
  6
Continuous
 62
   179
100
AcDbLine
 10
40.96133
 20
185.9587399999999
 30
0.0
 11
40.96133
 21
189.9587399999999
 31
0.0
  0
LINE
  5
C6
330
1F
100
AcDbEntity
  8
SLD-0
  6
Continuous
 62
   179
100
AcDbLine
 10
40.96133
 20
189.9587399999999
 30
0.0
 11
36.96132999999999
 21
189.9587399999999
 31
0.0
  0
LINE
  5
C7
330
1F
100
AcDbEntity
  8
SLD-0
  6
Continuous
 62
   179
100
AcDbLine
 10
36.96132999999999
 20
189.9587399999999
 30
0.0
 11
36.96132999999999
 21
185.9587399999999
 31
0.0
  0
LINE
  5
C8
330
1F
100
AcDbEntity
  8
SLD-0
  6
Continuous
 62
   179
100
AcDbLine
 10
36.96132999999999
 20
185.9587399999999
 30
0.0
 11
40.96133
 21
185.9587399999999
 31
0.0
  0
LINE
  5
C9
330
1F
100
AcDbEntity
  8
SLD-0
  6
Continuous
 62
   179
100
AcDbLine
 10
46.72089999999999
 20
175.85873
 30
0.0
 11
46.66133
 21
175.85873
 31
0.0
  0
LINE
  5
CA
330
1F
100
AcDbEntity
  8
SLD-0
  6
Continuous
 62
   179
100
AcDbLine
 10
46.66133
 20
175.85873
 30
0.0
 11
46.66133
 21
171.85873
 31
0.0
  0
LINE
  5
CB
330
1F
100
AcDbEntity
  8
SLD-0
  6
Continuous
 62
   179
100
AcDbLine
 10
51.51134
 20
170.8505399999999
 30
0.0
 11
51.51134
 21
167.1587399999999
 31
0.0
  0
LINE
  5
CC
330
1F
100
AcDbEntity
  8
SLD-0
  6
Continuous
 62
   179
100
AcDbLine
 10
51.51134
 20
167.1587399999999
 30
0.0
 11
55.51134000000001
 21
167.1587399999999
 31
0.0
  0
LINE
  5
CD
330
1F
100
AcDbEntity
  8
SLD-0
  6
Continuous
 62
   179
100
AcDbLine
 10
55.51134000000001
 20
167.1587399999999
 30
0.0
 11
55.51134000000001
 21
170.8505399999999
 31
0.0
  0
LINE
  5
CE
330
1F
100
AcDbEntity
  8
SLD-0
  6
Continuous
 62
   179
100
AcDbLine
 10
57.57458
 20
171.85873
 30
0.0
 11
60.36133
 21
171.85873
 31
0.0
  0
LINE
  5
CF
330
1F
100
AcDbEntity
  8
SLD-0
  6
Continuous
 62
   179
100
AcDbLine
 10
60.36133
 20
171.85873
 30
0.0
 11
60.36133
 21
175.85873
 31
0.0
  0
LINE
  5
D0
330
1F
100
AcDbEntity
  8
SLD-0
  6
Continuous
 62
   179
100
AcDbLine
 10
60.36133
 20
175.85873
 30
0.0
 11
60.30177
 21
175.85873
 31
0.0
  0
LINE
  5
D1
330
1F
100
AcDbEntity
  8
SLD-0
  6
Continuous
 62
   179
100
AcDbLine
 10
59.45355
 20
181.2587399999999
 30
0.0
 11
60.36133
 21
181.2587399999999
 31
0.0
  0
LINE
  5
D2
330
1F
100
AcDbEntity
  8
SLD-0
  6
Continuous
 62
   179
100
AcDbLine
 10
60.36133
 20
181.2587399999999
 30
0.0
 11
60.36133
 21
185.2587399999999
 31
0.0
  0
LINE
  5
D3
330
1F
100
AcDbEntity
  8
SLD-0
  6
Continuous
 62
   179
100
AcDbLine
 10
60.36133
 20
185.2587399999999
 30
0.0
 11
56.36133
 21
185.2587399999999
 31
0.0
  0
LINE
  5
D4
330
1F
100
AcDbEntity
  8
SLD-0
  6
Continuous
 62
   179
100
AcDbLine
 10
56.36133
 20
185.2587399999999
 30
0.0
 11
56.36133
 21
183.9522899999999
 31
0.0
  0
LINE
  5
D5
330
1F
100
AcDbEntity
  8
SLD-0
  6
Continuous
 62
   179
100
AcDbLine
 10
55.51134000000001
 20
184.26695
 30
0.0
 11
55.51134000000001
 21
185.2587399999999
 31
0.0
  0
LINE
  5
D6
330
1F
100
AcDbEntity
  8
SLD-0
  6
Continuous
 62
   179
100
AcDbLine
 10
55.51134000000001
 20
185.2587399999999
 30
0.0
 11
51.51134
 21
185.2587399999999
 31
0.0
  0
LINE
  5
D7
330
1F
100
AcDbEntity
  8
SLD-0
  6
Continuous
 62
   179
100
AcDbLine
 10
51.51134
 20
185.2587399999999
 30
0.0
 11
51.51134
 21
184.26695
 31
0.0
  0
LINE
  5
D8
330
1F
100
AcDbEntity
  8
SLD-0
  6
Continuous
 62
   179
100
AcDbLine
 10
50.66133
 20
183.9522899999999
 30
0.0
 11
50.66133
 21
185.2587399999999
 31
0.0
  0
LINE
  5
D9
330
1F
100
AcDbEntity
  8
SLD-0
  6
Continuous
 62
   179
100
AcDbLine
 10
50.66133
 20
185.2587399999999
 30
0.0
 11
46.66133
 21
185.2587399999999
 31
0.0
  0
LINE
  5
DA
330
1F
100
AcDbEntity
  8
SLD-0
  6
Continuous
 62
   179
100
AcDbLine
 10
46.66133
 20
185.2587399999999
 30
0.0
 11
46.66133
 21
181.2587399999999
 31
0.0
  0
LINE
  5
DB
330
1F
100
AcDbEntity
  8
SLD-0
  6
Continuous
 62
   179
100
AcDbLine
 10
46.66133
 20
181.2587399999999
 30
0.0
 11
47.56910999999998
 21
181.2587399999999
 31
0.0
  0
LINE
  5
DC
330
1F
100
AcDbEntity
  8
SLD-0
  6
Continuous
 62
   179
100
AcDbLine
 10
42.34723999999999
 20
184.7228399999999
 30
0.0
 11
41.81134
 21
185.2587399999999
 31
0.0
  0
LINE
  5
DD
330
1F
100
AcDbEntity
  8
SLD-0
  6
Continuous
 62
   179
100
AcDbLine
 10
42.34722999999998
 20
184.7228399999999
 30
0.0
 11
42.34722999999998
 21
181.7946499999999
 31
0.0
  0
LINE
  5
DE
330
1F
100
AcDbEntity
  8
SLD-0
  6
Continuous
 62
   179
100
AcDbLine
 10
42.34722999999998
 20
181.7946399999999
 30
0.0
 11
41.81132999999999
 21
181.25875
 31
0.0
  0
LINE
  5
DF
330
1F
100
AcDbEntity
  8
SLD-0
  6
Continuous
 62
   179
100
AcDbLine
 10
66.59723000000001
 20
180.02285
 30
0.0
 11
66.06132999999998
 21
180.55874
 31
0.0
  0
LINE
  5
E0
330
1F
100
AcDbEntity
  8
SLD-0
  6
Continuous
 62
   179
100
AcDbLine
 10
66.59724
 20
180.0228399999999
 30
0.0
 11
66.59724
 21
177.0946399999999
 31
0.0
  0
LINE
  5
E1
330
1F
100
AcDbEntity
  8
SLD-0
  6
Continuous
 62
   179
100
AcDbLine
 10
66.59723000000001
 20
177.0946399999999
 30
0.0
 11
66.06134
 21
176.55874
 31
0.0
  0
LINE
  5
E2
330
1F
100
AcDbEntity
  8
SLD-0
  6
Continuous
 62
   179
100
AcDbLine
 10
35.57544
 20
189.4228399999999
 30
0.0
 11
36.11133
 21
189.9587399999999
 31
0.0
  0
LINE
  5
E3
330
1F
100
AcDbEntity
  8
SLD-0
  6
Continuous
 62
   179
100
AcDbLine
 10
35.57544
 20
189.4228399999999
 30
0.0
 11
32.64723
 21
189.4228399999999
 31
0.0
  0
LINE
  5
E4
330
1F
100
AcDbEntity
  8
SLD-0
  6
Continuous
 62
   179
100
AcDbLine
 10
32.64723
 20
189.4228399999999
 30
0.0
 11
32.11134
 21
189.9587399999999
 31
0.0
  0
LINE
  5
E5
330
1F
100
AcDbEntity
  8
SLD-0
  6
Continuous
 62
   179
100
AcDbLine
 10
35.57542999999999
 20
186.49464
 30
0.0
 11
36.11133
 21
185.9587399999999
 31
0.0
  0
LINE
  5
E6
330
1F
100
AcDbEntity
  8
SLD-0
  6
Continuous
 62
   179
100
AcDbLine
 10
35.57542999999999
 20
186.49464
 30
0.0
 11
35.57544
 21
189.4228399999999
 31
0.0
  0
LINE
  5
E7
330
1F
100
AcDbEntity
  8
SLD-0
  6
Continuous
 62
   179
100
AcDbLine
 10
32.64724
 20
186.49464
 30
0.0
 11
32.11134
 21
185.9587399999999
 31
0.0
  0
LINE
  5
E8
330
1F
100
AcDbEntity
  8
SLD-0
  6
Continuous
 62
   179
100
AcDbLine
 10
32.64723
 20
186.49464
 30
0.0
 11
35.57542999999999
 21
186.49464
 31
0.0
  0
LINE
  5
E9
330
1F
100
AcDbEntity
  8
SLD-0
  6
Continuous
 62
   179
100
AcDbLine
 10
47.19723
 20
184.7228499999999
 30
0.0
 11
46.66133
 21
185.2587399999999
 31
0.0
  0
LINE
  5
EA
330
1F
100
AcDbEntity
  8
SLD-0
  6
Continuous
 62
   179
100
AcDbLine
 10
47.19724
 20
184.7228399999999
 30
0.0
 11
47.19724
 21
181.7946499999999
 31
0.0
  0
LINE
  5
EB
330
1F
100
AcDbEntity
  8
SLD-0
  6
Continuous
 62
   179
100
AcDbLine
 10
47.19723
 20
181.7946399999999
 30
0.0
 11
46.66133
 21
181.2587399999999
 31
0.0
  0
LINE
  5
EC
330
1F
100
AcDbEntity
  8
SLD-0
  6
Continuous
 62
   179
100
AcDbLine
 10
37.49724
 20
189.4228399999999
 30
0.0
 11
36.96132999999999
 21
189.9587399999999
 31
0.0
  0
LINE
  5
ED
330
1F
100
AcDbEntity
  8
SLD-0
  6
Continuous
 62
   179
100
AcDbLine
 10
37.49724
 20
189.4228399999999
 30
0.0
 11
37.49724
 21
186.49464
 31
0.0
  0
LINE
  5
EE
330
1F
100
AcDbEntity
  8
SLD-0
  6
Continuous
 62
   179
100
AcDbLine
 10
37.49723
 20
186.49464
 30
0.0
 11
36.96132999999999
 21
185.9587399999999
 31
0.0
  0
LINE
  5
EF
330
1F
100
AcDbEntity
  8
SLD-0
  6
Continuous
 62
   179
100
AcDbLine
 10
40.42543
 20
189.42285
 30
0.0
 11
40.96133
 21
189.9587399999999
 31
0.0
  0
LINE
  5
F0
330
1F
100
AcDbEntity
  8
SLD-0
  6
Continuous
 62
   179
100
AcDbLine
 10
40.42543
 20
189.4228399999999
 30
0.0
 11
37.49724
 21
189.4228399999999
 31
0.0
  0
LINE
  5
F1
330
1F
100
AcDbEntity
  8
SLD-0
  6
Continuous
 62
   179
100
AcDbLine
 10
40.42544
 20
186.49464
 30
0.0
 11
40.96133
 21
185.9587399999999
 31
0.0
  0
LINE
  5
F2
330
1F
100
AcDbEntity
  8
SLD-0
  6
Continuous
 62
   179
100
AcDbLine
 10
40.42543
 20
186.49464
 30
0.0
 11
40.42543
 21
189.4228399999999
 31
0.0
  0
LINE
  5
F3
330
1F
100
AcDbEntity
  8
SLD-0
  6
Continuous
 62
   179
100
AcDbLine
 10
37.49724
 20
186.49464
 30
0.0
 11
40.42543
 21
186.49464
 31
0.0
  0
LINE
  5
F4
330
1F
100
AcDbEntity
  8
SLD-0
  6
Continuous
 62
   179
100
AcDbLine
 10
64.67544000000001
 20
167.69464
 30
0.0
 11
65.21133
 21
167.1587399999999
 31
0.0
  0
LINE
  5
F5
330
1F
100
AcDbEntity
  8
SLD-0
  6
Continuous
 62
   179
100
AcDbLine
 10
64.67543
 20
167.69464
 30
0.0
 11
64.67543
 21
170.6228499999999
 31
0.0
  0
LINE
  5
F6
330
1F
100
AcDbEntity
  8
SLD-0
  6
Continuous
 62
   179
100
AcDbLine
 10
64.67543
 20
170.6228499999999
 30
0.0
 11
65.21133
 21
171.1587399999999
 31
0.0
  0
LINE
  5
F7
330
1F
100
AcDbEntity
  8
SLD-0
  6
Continuous
 62
   179
100
AcDbLine
 10
42.34722999999998
 20
172.3946399999999
 30
0.0
 11
41.81132999999999
 21
171.8587499999999
 31
0.0
  0
LINE
  5
F8
330
1F
100
AcDbEntity
  8
SLD-0
  6
Continuous
 62
   179
100
AcDbLine
 10
42.34722999999998
 20
172.3946399999999
 30
0.0
 11
45.27544
 21
172.3946399999999
 31
0.0
  0
LINE
  5
F9
330
1F
100
AcDbEntity
  8
SLD-0
  6
Continuous
 62
   179
100
AcDbLine
 10
45.27544
 20
172.3946399999999
 30
0.0
 11
45.81133
 21
171.8587399999999
 31
0.0
  0
LINE
  5
FA
330
1F
100
AcDbEntity
  8
SLD-0
  6
Continuous
 62
   179
100
AcDbLine
 10
42.34722999999998
 20
186.49464
 30
0.0
 11
41.81134
 21
185.9587399999999
 31
0.0
  0
LINE
  5
FB
330
1F
100
AcDbEntity
  8
SLD-0
  6
Continuous
 62
   179
100
AcDbLine
 10
42.34722999999998
 20
186.49464
 30
0.0
 11
45.27544
 21
186.49464
 31
0.0
  0
LINE
  5
FC
330
1F
100
AcDbEntity
  8
SLD-0
  6
Continuous
 62
   179
100
AcDbLine
 10
45.27544
 20
186.49464
 30
0.0
 11
45.81134
 21
185.9587399999999
 31
0.0
  0
LINE
  5
FD
330
1F
100
AcDbEntity
  8
SLD-0
  6
Continuous
 62
   179
100
AcDbLine
 10
45.27544
 20
186.49464
 30
0.0
 11
45.27544
 21
189.4228399999999
 31
0.0
  0
LINE
  5
FE
330
1F
100
AcDbEntity
  8
SLD-0
  6
Continuous
 62
   179
100
AcDbLine
 10
45.27544
 20
189.4228399999999
 30
0.0
 11
45.81134
 21
189.9587399999999
 31
0.0
  0
LINE
  5
FF
330
1F
100
AcDbEntity
  8
SLD-0
  6
Continuous
 62
   179
100
AcDbLine
 10
45.27544
 20
189.4228399999999
 30
0.0
 11
42.34722999999998
 21
189.4228399999999
 31
0.0
  0
LINE
  5
100
330
1F
100
AcDbEntity
  8
SLD-0
  6
Continuous
 62
   179
100
AcDbLine
 10
42.34722999999998
 20
189.4228399999999
 30
0.0
 11
41.81132999999999
 21
189.9587399999999
 31
0.0
  0
LINE
  5
101
330
1F
100
AcDbEntity
  8
SLD-0
  6
Continuous
 62
   179
100
AcDbLine
 10
42.34722999999998
 20
189.4228399999999
 30
0.0
 11
42.34722999999998
 21
186.49464
 31
0.0
  0
LINE
  5
102
330
1F
100
AcDbEntity
  8
SLD-0
  6
Continuous
 62
   179
100
AcDbLine
 10
32.64723
 20
189.4228399999999
 30
0.0
 11
32.64723
 21
186.49464
 31
0.0
  0
LINE
  5
103
330
1F
100
AcDbEntity
  8
SLD-0
  6
Continuous
 62
   179
100
AcDbLine
 10
47.19724
 20
186.4946299999999
 30
0.0
 11
46.66133
 21
185.9587399999999
 31
0.0
  0
LINE
  5
104
330
1F
100
AcDbEntity
  8
SLD-0
  6
Continuous
 62
   179
100
AcDbLine
 10
47.19724
 20
186.49464
 30
0.0
 11
50.12544
 21
186.49464
 31
0.0
  0
LINE
  5
105
330
1F
100
AcDbEntity
  8
SLD-0
  6
Continuous
 62
   179
100
AcDbLine
 10
50.12543
 20
186.49464
 30
0.0
 11
50.66133
 21
185.9587399999999
 31
0.0
  0
LINE
  5
106
330
1F
100
AcDbEntity
  8
SLD-0
  6
Continuous
 62
   179
100
AcDbLine
 10
50.12544
 20
186.49464
 30
0.0
 11
50.12544
 21
189.4228399999999
 31
0.0
  0
LINE
  5
107
330
1F
100
AcDbEntity
  8
SLD-0
  6
Continuous
 62
   179
100
AcDbLine
 10
50.12544
 20
189.4228399999999
 30
0.0
 11
50.66134
 21
189.9587399999999
 31
0.0
  0
LINE
  5
108
330
1F
100
AcDbEntity
  8
SLD-0
  6
Continuous
 62
   179
100
AcDbLine
 10
50.12544
 20
189.4228399999999
 30
0.0
 11
47.19724
 21
189.4228399999999
 31
0.0
  0
LINE
  5
109
330
1F
100
AcDbEntity
  8
SLD-0
  6
Continuous
 62
   179
100
AcDbLine
 10
47.19724
 20
189.4228399999999
 30
0.0
 11
46.66133
 21
189.9587399999999
 31
0.0
  0
LINE
  5
10A
330
1F
100
AcDbEntity
  8
SLD-0
  6
Continuous
 62
   179
100
AcDbLine
 10
47.19724
 20
189.4228399999999
 30
0.0
 11
47.19724
 21
186.49464
 31
0.0
  0
LINE
  5
10B
330
1F
100
AcDbEntity
  8
SLD-0
  6
Continuous
 62
   179
100
AcDbLine
 10
59.82544
 20
172.3946399999999
 30
0.0
 11
60.36133
 21
171.85873
 31
0.0
  0
LINE
  5
10C
330
1F
100
AcDbEntity
  8
SLD-0
  6
Continuous
 62
   179
100
AcDbLine
 10
59.82544
 20
172.3946399999999
 30
0.0
 11
59.82544
 21
174.5368
 31
0.0
  0
LINE
  5
10D
330
1F
100
AcDbEntity
  8
SLD-0
  6
Continuous
 62
   179
100
AcDbLine
 10
60.2812
 20
175.77861
 30
0.0
 11
60.36133
 21
175.85873
 31
0.0
  0
LINE
  5
10E
330
1F
100
AcDbEntity
  8
SLD-0
  6
Continuous
 62
   179
100
AcDbLine
 10
52.04723
 20
186.49464
 30
0.0
 11
51.51133
 21
185.9587399999999
 31
0.0
  0
LINE
  5
10F
330
1F
100
AcDbEntity
  8
SLD-0
  6
Continuous
 62
   179
100
AcDbLine
 10
52.04723
 20
186.49464
 30
0.0
 11
54.97543
 21
186.49464
 31
0.0
  0
LINE
  5
110
330
1F
100
AcDbEntity
  8
SLD-0
  6
Continuous
 62
   179
100
AcDbLine
 10
54.97543
 20
186.49464
 30
0.0
 11
55.51134000000001
 21
185.9587399999999
 31
0.0
  0
LINE
  5
111
330
1F
100
AcDbEntity
  8
SLD-0
  6
Continuous
 62
   179
100
AcDbLine
 10
54.97543
 20
186.49464
 30
0.0
 11
54.97543
 21
189.4228399999999
 31
0.0
  0
LINE
  5
112
330
1F
100
AcDbEntity
  8
SLD-0
  6
Continuous
 62
   179
100
AcDbLine
 10
54.97543
 20
189.4228399999999
 30
0.0
 11
55.51133
 21
189.9587399999999
 31
0.0
  0
LINE
  5
113
330
1F
100
AcDbEntity
  8
SLD-0
  6
Continuous
 62
   179
100
AcDbLine
 10
54.97543
 20
189.4228399999999
 30
0.0
 11
52.04723
 21
189.4228399999999
 31
0.0
  0
LINE
  5
114
330
1F
100
AcDbEntity
  8
SLD-0
  6
Continuous
 62
   179
100
AcDbLine
 10
52.04723
 20
189.4228399999999
 30
0.0
 11
51.51133
 21
189.95875
 31
0.0
  0
LINE
  5
115
330
1F
100
AcDbEntity
  8
SLD-0
  6
Continuous
 62
   179
100
AcDbLine
 10
52.04723
 20
189.4228399999999
 30
0.0
 11
52.04723
 21
186.49464
 31
0.0
  0
LINE
  5
116
330
1F
100
AcDbEntity
  8
SLD-0
  6
Continuous
 62
   179
100
AcDbLine
 10
56.89724
 20
186.49464
 30
0.0
 11
56.36134000000001
 21
185.9587399999999
 31
0.0
  0
LINE
  5
117
330
1F
100
AcDbEntity
  8
SLD-0
  6
Continuous
 62
   179
100
AcDbLine
 10
56.89723
 20
186.49464
 30
0.0
 11
59.82544
 21
186.49464
 31
0.0
  0
LINE
  5
118
330
1F
100
AcDbEntity
  8
SLD-0
  6
Continuous
 62
   179
100
AcDbLine
 10
59.82544
 20
186.49464
 30
0.0
 11
60.36133
 21
185.9587399999999
 31
0.0
  0
LINE
  5
119
330
1F
100
AcDbEntity
  8
SLD-0
  6
Continuous
 62
   179
100
AcDbLine
 10
59.82544
 20
186.49464
 30
0.0
 11
59.82544
 21
189.4228399999999
 31
0.0
  0
LINE
  5
11A
330
1F
100
AcDbEntity
  8
SLD-0
  6
Continuous
 62
   179
100
AcDbLine
 10
59.82544
 20
189.4228399999999
 30
0.0
 11
60.36133
 21
189.9587399999999
 31
0.0
  0
LINE
  5
11B
330
1F
100
AcDbEntity
  8
SLD-0
  6
Continuous
 62
   179
100
AcDbLine
 10
59.82544
 20
189.4228399999999
 30
0.0
 11
56.89723
 21
189.4228399999999
 31
0.0
  0
LINE
  5
11C
330
1F
100
AcDbEntity
  8
SLD-0
  6
Continuous
 62
   179
100
AcDbLine
 10
56.89723
 20
189.4228399999999
 30
0.0
 11
56.36134000000001
 21
189.9587399999999
 31
0.0
  0
LINE
  5
11D
330
1F
100
AcDbEntity
  8
SLD-0
  6
Continuous
 62
   179
100
AcDbLine
 10
56.89723
 20
189.4228399999999
 30
0.0
 11
56.89723
 21
186.49464
 31
0.0
  0
LINE
  5
11E
330
1F
100
AcDbEntity
  8
SLD-0
  6
Continuous
 62
   179
100
AcDbLine
 10
69.52543
 20
175.3228499999999
 30
0.0
 11
70.06133
 21
175.8587499999999
 31
0.0
  0
LINE
  5
11F
330
1F
100
AcDbEntity
  8
SLD-0
  6
Continuous
 62
   179
100
AcDbLine
 10
69.52544
 20
175.3228499999999
 30
0.0
 11
66.59724
 21
175.3228499999999
 31
0.0
  0
LINE
  5
120
330
1F
100
AcDbEntity
  8
SLD-0
  6
Continuous
 62
   179
100
AcDbLine
 10
66.59724
 20
175.3228399999999
 30
0.0
 11
66.06132999999998
 21
175.85873
 31
0.0
  0
LINE
  5
121
330
1F
100
AcDbEntity
  8
SLD-0
  6
Continuous
 62
   179
100
AcDbLine
 10
61.74723
 20
186.49464
 30
0.0
 11
61.21133
 21
185.9587399999999
 31
0.0
  0
LINE
  5
122
330
1F
100
AcDbEntity
  8
SLD-0
  6
Continuous
 62
   179
100
AcDbLine
 10
61.74724000000001
 20
186.49464
 30
0.0
 11
64.67543
 21
186.49464
 31
0.0
  0
LINE
  5
123
330
1F
100
AcDbEntity
  8
SLD-0
  6
Continuous
 62
   179
100
AcDbLine
 10
64.67543
 20
186.49464
 30
0.0
 11
65.21133
 21
185.9587399999999
 31
0.0
  0
LINE
  5
124
330
1F
100
AcDbEntity
  8
SLD-0
  6
Continuous
 62
   179
100
AcDbLine
 10
64.67543
 20
186.49464
 30
0.0
 11
64.67543
 21
189.4228399999999
 31
0.0
  0
LINE
  5
125
330
1F
100
AcDbEntity
  8
SLD-0
  6
Continuous
 62
   179
100
AcDbLine
 10
64.67543
 20
189.4228399999999
 30
0.0
 11
65.21133
 21
189.9587399999999
 31
0.0
  0
LINE
  5
126
330
1F
100
AcDbEntity
  8
SLD-0
  6
Continuous
 62
   179
100
AcDbLine
 10
64.67543
 20
189.4228399999999
 30
0.0
 11
61.74724000000001
 21
189.4228399999999
 31
0.0
  0
LINE
  5
127
330
1F
100
AcDbEntity
  8
SLD-0
  6
Continuous
 62
   179
100
AcDbLine
 10
61.74724000000001
 20
189.4228399999999
 30
0.0
 11
61.21133
 21
189.9587399999999
 31
0.0
  0
LINE
  5
128
330
1F
100
AcDbEntity
  8
SLD-0
  6
Continuous
 62
   179
100
AcDbLine
 10
61.74724000000001
 20
189.4228399999999
 30
0.0
 11
61.74724000000001
 21
186.49464
 31
0.0
  0
LINE
  5
129
330
1F
100
AcDbEntity
  8
SLD-0
  6
Continuous
 62
   179
100
AcDbLine
 10
74.37543999999999
 20
175.3228399999999
 30
0.0
 11
74.91133000000002
 21
175.85873
 31
0.0
  0
LINE
  5
12A
330
1F
100
AcDbEntity
  8
SLD-0
  6
Continuous
 62
   179
100
AcDbLine
 10
74.37543000000002
 20
175.3228499999999
 30
0.0
 11
71.44724
 21
175.3228499999999
 31
0.0
  0
LINE
  5
12B
330
1F
100
AcDbEntity
  8
SLD-0
  6
Continuous
 62
   179
100
AcDbLine
 10
71.44723
 20
175.3228499999999
 30
0.0
 11
70.91133000000002
 21
175.85873
 31
0.0
  0
LINE
  5
12C
330
1F
100
AcDbEntity
  8
SLD-0
  6
Continuous
 62
   179
100
AcDbLine
 10
66.59723000000001
 20
186.49464
 30
0.0
 11
66.06132999999998
 21
185.9587399999999
 31
0.0
  0
LINE
  5
12D
330
1F
100
AcDbEntity
  8
SLD-0
  6
Continuous
 62
   179
100
AcDbLine
 10
66.59724
 20
186.49464
 30
0.0
 11
69.52544
 21
186.49464
 31
0.0
  0
LINE
  5
12E
330
1F
100
AcDbEntity
  8
SLD-0
  6
Continuous
 62
   179
100
AcDbLine
 10
69.52544
 20
186.49464
 30
0.0
 11
70.06133
 21
185.9587399999999
 31
0.0
  0
LINE
  5
12F
330
1F
100
AcDbEntity
  8
SLD-0
  6
Continuous
 62
   179
100
AcDbLine
 10
69.52544
 20
186.49464
 30
0.0
 11
69.52544
 21
189.4228399999999
 31
0.0
  0
LINE
  5
130
330
1F
100
AcDbEntity
  8
SLD-0
  6
Continuous
 62
   179
100
AcDbLine
 10
69.52544
 20
189.4228399999999
 30
0.0
 11
70.06133
 21
189.9587399999999
 31
0.0
  0
LINE
  5
131
330
1F
100
AcDbEntity
  8
SLD-0
  6
Continuous
 62
   179
100
AcDbLine
 10
69.52544
 20
189.4228399999999
 30
0.0
 11
66.59724
 21
189.4228399999999
 31
0.0
  0
LINE
  5
132
330
1F
100
AcDbEntity
  8
SLD-0
  6
Continuous
 62
   179
100
AcDbLine
 10
66.59723000000001
 20
189.42285
 30
0.0
 11
66.06132999999998
 21
189.9587399999999
 31
0.0
  0
LINE
  5
133
330
1F
100
AcDbEntity
  8
SLD-0
  6
Continuous
 62
   179
100
AcDbLine
 10
66.59724
 20
189.4228399999999
 30
0.0
 11
66.59724
 21
186.49464
 31
0.0
  0
LINE
  5
134
330
1F
100
AcDbEntity
  8
SLD-0
  6
Continuous
 62
   179
100
AcDbLine
 10
35.57544
 20
170.62284
 30
0.0
 11
36.11133
 21
171.1587399999999
 31
0.0
  0
LINE
  5
135
330
1F
100
AcDbEntity
  8
SLD-0
  6
Continuous
 62
   179
100
AcDbLine
 10
35.57544
 20
170.62284
 30
0.0
 11
32.64723
 21
170.6228499999999
 31
0.0
  0
LINE
  5
136
330
1F
100
AcDbEntity
  8
SLD-0
  6
Continuous
 62
   179
100
AcDbLine
 10
32.64723
 20
170.62284
 30
0.0
 11
32.11134
 21
171.1587399999999
 31
0.0
  0
LINE
  5
137
330
1F
100
AcDbEntity
  8
SLD-0
  6
Continuous
 62
   179
100
AcDbLine
 10
71.44724
 20
186.4946299999999
 30
0.0
 11
70.91133000000002
 21
185.9587399999999
 31
0.0
  0
LINE
  5
138
330
1F
100
AcDbEntity
  8
SLD-0
  6
Continuous
 62
   179
100
AcDbLine
 10
71.44724
 20
186.49464
 30
0.0
 11
74.37543000000002
 21
186.49464
 31
0.0
  0
LINE
  5
139
330
1F
100
AcDbEntity
  8
SLD-0
  6
Continuous
 62
   179
100
AcDbLine
 10
74.37543000000002
 20
186.49464
 30
0.0
 11
74.91133000000002
 21
185.9587399999999
 31
0.0
  0
LINE
  5
13A
330
1F
100
AcDbEntity
  8
SLD-0
  6
Continuous
 62
   179
100
AcDbLine
 10
74.37543000000002
 20
186.49464
 30
0.0
 11
74.37543000000002
 21
189.4228399999999
 31
0.0
  0
LINE
  5
13B
330
1F
100
AcDbEntity
  8
SLD-0
  6
Continuous
 62
   179
100
AcDbLine
 10
74.37543999999999
 20
189.4228399999999
 30
0.0
 11
74.91133000000002
 21
189.9587399999999
 31
0.0
  0
LINE
  5
13C
330
1F
100
AcDbEntity
  8
SLD-0
  6
Continuous
 62
   179
100
AcDbLine
 10
74.37543000000002
 20
189.4228399999999
 30
0.0
 11
71.44724
 21
189.4228399999999
 31
0.0
  0
LINE
  5
13D
330
1F
100
AcDbEntity
  8
SLD-0
  6
Continuous
 62
   179
100
AcDbLine
 10
71.44723
 20
189.4228399999999
 30
0.0
 11
70.91133000000002
 21
189.9587399999999
 31
0.0
  0
LINE
  5
13E
330
1F
100
AcDbEntity
  8
SLD-0
  6
Continuous
 62
   179
100
AcDbLine
 10
71.44724
 20
189.4228399999999
 30
0.0
 11
71.44724
 21
186.49464
 31
0.0
  0
LINE
  5
13F
330
1F
100
AcDbEntity
  8
SLD-0
  6
Continuous
 62
   179
100
AcDbLine
 10
40.42543
 20
170.6228499999999
 30
0.0
 11
40.96133
 21
171.1587399999999
 31
0.0
  0
LINE
  5
140
330
1F
100
AcDbEntity
  8
SLD-0
  6
Continuous
 62
   179
100
AcDbLine
 10
40.42543
 20
170.6228499999999
 30
0.0
 11
37.49724
 21
170.6228499999999
 31
0.0
  0
LINE
  5
141
330
1F
100
AcDbEntity
  8
SLD-0
  6
Continuous
 62
   179
100
AcDbLine
 10
37.49723
 20
170.6228499999999
 30
0.0
 11
36.96132999999999
 21
171.1587399999999
 31
0.0
  0
LINE
  5
142
330
1F
100
AcDbEntity
  8
SLD-0
  6
Continuous
 62
   179
100
AcDbLine
 10
32.64723
 20
181.7946399999999
 30
0.0
 11
32.11133
 21
181.2587399999999
 31
0.0
  0
LINE
  5
143
330
1F
100
AcDbEntity
  8
SLD-0
  6
Continuous
 62
   179
100
AcDbLine
 10
32.64723
 20
181.7946499999999
 30
0.0
 11
35.57544
 21
181.7946499999999
 31
0.0
  0
LINE
  5
144
330
1F
100
AcDbEntity
  8
SLD-0
  6
Continuous
 62
   179
100
AcDbLine
 10
35.57544
 20
181.7946399999999
 30
0.0
 11
36.11133
 21
181.2587399999999
 31
0.0
  0
LINE
  5
145
330
1F
100
AcDbEntity
  8
SLD-0
  6
Continuous
 62
   179
100
AcDbLine
 10
35.57544
 20
181.7946499999999
 30
0.0
 11
35.57544
 21
184.7228399999999
 31
0.0
  0
LINE
  5
146
330
1F
100
AcDbEntity
  8
SLD-0
  6
Continuous
 62
   179
100
AcDbLine
 10
35.57544
 20
184.7228399999999
 30
0.0
 11
36.11133
 21
185.2587399999999
 31
0.0
  0
LINE
  5
147
330
1F
100
AcDbEntity
  8
SLD-0
  6
Continuous
 62
   179
100
AcDbLine
 10
35.57544
 20
184.7228399999999
 30
0.0
 11
32.64723
 21
184.7228399999999
 31
0.0
  0
LINE
  5
148
330
1F
100
AcDbEntity
  8
SLD-0
  6
Continuous
 62
   179
100
AcDbLine
 10
32.64723
 20
184.7228399999999
 30
0.0
 11
32.11133
 21
185.2587399999999
 31
0.0
  0
LINE
  5
149
330
1F
100
AcDbEntity
  8
SLD-0
  6
Continuous
 62
   179
100
AcDbLine
 10
32.64723
 20
184.7228399999999
 30
0.0
 11
32.64723
 21
181.7946499999999
 31
0.0
  0
LINE
  5
14A
330
1F
100
AcDbEntity
  8
SLD-0
  6
Continuous
 62
   179
100
AcDbLine
 10
45.27544
 20
170.62284
 30
0.0
 11
45.81134
 21
171.1587399999999
 31
0.0
  0
LINE
  5
14B
330
1F
100
AcDbEntity
  8
SLD-0
  6
Continuous
 62
   179
100
AcDbLine
 10
45.27544
 20
170.62284
 30
0.0
 11
42.34722999999998
 21
170.6228499999999
 31
0.0
  0
LINE
  5
14C
330
1F
100
AcDbEntity
  8
SLD-0
  6
Continuous
 62
   179
100
AcDbLine
 10
42.34722999999998
 20
170.62284
 30
0.0
 11
41.81132999999999
 21
171.1587399999999
 31
0.0
  0
LINE
  5
14D
330
1F
100
AcDbEntity
  8
SLD-0
  6
Continuous
 62
   179
100
AcDbLine
 10
37.49724
 20
181.7946399999999
 30
0.0
 11
36.96132999999999
 21
181.2587399999999
 31
0.0
  0
LINE
  5
14E
330
1F
100
AcDbEntity
  8
SLD-0
  6
Continuous
 62
   179
100
AcDbLine
 10
37.49724
 20
181.7946499999999
 30
0.0
 11
40.42543
 21
181.7946499999999
 31
0.0
  0
LINE
  5
14F
330
1F
100
AcDbEntity
  8
SLD-0
  6
Continuous
 62
   179
100
AcDbLine
 10
40.42544
 20
181.79463
 30
0.0
 11
40.96133
 21
181.2587399999999
 31
0.0
  0
LINE
  5
150
330
1F
100
AcDbEntity
  8
SLD-0
  6
Continuous
 62
   179
100
AcDbLine
 10
40.42543
 20
181.7946499999999
 30
0.0
 11
40.42543
 21
184.7228399999999
 31
0.0
  0
LINE
  5
151
330
1F
100
AcDbEntity
  8
SLD-0
  6
Continuous
 62
   179
100
AcDbLine
 10
40.42543
 20
184.7228399999999
 30
0.0
 11
40.96133
 21
185.2587399999999
 31
0.0
  0
LINE
  5
152
330
1F
100
AcDbEntity
  8
SLD-0
  6
Continuous
 62
   179
100
AcDbLine
 10
40.42543
 20
184.7228399999999
 30
0.0
 11
37.49724
 21
184.7228399999999
 31
0.0
  0
LINE
  5
153
330
1F
100
AcDbEntity
  8
SLD-0
  6
Continuous
 62
   179
100
AcDbLine
 10
37.49723
 20
184.7228399999999
 30
0.0
 11
36.96132999999999
 21
185.2587399999999
 31
0.0
  0
LINE
  5
154
330
1F
100
AcDbEntity
  8
SLD-0
  6
Continuous
 62
   179
100
AcDbLine
 10
37.49724
 20
184.7228399999999
 30
0.0
 11
37.49724
 21
181.7946499999999
 31
0.0
  0
LINE
  5
155
330
1F
100
AcDbEntity
  8
SLD-0
  6
Continuous
 62
   179
100
AcDbLine
 10
50.12543
 20
170.6228499999999
 30
0.0
 11
50.66133
 21
171.1587399999999
 31
0.0
  0
LINE
  5
156
330
1F
100
AcDbEntity
  8
SLD-0
  6
Continuous
 62
   179
100
AcDbLine
 10
50.12543
 20
170.6228499999999
 30
0.0
 11
47.19724
 21
170.6228499999999
 31
0.0
  0
LINE
  5
157
330
1F
100
AcDbEntity
  8
SLD-0
  6
Continuous
 62
   179
100
AcDbLine
 10
47.19724
 20
170.62284
 30
0.0
 11
46.66133
 21
171.1587399999999
 31
0.0
  0
LINE
  5
158
330
1F
100
AcDbEntity
  8
SLD-0
  6
Continuous
 62
   179
100
AcDbLine
 10
42.34722999999998
 20
181.7946499999999
 30
0.0
 11
45.27544
 21
181.7946499999999
 31
0.0
  0
LINE
  5
159
330
1F
100
AcDbEntity
  8
SLD-0
  6
Continuous
 62
   179
100
AcDbLine
 10
45.27544
 20
181.7946399999999
 30
0.0
 11
45.81133
 21
181.2587399999999
 31
0.0
  0
LINE
  5
15A
330
1F
100
AcDbEntity
  8
SLD-0
  6
Continuous
 62
   179
100
AcDbLine
 10
45.27544
 20
181.7946499999999
 30
0.0
 11
45.27544
 21
184.7228399999999
 31
0.0
  0
LINE
  5
15B
330
1F
100
AcDbEntity
  8
SLD-0
  6
Continuous
 62
   179
100
AcDbLine
 10
45.27543
 20
184.7228499999999
 30
0.0
 11
45.81133
 21
185.25875
 31
0.0
  0
LINE
  5
15C
330
1F
100
AcDbEntity
  8
SLD-0
  6
Continuous
 62
   179
100
AcDbLine
 10
45.27544
 20
184.7228399999999
 30
0.0
 11
42.34722999999998
 21
184.7228399999999
 31
0.0
  0
LINE
  5
15D
330
1F
100
AcDbEntity
  8
SLD-0
  6
Continuous
 62
   179
100
AcDbLine
 10
54.97544
 20
167.69464
 30
0.0
 11
55.51134000000001
 21
167.1587399999999
 31
0.0
  0
LINE
  5
15E
330
1F
100
AcDbEntity
  8
SLD-0
  6
Continuous
 62
   179
100
AcDbLine
 10
54.97543
 20
167.69464
 30
0.0
 11
54.97543
 21
170.6228499999999
 31
0.0
  0
LINE
  5
15F
330
1F
100
AcDbEntity
  8
SLD-0
  6
Continuous
 62
   179
100
AcDbLine
 10
54.97544
 20
170.62284
 30
0.0
 11
55.09216999999999
 21
170.73958
 31
0.0
  0
LINE
  5
160
330
1F
100
AcDbEntity
  8
SLD-0
  6
Continuous
 62
   179
100
AcDbLine
 10
32.64723
 20
172.3946399999999
 30
0.0
 11
32.11133
 21
171.85873
 31
0.0
  0
LINE
  5
161
330
1F
100
AcDbEntity
  8
SLD-0
  6
Continuous
 62
   179
100
AcDbLine
 10
32.64723
 20
172.3946399999999
 30
0.0
 11
35.57544
 21
172.3946399999999
 31
0.0
  0
LINE
  5
162
330
1F
100
AcDbEntity
  8
SLD-0
  6
Continuous
 62
   179
100
AcDbLine
 10
35.57544
 20
172.3946399999999
 30
0.0
 11
36.11133
 21
171.85873
 31
0.0
  0
LINE
  5
163
330
1F
100
AcDbEntity
  8
SLD-0
  6
Continuous
 62
   179
100
AcDbLine
 10
47.19724
 20
181.7946499999999
 30
0.0
 11
47.93845
 21
181.7946499999999
 31
0.0
  0
LINE
  5
164
330
1F
100
AcDbEntity
  8
SLD-0
  6
Continuous
 62
   179
100
AcDbLine
 10
50.12544
 20
184.7228399999999
 30
0.0
 11
50.66134
 21
185.2587399999999
 31
0.0
  0
LINE
  5
165
330
1F
100
AcDbEntity
  8
SLD-0
  6
Continuous
 62
   179
100
AcDbLine
 10
50.12544
 20
183.68538
 30
0.0
 11
50.12544
 21
184.7228399999999
 31
0.0
  0
LINE
  5
166
330
1F
100
AcDbEntity
  8
SLD-0
  6
Continuous
 62
   179
100
AcDbLine
 10
50.12544
 20
184.7228399999999
 30
0.0
 11
47.19724
 21
184.7228399999999
 31
0.0
  0
LINE
  5
167
330
1F
100
AcDbEntity
  8
SLD-0
  6
Continuous
 62
   179
100
AcDbLine
 10
59.82543
 20
167.69464
 30
0.0
 11
60.36133
 21
167.1587399999999
 31
0.0
  0
LINE
  5
168
330
1F
100
AcDbEntity
  8
SLD-0
  6
Continuous
 62
   179
100
AcDbLine
 10
59.82543
 20
167.69464
 30
0.0
 11
59.82544
 21
170.6228499999999
 31
0.0
  0
LINE
  5
169
330
1F
100
AcDbEntity
  8
SLD-0
  6
Continuous
 62
   179
100
AcDbLine
 10
59.82544
 20
170.62284
 30
0.0
 11
60.36133
 21
171.1587399999999
 31
0.0
  0
LINE
  5
16A
330
1F
100
AcDbEntity
  8
SLD-0
  6
Continuous
 62
   179
100
AcDbLine
 10
59.82544
 20
170.6228499999999
 30
0.0
 11
56.89723
 21
170.6228499999999
 31
0.0
  0
LINE
  5
16B
330
1F
100
AcDbEntity
  8
SLD-0
  6
Continuous
 62
   179
100
AcDbLine
 10
56.89723
 20
170.62284
 30
0.0
 11
56.36134000000001
 21
171.1587399999999
 31
0.0
  0
LINE
  5
16C
330
1F
100
AcDbEntity
  8
SLD-0
  6
Continuous
 62
   179
100
AcDbLine
 10
54.97544
 20
184.7228399999999
 30
0.0
 11
55.51134000000001
 21
185.2587399999999
 31
0.0
  0
LINE
  5
16D
330
1F
100
AcDbEntity
  8
SLD-0
  6
Continuous
 62
   179
100
AcDbLine
 10
54.97543
 20
184.40392
 30
0.0
 11
54.97543
 21
184.7228399999999
 31
0.0
  0
LINE
  5
16E
330
1F
100
AcDbEntity
  8
SLD-0
  6
Continuous
 62
   179
100
AcDbLine
 10
54.97543
 20
184.7228399999999
 30
0.0
 11
52.04723
 21
184.7228399999999
 31
0.0
  0
LINE
  5
16F
330
1F
100
AcDbEntity
  8
SLD-0
  6
Continuous
 62
   179
100
AcDbLine
 10
52.04723
 20
184.7228399999999
 30
0.0
 11
51.51134
 21
185.2587399999999
 31
0.0
  0
LINE
  5
170
330
1F
100
AcDbEntity
  8
SLD-0
  6
Continuous
 62
   179
100
AcDbLine
 10
52.04723
 20
184.7228399999999
 30
0.0
 11
52.04723
 21
184.40392
 31
0.0
  0
LINE
  5
171
330
1F
100
AcDbEntity
  8
SLD-0
  6
Continuous
 62
   179
100
AcDbLine
 10
35.57542999999999
 20
167.69464
 30
0.0
 11
36.11133
 21
167.1587399999999
 31
0.0
  0
LINE
  5
172
330
1F
100
AcDbEntity
  8
SLD-0
  6
Continuous
 62
   179
100
AcDbLine
 10
35.57542999999999
 20
167.69464
 30
0.0
 11
35.57544
 21
170.62284
 31
0.0
  0
LINE
  5
173
330
1F
100
AcDbEntity
  8
SLD-0
  6
Continuous
 62
   179
100
AcDbLine
 10
59.82544
 20
181.7946399999999
 30
0.0
 11
60.36133
 21
181.2587399999999
 31
0.0
  0
LINE
  5
174
330
1F
100
AcDbEntity
  8
SLD-0
  6
Continuous
 62
   179
100
AcDbLine
 10
59.08423
 20
181.7946499999999
 30
0.0
 11
59.82544
 21
181.7946499999999
 31
0.0
  0
LINE
  5
175
330
1F
100
AcDbEntity
  8
SLD-0
  6
Continuous
 62
   179
100
AcDbLine
 10
59.82544
 20
181.7946499999999
 30
0.0
 11
59.82544
 21
184.7228399999999
 31
0.0
  0
LINE
  5
176
330
1F
100
AcDbEntity
  8
SLD-0
  6
Continuous
 62
   179
100
AcDbLine
 10
59.82544
 20
184.7228399999999
 30
0.0
 11
60.36133
 21
185.2587399999999
 31
0.0
  0
LINE
  5
177
330
1F
100
AcDbEntity
  8
SLD-0
  6
Continuous
 62
   179
100
AcDbLine
 10
59.82544
 20
184.7228399999999
 30
0.0
 11
56.89723
 21
184.7228399999999
 31
0.0
  0
LINE
  5
178
330
1F
100
AcDbEntity
  8
SLD-0
  6
Continuous
 62
   179
100
AcDbLine
 10
56.89723
 20
184.7228399999999
 30
0.0
 11
56.36133
 21
185.2587399999999
 31
0.0
  0
LINE
  5
179
330
1F
100
AcDbEntity
  8
SLD-0
  6
Continuous
 62
   179
100
AcDbLine
 10
56.89723
 20
184.7228399999999
 30
0.0
 11
56.89723
 21
183.68538
 31
0.0
  0
LINE
  5
17A
330
1F
100
AcDbEntity
  8
SLD-0
  6
Continuous
 62
   179
100
AcDbLine
 10
69.52544
 20
167.69464
 30
0.0
 11
70.06133
 21
167.1587399999999
 31
0.0
  0
LINE
  5
17B
330
1F
100
AcDbEntity
  8
SLD-0
  6
Continuous
 62
   179
100
AcDbLine
 10
69.52544
 20
167.69464
 30
0.0
 11
69.52544
 21
170.6228499999999
 31
0.0
  0
LINE
  5
17C
330
1F
100
AcDbEntity
  8
SLD-0
  6
Continuous
 62
   179
100
AcDbLine
 10
69.52544
 20
170.62284
 30
0.0
 11
70.06133
 21
171.1587399999999
 31
0.0
  0
LINE
  5
17D
330
1F
100
AcDbEntity
  8
SLD-0
  6
Continuous
 62
   179
100
AcDbLine
 10
61.74723
 20
181.7946399999999
 30
0.0
 11
61.21133
 21
181.2587399999999
 31
0.0
  0
LINE
  5
17E
330
1F
100
AcDbEntity
  8
SLD-0
  6
Continuous
 62
   179
100
AcDbLine
 10
61.74724000000001
 20
181.7946499999999
 30
0.0
 11
64.67543
 21
181.7946499999999
 31
0.0
  0
LINE
  5
17F
330
1F
100
AcDbEntity
  8
SLD-0
  6
Continuous
 62
   179
100
AcDbLine
 10
64.67544000000001
 20
181.7946399999999
 30
0.0
 11
65.21133
 21
181.2587399999999
 31
0.0
  0
LINE
  5
180
330
1F
100
AcDbEntity
  8
SLD-0
  6
Continuous
 62
   179
100
AcDbLine
 10
64.67543
 20
181.7946499999999
 30
0.0
 11
64.67543
 21
184.7228399999999
 31
0.0
  0
LINE
  5
181
330
1F
100
AcDbEntity
  8
SLD-0
  6
Continuous
 62
   179
100
AcDbLine
 10
64.67544000000001
 20
184.7228399999999
 30
0.0
 11
65.21133
 21
185.2587399999999
 31
0.0
  0
LINE
  5
182
330
1F
100
AcDbEntity
  8
SLD-0
  6
Continuous
 62
   179
100
AcDbLine
 10
64.67543
 20
184.7228399999999
 30
0.0
 11
61.74724000000001
 21
184.7228399999999
 31
0.0
  0
LINE
  5
183
330
1F
100
AcDbEntity
  8
SLD-0
  6
Continuous
 62
   179
100
AcDbLine
 10
61.74723
 20
184.7228399999999
 30
0.0
 11
61.21133
 21
185.2587399999999
 31
0.0
  0
LINE
  5
184
330
1F
100
AcDbEntity
  8
SLD-0
  6
Continuous
 62
   179
100
AcDbLine
 10
61.74724000000001
 20
184.7228399999999
 30
0.0
 11
61.74724000000001
 21
181.7946499999999
 31
0.0
  0
LINE
  5
185
330
1F
100
AcDbEntity
  8
SLD-0
  6
Continuous
 62
   179
100
AcDbLine
 10
74.37543000000002
 20
167.69464
 30
0.0
 11
74.91133000000002
 21
167.1587399999999
 31
0.0
  0
LINE
  5
186
330
1F
100
AcDbEntity
  8
SLD-0
  6
Continuous
 62
   179
100
AcDbLine
 10
74.37543000000002
 20
167.69464
 30
0.0
 11
74.37543000000002
 21
170.6228499999999
 31
0.0
  0
LINE
  5
187
330
1F
100
AcDbEntity
  8
SLD-0
  6
Continuous
 62
   179
100
AcDbLine
 10
74.37543000000002
 20
170.6228499999999
 30
0.0
 11
74.91133000000002
 21
171.1587399999999
 31
0.0
  0
LINE
  5
188
330
1F
100
AcDbEntity
  8
SLD-0
  6
Continuous
 62
   179
100
AcDbLine
 10
66.59723000000001
 20
181.7946399999999
 30
0.0
 11
66.06132999999998
 21
181.2587399999999
 31
0.0
  0
LINE
  5
189
330
1F
100
AcDbEntity
  8
SLD-0
  6
Continuous
 62
   179
100
AcDbLine
 10
66.59724
 20
181.7946499999999
 30
0.0
 11
69.52544
 21
181.7946499999999
 31
0.0
  0
LINE
  5
18A
330
1F
100
AcDbEntity
  8
SLD-0
  6
Continuous
 62
   179
100
AcDbLine
 10
69.52544
 20
181.7946399999999
 30
0.0
 11
70.06133
 21
181.2587399999999
 31
0.0
  0
LINE
  5
18B
330
1F
100
AcDbEntity
  8
SLD-0
  6
Continuous
 62
   179
100
AcDbLine
 10
69.52544
 20
181.7946499999999
 30
0.0
 11
69.52544
 21
184.7228399999999
 31
0.0
  0
LINE
  5
18C
330
1F
100
AcDbEntity
  8
SLD-0
  6
Continuous
 62
   179
100
AcDbLine
 10
69.52543
 20
184.7228499999999
 30
0.0
 11
70.06133
 21
185.2587399999999
 31
0.0
  0
LINE
  5
18D
330
1F
100
AcDbEntity
  8
SLD-0
  6
Continuous
 62
   179
100
AcDbLine
 10
69.52544
 20
184.7228399999999
 30
0.0
 11
66.59724
 21
184.7228399999999
 31
0.0
  0
LINE
  5
18E
330
1F
100
AcDbEntity
  8
SLD-0
  6
Continuous
 62
   179
100
AcDbLine
 10
66.59724
 20
184.7228399999999
 30
0.0
 11
66.06132999999998
 21
185.2587399999999
 31
0.0
  0
LINE
  5
18F
330
1F
100
AcDbEntity
  8
SLD-0
  6
Continuous
 62
   179
100
AcDbLine
 10
66.59724
 20
184.7228399999999
 30
0.0
 11
66.59724
 21
181.7946499999999
 31
0.0
  0
LINE
  5
190
330
1F
100
AcDbEntity
  8
SLD-0
  6
Continuous
 62
   179
100
AcDbLine
 10
64.67544000000001
 20
175.3228399999999
 30
0.0
 11
65.21133
 21
175.85873
 31
0.0
  0
LINE
  5
191
330
1F
100
AcDbEntity
  8
SLD-0
  6
Continuous
 62
   179
100
AcDbLine
 10
64.67543
 20
175.3228499999999
 30
0.0
 11
61.74724000000001
 21
175.3228499999999
 31
0.0
  0
LINE
  5
192
330
1F
100
AcDbEntity
  8
SLD-0
  6
Continuous
 62
   179
100
AcDbLine
 10
61.74723
 20
175.3228399999999
 30
0.0
 11
61.21133
 21
175.85873
 31
0.0
  0
LINE
  5
193
330
1F
100
AcDbEntity
  8
SLD-0
  6
Continuous
 62
   179
100
AcDbLine
 10
74.37543999999999
 20
181.7946399999999
 30
0.0
 11
74.91133000000002
 21
181.2587399999999
 31
0.0
  0
LINE
  5
194
330
1F
100
AcDbEntity
  8
SLD-0
  6
Continuous
 62
   179
100
AcDbLine
 10
74.37543000000002
 20
181.7946499999999
 30
0.0
 11
74.37543000000002
 21
184.7228399999999
 31
0.0
  0
LINE
  5
195
330
1F
100
AcDbEntity
  8
SLD-0
  6
Continuous
 62
   179
100
AcDbLine
 10
74.37543999999999
 20
184.7228399999999
 30
0.0
 11
74.91133000000002
 21
185.2587399999999
 31
0.0
  0
LINE
  5
196
330
1F
100
AcDbEntity
  8
SLD-0
  6
Continuous
 62
   179
100
AcDbLine
 10
74.37543000000002
 20
184.7228399999999
 30
0.0
 11
71.44724
 21
184.7228399999999
 31
0.0
  0
LINE
  5
197
330
1F
100
AcDbEntity
  8
SLD-0
  6
Continuous
 62
   179
100
AcDbLine
 10
71.44723
 20
184.7228499999999
 30
0.0
 11
70.91133000000002
 21
185.2587399999999
 31
0.0
  0
LINE
  5
198
330
1F
100
AcDbEntity
  8
SLD-0
  6
Continuous
 62
   179
100
AcDbLine
 10
71.44724
 20
184.7228399999999
 30
0.0
 11
71.44724
 21
181.7946499999999
 31
0.0
  0
LINE
  5
199
330
1F
100
AcDbEntity
  8
SLD-0
  6
Continuous
 62
   179
100
AcDbLine
 10
71.44723
 20
181.7946399999999
 30
0.0
 11
70.91133000000002
 21
181.2587399999999
 31
0.0
  0
LINE
  5
19A
330
1F
100
AcDbEntity
  8
SLD-0
  6
Continuous
 62
   179
100
AcDbLine
 10
32.64724
 20
177.0946399999999
 30
0.0
 11
32.11134
 21
176.55874
 31
0.0
  0
LINE
  5
19B
330
1F
100
AcDbEntity
  8
SLD-0
  6
Continuous
 62
   179
100
AcDbLine
 10
32.64723
 20
177.0946399999999
 30
0.0
 11
35.57544
 21
177.0946399999999
 31
0.0
  0
LINE
  5
19C
330
1F
100
AcDbEntity
  8
SLD-0
  6
Continuous
 62
   179
100
AcDbLine
 10
35.57544
 20
177.0946399999999
 30
0.0
 11
36.11133
 21
176.55875
 31
0.0
  0
LINE
  5
19D
330
1F
100
AcDbEntity
  8
SLD-0
  6
Continuous
 62
   179
100
AcDbLine
 10
35.57544
 20
177.0946399999999
 30
0.0
 11
35.57544
 21
180.0228399999999
 31
0.0
  0
LINE
  5
19E
330
1F
100
AcDbEntity
  8
SLD-0
  6
Continuous
 62
   179
100
AcDbLine
 10
35.57544
 20
180.0228399999999
 30
0.0
 11
36.11134
 21
180.55874
 31
0.0
  0
LINE
  5
19F
330
1F
100
AcDbEntity
  8
SLD-0
  6
Continuous
 62
   179
100
AcDbLine
 10
35.57544
 20
180.0228399999999
 30
0.0
 11
32.64723
 21
180.0228399999999
 31
0.0
  0
LINE
  5
1A0
330
1F
100
AcDbEntity
  8
SLD-0
  6
Continuous
 62
   179
100
AcDbLine
 10
32.64723
 20
180.0228399999999
 30
0.0
 11
32.11134
 21
180.55874
 31
0.0
  0
LINE
  5
1A1
330
1F
100
AcDbEntity
  8
SLD-0
  6
Continuous
 62
   179
100
AcDbLine
 10
32.64723
 20
180.0228399999999
 30
0.0
 11
32.64723
 21
177.0946399999999
 31
0.0
  0
LINE
  5
1A2
330
1F
100
AcDbEntity
  8
SLD-0
  6
Continuous
 62
   179
100
AcDbLine
 10
74.37543999999999
 20
172.3946399999999
 30
0.0
 11
74.91133000000002
 21
171.85873
 31
0.0
  0
LINE
  5
1A3
330
1F
100
AcDbEntity
  8
SLD-0
  6
Continuous
 62
   179
100
AcDbLine
 10
74.37543000000002
 20
172.3946399999999
 30
0.0
 11
74.37543000000002
 21
175.3228499999999
 31
0.0
  0
LINE
  5
1A4
330
1F
100
AcDbEntity
  8
SLD-0
  6
Continuous
 62
   179
100
AcDbLine
 10
37.49723
 20
177.0946399999999
 30
0.0
 11
36.96132999999999
 21
176.55874
 31
0.0
  0
LINE
  5
1A5
330
1F
100
AcDbEntity
  8
SLD-0
  6
Continuous
 62
   179
100
AcDbLine
 10
37.49724
 20
177.0946399999999
 30
0.0
 11
40.42543
 21
177.0946399999999
 31
0.0
  0
LINE
  5
1A6
330
1F
100
AcDbEntity
  8
SLD-0
  6
Continuous
 62
   179
100
AcDbLine
 10
40.42543
 20
177.0946399999999
 30
0.0
 11
40.96133
 21
176.55874
 31
0.0
  0
LINE
  5
1A7
330
1F
100
AcDbEntity
  8
SLD-0
  6
Continuous
 62
   179
100
AcDbLine
 10
40.42543
 20
177.0946399999999
 30
0.0
 11
40.42543
 21
180.0228399999999
 31
0.0
  0
LINE
  5
1A8
330
1F
100
AcDbEntity
  8
SLD-0
  6
Continuous
 62
   179
100
AcDbLine
 10
40.42543
 20
180.0228399999999
 30
0.0
 11
40.96133
 21
180.55874
 31
0.0
  0
LINE
  5
1A9
330
1F
100
AcDbEntity
  8
SLD-0
  6
Continuous
 62
   179
100
AcDbLine
 10
40.42543
 20
180.0228399999999
 30
0.0
 11
37.49724
 21
180.0228399999999
 31
0.0
  0
LINE
  5
1AA
330
1F
100
AcDbEntity
  8
SLD-0
  6
Continuous
 62
   179
100
AcDbLine
 10
37.49724
 20
180.0228399999999
 30
0.0
 11
36.96132999999999
 21
180.55875
 31
0.0
  0
LINE
  5
1AB
330
1F
100
AcDbEntity
  8
SLD-0
  6
Continuous
 62
   179
100
AcDbLine
 10
37.49724
 20
180.0228399999999
 30
0.0
 11
37.49724
 21
177.0946399999999
 31
0.0
  0
LINE
  5
1AC
330
1F
100
AcDbEntity
  8
SLD-0
  6
Continuous
 62
   179
100
AcDbLine
 10
50.12543
 20
167.69464
 30
0.0
 11
50.66133
 21
167.1587399999999
 31
0.0
  0
LINE
  5
1AD
330
1F
100
AcDbEntity
  8
SLD-0
  6
Continuous
 62
   179
100
AcDbLine
 10
50.12543
 20
167.69464
 30
0.0
 11
50.12543
 21
170.6228499999999
 31
0.0
  0
LINE
  5
1AE
330
1F
100
AcDbEntity
  8
SLD-0
  6
Continuous
 62
   179
100
AcDbLine
 10
42.34722999999998
 20
177.0946399999999
 30
0.0
 11
41.81134
 21
176.55874
 31
0.0
  0
LINE
  5
1AF
330
1F
100
AcDbEntity
  8
SLD-0
  6
Continuous
 62
   179
100
AcDbLine
 10
42.34722999999998
 20
177.0946399999999
 30
0.0
 11
45.27544
 21
177.0946399999999
 31
0.0
  0
LINE
  5
1B0
330
1F
100
AcDbEntity
  8
SLD-0
  6
Continuous
 62
   179
100
AcDbLine
 10
45.27544
 20
177.0946399999999
 30
0.0
 11
45.81134
 21
176.55874
 31
0.0
  0
LINE
  5
1B1
330
1F
100
AcDbEntity
  8
SLD-0
  6
Continuous
 62
   179
100
AcDbLine
 10
45.27544
 20
177.0946399999999
 30
0.0
 11
45.27544
 21
180.0228399999999
 31
0.0
  0
LINE
  5
1B2
330
1F
100
AcDbEntity
  8
SLD-0
  6
Continuous
 62
   179
100
AcDbLine
 10
45.27544
 20
180.0228399999999
 30
0.0
 11
45.81134
 21
180.55874
 31
0.0
  0
LINE
  5
1B3
330
1F
100
AcDbEntity
  8
SLD-0
  6
Continuous
 62
   179
100
AcDbLine
 10
45.27544
 20
180.0228399999999
 30
0.0
 11
42.34722999999998
 21
180.0228399999999
 31
0.0
  0
LINE
  5
1B4
330
1F
100
AcDbEntity
  8
SLD-0
  6
Continuous
 62
   179
100
AcDbLine
 10
42.34722999999998
 20
180.0228399999999
 30
0.0
 11
41.81132999999999
 21
180.55874
 31
0.0
  0
LINE
  5
1B5
330
1F
100
AcDbEntity
  8
SLD-0
  6
Continuous
 62
   179
100
AcDbLine
 10
42.34722999999998
 20
180.0228399999999
 30
0.0
 11
42.34722999999998
 21
177.0946399999999
 31
0.0
  0
LINE
  5
1B6
330
1F
100
AcDbEntity
  8
SLD-0
  6
Continuous
 62
   179
100
AcDbLine
 10
40.42544
 20
167.69464
 30
0.0
 11
40.96133
 21
167.1587399999999
 31
0.0
  0
LINE
  5
1B7
330
1F
100
AcDbEntity
  8
SLD-0
  6
Continuous
 62
   179
100
AcDbLine
 10
40.42543
 20
167.69464
 30
0.0
 11
40.42543
 21
170.6228499999999
 31
0.0
  0
LINE
  5
1B8
330
1F
100
AcDbEntity
  8
SLD-0
  6
Continuous
 62
   179
100
AcDbLine
 10
61.74723
 20
177.0946399999999
 30
0.0
 11
61.21133
 21
176.55875
 31
0.0
  0
LINE
  5
1B9
330
1F
100
AcDbEntity
  8
SLD-0
  6
Continuous
 62
   179
100
AcDbLine
 10
61.74724000000001
 20
177.0946399999999
 30
0.0
 11
64.67543
 21
177.0946399999999
 31
0.0
  0
LINE
  5
1BA
330
1F
100
AcDbEntity
  8
SLD-0
  6
Continuous
 62
   179
100
AcDbLine
 10
64.67544000000001
 20
177.0946399999999
 30
0.0
 11
65.21133
 21
176.55874
 31
0.0
  0
LINE
  5
1BB
330
1F
100
AcDbEntity
  8
SLD-0
  6
Continuous
 62
   179
100
AcDbLine
 10
64.67543
 20
177.0946399999999
 30
0.0
 11
64.67543
 21
180.0228399999999
 31
0.0
  0
LINE
  5
1BC
330
1F
100
AcDbEntity
  8
SLD-0
  6
Continuous
 62
   179
100
AcDbLine
 10
64.67543
 20
180.0228399999999
 30
0.0
 11
65.21133
 21
180.55875
 31
0.0
  0
LINE
  5
1BD
330
1F
100
AcDbEntity
  8
SLD-0
  6
Continuous
 62
   179
100
AcDbLine
 10
64.67543
 20
180.0228399999999
 30
0.0
 11
61.74724000000001
 21
180.0228399999999
 31
0.0
  0
LINE
  5
1BE
330
1F
100
AcDbEntity
  8
SLD-0
  6
Continuous
 62
   179
100
AcDbLine
 10
61.74724000000001
 20
180.0228399999999
 30
0.0
 11
61.21134
 21
180.55874
 31
0.0
  0
LINE
  5
1BF
330
1F
100
AcDbEntity
  8
SLD-0
  6
Continuous
 62
   179
100
AcDbLine
 10
61.74724000000001
 20
180.0228399999999
 30
0.0
 11
61.74724000000001
 21
177.0946399999999
 31
0.0
  0
LINE
  5
1C0
330
1F
100
AcDbEntity
  8
SLD-0
  6
Continuous
 62
   179
100
AcDbLine
 10
45.27544
 20
167.69463
 30
0.0
 11
45.81134
 21
167.1587399999999
 31
0.0
  0
LINE
  5
1C1
330
1F
100
AcDbEntity
  8
SLD-0
  6
Continuous
 62
   179
100
AcDbLine
 10
45.27544
 20
167.69464
 30
0.0
 11
45.27544
 21
170.62284
 31
0.0
  0
LINE
  5
1C2
330
1F
100
AcDbEntity
  8
SLD-0
  6
Continuous
 62
   179
100
AcDbLine
 10
66.59724
 20
177.0946399999999
 30
0.0
 11
69.52544
 21
177.0946399999999
 31
0.0
  0
LINE
  5
1C3
330
1F
100
AcDbEntity
  8
SLD-0
  6
Continuous
 62
   179
100
AcDbLine
 10
69.52544
 20
177.0946399999999
 30
0.0
 11
70.06134
 21
176.55874
 31
0.0
  0
LINE
  5
1C4
330
1F
100
AcDbEntity
  8
SLD-0
  6
Continuous
 62
   179
100
AcDbLine
 10
69.52544
 20
177.0946399999999
 30
0.0
 11
69.52544
 21
180.0228399999999
 31
0.0
  0
LINE
  5
1C5
330
1F
100
AcDbEntity
  8
SLD-0
  6
Continuous
 62
   179
100
AcDbLine
 10
69.52544
 20
180.0228399999999
 30
0.0
 11
70.06134
 21
180.55874
 31
0.0
  0
LINE
  5
1C6
330
1F
100
AcDbEntity
  8
SLD-0
  6
Continuous
 62
   179
100
AcDbLine
 10
69.52544
 20
180.0228399999999
 30
0.0
 11
66.59724
 21
180.0228399999999
 31
0.0
  0
LINE
  5
1C7
330
1F
100
AcDbEntity
  8
SLD-0
  6
Continuous
 62
   179
100
AcDbLine
 10
47.19723
 20
167.69464
 30
0.0
 11
46.66133
 21
167.1587399999999
 31
0.0
  0
LINE
  5
1C8
330
1F
100
AcDbEntity
  8
SLD-0
  6
Continuous
 62
   179
100
AcDbLine
 10
47.19723
 20
167.69464
 30
0.0
 11
50.12543
 21
167.69464
 31
0.0
  0
LINE
  5
1C9
330
1F
100
AcDbEntity
  8
SLD-0
  6
Continuous
 62
   179
100
AcDbLine
 10
64.67543
 20
172.3946399999999
 30
0.0
 11
65.21133
 21
171.85873
 31
0.0
  0
LINE
  5
1CA
330
1F
100
AcDbEntity
  8
SLD-0
  6
Continuous
 62
   179
100
AcDbLine
 10
64.67543
 20
172.3946399999999
 30
0.0
 11
64.67543
 21
175.3228499999999
 31
0.0
  0
LINE
  5
1CB
330
1F
100
AcDbEntity
  8
SLD-0
  6
Continuous
 62
   179
100
AcDbLine
 10
71.44724
 20
177.09463
 30
0.0
 11
70.91134
 21
176.55874
 31
0.0
  0
LINE
  5
1CC
330
1F
100
AcDbEntity
  8
SLD-0
  6
Continuous
 62
   179
100
AcDbLine
 10
71.44724
 20
177.09463
 30
0.0
 11
74.37543000000002
 21
177.0946399999999
 31
0.0
  0
LINE
  5
1CD
330
1F
100
AcDbEntity
  8
SLD-0
  6
Continuous
 62
   179
100
AcDbLine
 10
74.37543000000002
 20
177.0946399999999
 30
0.0
 11
74.91133000000002
 21
176.55874
 31
0.0
  0
LINE
  5
1CE
330
1F
100
AcDbEntity
  8
SLD-0
  6
Continuous
 62
   179
100
AcDbLine
 10
74.37543000000002
 20
177.0946399999999
 30
0.0
 11
74.37543000000002
 21
180.0228399999999
 31
0.0
  0
LINE
  5
1CF
330
1F
100
AcDbEntity
  8
SLD-0
  6
Continuous
 62
   179
100
AcDbLine
 10
74.37543999999999
 20
180.0228399999999
 30
0.0
 11
74.91133999999998
 21
180.55874
 31
0.0
  0
LINE
  5
1D0
330
1F
100
AcDbEntity
  8
SLD-0
  6
Continuous
 62
   179
100
AcDbLine
 10
74.37543000000002
 20
180.0228399999999
 30
0.0
 11
71.44724
 21
180.0228399999999
 31
0.0
  0
LINE
  5
1D1
330
1F
100
AcDbEntity
  8
SLD-0
  6
Continuous
 62
   179
100
AcDbLine
 10
71.44723
 20
180.0228399999999
 30
0.0
 11
70.91134
 21
180.55874
 31
0.0
  0
LINE
  5
1D2
330
1F
100
AcDbEntity
  8
SLD-0
  6
Continuous
 62
   179
100
AcDbLine
 10
71.44724
 20
180.0228399999999
 30
0.0
 11
71.44724
 21
177.09463
 31
0.0
  0
LINE
  5
1D3
330
1F
100
AcDbEntity
  8
SLD-0
  6
Continuous
 62
   179
100
AcDbLine
 10
69.52544
 20
172.3946399999999
 30
0.0
 11
70.06133
 21
171.85873
 31
0.0
  0
LINE
  5
1D4
330
1F
100
AcDbEntity
  8
SLD-0
  6
Continuous
 62
   179
100
AcDbLine
 10
69.52544
 20
172.3946399999999
 30
0.0
 11
69.52544
 21
175.3228499999999
 31
0.0
  0
LINE
  5
1D5
330
1F
100
AcDbEntity
  8
SLD-0
  6
Continuous
 62
   179
100
AcDbLine
 10
35.57544
 20
172.3946399999999
 30
0.0
 11
35.57544
 21
175.3228499999999
 31
0.0
  0
LINE
  5
1D6
330
1F
100
AcDbEntity
  8
SLD-0
  6
Continuous
 62
   179
100
AcDbLine
 10
35.57544
 20
175.3228399999999
 30
0.0
 11
36.11133
 21
175.85873
 31
0.0
  0
LINE
  5
1D7
330
1F
100
AcDbEntity
  8
SLD-0
  6
Continuous
 62
   179
100
AcDbLine
 10
35.57544
 20
175.3228499999999
 30
0.0
 11
32.64723
 21
175.3228499999999
 31
0.0
  0
LINE
  5
1D8
330
1F
100
AcDbEntity
  8
SLD-0
  6
Continuous
 62
   179
100
AcDbLine
 10
32.64723
 20
175.3228499999999
 30
0.0
 11
32.11133
 21
175.8587499999999
 31
0.0
  0
LINE
  5
1D9
330
1F
100
AcDbEntity
  8
SLD-0
  6
Continuous
 62
   179
100
AcDbLine
 10
32.64723
 20
175.3228499999999
 30
0.0
 11
32.64723
 21
172.3946399999999
 31
0.0
  0
LINE
  5
1DA
330
1F
100
AcDbEntity
  8
SLD-0
  6
Continuous
 62
   179
100
AcDbLine
 10
58.23700999999999
 20
172.3946399999999
 30
0.0
 11
59.82544
 21
172.3946399999999
 31
0.0
  0
LINE
  5
1DB
330
1F
100
AcDbEntity
  8
SLD-0
  6
Continuous
 62
   179
100
AcDbLine
 10
37.49724
 20
172.3946399999999
 30
0.0
 11
36.96132999999999
 21
171.85873
 31
0.0
  0
LINE
  5
1DC
330
1F
100
AcDbEntity
  8
SLD-0
  6
Continuous
 62
   179
100
AcDbLine
 10
37.49724
 20
172.3946399999999
 30
0.0
 11
40.42543
 21
172.3946399999999
 31
0.0
  0
LINE
  5
1DD
330
1F
100
AcDbEntity
  8
SLD-0
  6
Continuous
 62
   179
100
AcDbLine
 10
40.42543
 20
172.3946399999999
 30
0.0
 11
40.96133
 21
171.85873
 31
0.0
  0
LINE
  5
1DE
330
1F
100
AcDbEntity
  8
SLD-0
  6
Continuous
 62
   179
100
AcDbLine
 10
40.42543
 20
172.3946399999999
 30
0.0
 11
40.42543
 21
175.3228499999999
 31
0.0
  0
LINE
  5
1DF
330
1F
100
AcDbEntity
  8
SLD-0
  6
Continuous
 62
   179
100
AcDbLine
 10
40.42544
 20
175.3228399999999
 30
0.0
 11
40.96133
 21
175.85873
 31
0.0
  0
LINE
  5
1E0
330
1F
100
AcDbEntity
  8
SLD-0
  6
Continuous
 62
   179
100
AcDbLine
 10
40.42543
 20
175.3228499999999
 30
0.0
 11
37.49724
 21
175.3228499999999
 31
0.0
  0
LINE
  5
1E1
330
1F
100
AcDbEntity
  8
SLD-0
  6
Continuous
 62
   179
100
AcDbLine
 10
37.49723
 20
175.3228399999999
 30
0.0
 11
36.96132999999999
 21
175.85873
 31
0.0
  0
LINE
  5
1E2
330
1F
100
AcDbEntity
  8
SLD-0
  6
Continuous
 62
   179
100
AcDbLine
 10
37.49724
 20
175.3228499999999
 30
0.0
 11
37.49724
 21
172.3946399999999
 31
0.0
  0
LINE
  5
1E3
330
1F
100
AcDbEntity
  8
SLD-0
  6
Continuous
 62
   179
100
AcDbLine
 10
46.74147
 20
175.77861
 30
0.0
 11
46.66133
 21
175.85873
 31
0.0
  0
LINE
  5
1E4
330
1F
100
AcDbEntity
  8
SLD-0
  6
Continuous
 62
   179
100
AcDbLine
 10
64.67543
 20
170.6228499999999
 30
0.0
 11
61.74724000000001
 21
170.6228499999999
 31
0.0
  0
LINE
  5
1E5
330
1F
100
AcDbEntity
  8
SLD-0
  6
Continuous
 62
   179
100
AcDbLine
 10
61.74724000000001
 20
170.62284
 30
0.0
 11
61.21133
 21
171.1587399999999
 31
0.0
  0
LINE
  5
1E6
330
1F
100
AcDbEntity
  8
SLD-0
  6
Continuous
 62
   179
100
AcDbLine
 10
45.27544
 20
172.3946399999999
 30
0.0
 11
45.27544
 21
175.3228499999999
 31
0.0
  0
LINE
  5
1E7
330
1F
100
AcDbEntity
  8
SLD-0
  6
Continuous
 62
   179
100
AcDbLine
 10
45.27543
 20
175.3228499999999
 30
0.0
 11
45.81133
 21
175.8587499999999
 31
0.0
  0
LINE
  5
1E8
330
1F
100
AcDbEntity
  8
SLD-0
  6
Continuous
 62
   179
100
AcDbLine
 10
45.27544
 20
175.3228499999999
 30
0.0
 11
42.34722999999998
 21
175.3228499999999
 31
0.0
  0
LINE
  5
1E9
330
1F
100
AcDbEntity
  8
SLD-0
  6
Continuous
 62
   179
100
AcDbLine
 10
42.34723999999999
 20
175.3228399999999
 30
0.0
 11
41.81134
 21
175.85873
 31
0.0
  0
LINE
  5
1EA
330
1F
100
AcDbEntity
  8
SLD-0
  6
Continuous
 62
   179
100
AcDbLine
 10
42.34722999999998
 20
175.3228499999999
 30
0.0
 11
42.34722999999998
 21
172.3946399999999
 31
0.0
  0
LINE
  5
1EB
330
1F
100
AcDbEntity
  8
SLD-0
  6
Continuous
 62
   179
100
AcDbLine
 10
69.52544
 20
170.6228499999999
 30
0.0
 11
66.59724
 21
170.6228499999999
 31
0.0
  0
LINE
  5
1EC
330
1F
100
AcDbEntity
  8
SLD-0
  6
Continuous
 62
   179
100
AcDbLine
 10
66.59723000000001
 20
170.6228499999999
 30
0.0
 11
66.06132999999998
 21
171.1587399999999
 31
0.0
  0
LINE
  5
1ED
330
1F
100
AcDbEntity
  8
SLD-0
  6
Continuous
 62
   179
100
AcDbLine
 10
61.74724000000001
 20
172.3946399999999
 30
0.0
 11
61.21133
 21
171.85873
 31
0.0
  0
LINE
  5
1EE
330
1F
100
AcDbEntity
  8
SLD-0
  6
Continuous
 62
   179
100
AcDbLine
 10
61.74724000000001
 20
172.3946399999999
 30
0.0
 11
64.67543
 21
172.3946399999999
 31
0.0
  0
LINE
  5
1EF
330
1F
100
AcDbEntity
  8
SLD-0
  6
Continuous
 62
   179
100
AcDbLine
 10
47.19724
 20
174.5368
 30
0.0
 11
47.19723
 21
172.3946399999999
 31
0.0
  0
LINE
  5
1F0
330
1F
100
AcDbEntity
  8
SLD-0
  6
Continuous
 62
   179
100
AcDbLine
 10
71.44723
 20
167.6946499999999
 30
0.0
 11
70.91133000000002
 21
167.1587399999999
 31
0.0
  0
LINE
  5
1F1
330
1F
100
AcDbEntity
  8
SLD-0
  6
Continuous
 62
   179
100
AcDbLine
 10
71.44724
 20
167.69464
 30
0.0
 11
74.37543000000002
 21
167.69464
 31
0.0
  0
LINE
  5
1F2
330
1F
100
AcDbEntity
  8
SLD-0
  6
Continuous
 62
   179
100
AcDbLine
 10
61.74724000000001
 20
175.3228499999999
 30
0.0
 11
61.74724000000001
 21
172.3946399999999
 31
0.0
  0
LINE
  5
1F3
330
1F
100
AcDbEntity
  8
SLD-0
  6
Continuous
 62
   179
100
AcDbLine
 10
74.37543000000002
 20
170.6228499999999
 30
0.0
 11
71.44724
 21
170.6228499999999
 31
0.0
  0
LINE
  5
1F4
330
1F
100
AcDbEntity
  8
SLD-0
  6
Continuous
 62
   179
100
AcDbLine
 10
71.44724
 20
170.62284
 30
0.0
 11
70.91133000000002
 21
171.1587399999999
 31
0.0
  0
LINE
  5
1F5
330
1F
100
AcDbEntity
  8
SLD-0
  6
Continuous
 62
   179
100
AcDbLine
 10
66.59723000000001
 20
172.3946399999999
 30
0.0
 11
66.06132999999998
 21
171.8587499999999
 31
0.0
  0
LINE
  5
1F6
330
1F
100
AcDbEntity
  8
SLD-0
  6
Continuous
 62
   179
100
AcDbLine
 10
66.59724
 20
172.3946399999999
 30
0.0
 11
69.52544
 21
172.3946399999999
 31
0.0
  0
LINE
  5
1F7
330
1F
100
AcDbEntity
  8
SLD-0
  6
Continuous
 62
   179
100
AcDbLine
 10
42.34722999999998
 20
170.6228499999999
 30
0.0
 11
42.34722999999998
 21
167.69464
 31
0.0
  0
LINE
  5
1F8
330
1F
100
AcDbEntity
  8
SLD-0
  6
Continuous
 62
   179
100
AcDbLine
 10
42.34722999999998
 20
167.69464
 30
0.0
 11
41.81134
 21
167.1587399999999
 31
0.0
  0
LINE
  5
1F9
330
1F
100
AcDbEntity
  8
SLD-0
  6
Continuous
 62
   179
100
AcDbLine
 10
66.59724
 20
175.3228499999999
 30
0.0
 11
66.59724
 21
172.3946399999999
 31
0.0
  0
LINE
  5
1FA
330
1F
100
AcDbEntity
  8
SLD-0
  6
Continuous
 62
   179
100
AcDbLine
 10
71.44724
 20
181.7946499999999
 30
0.0
 11
74.37543000000002
 21
181.7946499999999
 31
0.0
  0
LINE
  5
1FB
330
1F
100
AcDbEntity
  8
SLD-0
  6
Continuous
 62
   179
100
AcDbLine
 10
71.44723
 20
172.3946399999999
 30
0.0
 11
70.91133000000002
 21
171.85873
 31
0.0
  0
LINE
  5
1FC
330
1F
100
AcDbEntity
  8
SLD-0
  6
Continuous
 62
   179
100
AcDbLine
 10
71.44723
 20
172.3946399999999
 30
0.0
 11
74.37543000000002
 21
172.3946399999999
 31
0.0
  0
LINE
  5
1FD
330
1F
100
AcDbEntity
  8
SLD-0
  6
Continuous
 62
   179
100
AcDbLine
 10
47.19724
 20
170.6228499999999
 30
0.0
 11
47.19723
 21
167.69464
 31
0.0
  0
LINE
  5
1FE
330
1F
100
AcDbEntity
  8
SLD-0
  6
Continuous
 62
   179
100
AcDbLine
 10
71.44724
 20
175.3228499999999
 30
0.0
 11
71.44723
 21
172.3946399999999
 31
0.0
  0
LINE
  5
1FF
330
1F
100
AcDbEntity
  8
SLD-0
  6
Continuous
 62
   179
100
AcDbLine
 10
52.04723
 20
167.69464
 30
0.0
 11
51.51133
 21
167.1587399999999
 31
0.0
  0
LINE
  5
200
330
1F
100
AcDbEntity
  8
SLD-0
  6
Continuous
 62
   179
100
AcDbLine
 10
52.04723
 20
167.69464
 30
0.0
 11
54.97543
 21
167.69464
 31
0.0
  0
LINE
  5
201
330
1F
100
AcDbEntity
  8
SLD-0
  6
Continuous
 62
   179
100
AcDbLine
 10
32.64724
 20
167.69464
 30
0.0
 11
32.11134
 21
167.1587399999999
 31
0.0
  0
LINE
  5
202
330
1F
100
AcDbEntity
  8
SLD-0
  6
Continuous
 62
   179
100
AcDbLine
 10
32.64723
 20
167.69464
 30
0.0
 11
35.57542999999999
 21
167.69464
 31
0.0
  0
LINE
  5
203
330
1F
100
AcDbEntity
  8
SLD-0
  6
Continuous
 62
   179
100
AcDbLine
 10
52.04723
 20
170.6228499999999
 30
0.0
 11
52.04723
 21
167.69464
 31
0.0
  0
LINE
  5
204
330
1F
100
AcDbEntity
  8
SLD-0
  6
Continuous
 62
   179
100
AcDbLine
 10
52.04723
 20
170.6228499999999
 30
0.0
 11
51.9305
 21
170.73958
 31
0.0
  0
LINE
  5
205
330
1F
100
AcDbEntity
  8
SLD-0
  6
Continuous
 62
   179
100
AcDbLine
 10
32.64723
 20
170.6228499999999
 30
0.0
 11
32.64723
 21
167.69464
 31
0.0
  0
LINE
  5
206
330
1F
100
AcDbEntity
  8
SLD-0
  6
Continuous
 62
   179
100
AcDbLine
 10
56.89724
 20
167.69464
 30
0.0
 11
56.36134000000001
 21
167.1587399999999
 31
0.0
  0
LINE
  5
207
330
1F
100
AcDbEntity
  8
SLD-0
  6
Continuous
 62
   179
100
AcDbLine
 10
56.89723
 20
167.69464
 30
0.0
 11
59.82543
 21
167.69464
 31
0.0
  0
LINE
  5
208
330
1F
100
AcDbEntity
  8
SLD-0
  6
Continuous
 62
   179
100
AcDbLine
 10
37.49723
 20
167.69464
 30
0.0
 11
36.96132999999999
 21
167.1587399999999
 31
0.0
  0
LINE
  5
209
330
1F
100
AcDbEntity
  8
SLD-0
  6
Continuous
 62
   179
100
AcDbLine
 10
37.49724
 20
167.69464
 30
0.0
 11
40.42543
 21
167.69464
 31
0.0
  0
LINE
  5
20A
330
1F
100
AcDbEntity
  8
SLD-0
  6
Continuous
 62
   179
100
AcDbLine
 10
56.89723
 20
170.6228499999999
 30
0.0
 11
56.89723
 21
167.69464
 31
0.0
  0
LINE
  5
20B
330
1F
100
AcDbEntity
  8
SLD-0
  6
Continuous
 62
   179
100
AcDbLine
 10
37.49724
 20
170.6228499999999
 30
0.0
 11
37.49724
 21
167.69464
 31
0.0
  0
LINE
  5
20C
330
1F
100
AcDbEntity
  8
SLD-0
  6
Continuous
 62
   179
100
AcDbLine
 10
61.74723
 20
167.69464
 30
0.0
 11
61.21133
 21
167.1587399999999
 31
0.0
  0
LINE
  5
20D
330
1F
100
AcDbEntity
  8
SLD-0
  6
Continuous
 62
   179
100
AcDbLine
 10
61.74724000000001
 20
167.69464
 30
0.0
 11
64.67543
 21
167.69464
 31
0.0
  0
LINE
  5
20E
330
1F
100
AcDbEntity
  8
SLD-0
  6
Continuous
 62
   179
100
AcDbLine
 10
42.34722999999998
 20
167.69464
 30
0.0
 11
45.27544
 21
167.69464
 31
0.0
  0
LINE
  5
20F
330
1F
100
AcDbEntity
  8
SLD-0
  6
Continuous
 62
   179
100
AcDbLine
 10
61.74724000000001
 20
170.6228499999999
 30
0.0
 11
61.74724000000001
 21
167.69464
 31
0.0
  0
LINE
  5
210
330
1F
100
AcDbEntity
  8
SLD-0
  6
Continuous
 62
   179
100
AcDbLine
 10
71.44724
 20
170.6228499999999
 30
0.0
 11
71.44724
 21
167.69464
 31
0.0
  0
LINE
  5
211
330
1F
100
AcDbEntity
  8
SLD-0
  6
Continuous
 62
   179
100
AcDbLine
 10
66.59724
 20
167.69464
 30
0.0
 11
66.06132999999998
 21
167.1587399999999
 31
0.0
  0
LINE
  5
212
330
1F
100
AcDbEntity
  8
SLD-0
  6
Continuous
 62
   179
100
AcDbLine
 10
66.59724
 20
167.69464
 30
0.0
 11
69.52544
 21
167.69464
 31
0.0
  0
LINE
  5
213
330
1F
100
AcDbEntity
  8
SLD-0
  6
Continuous
 62
   179
100
AcDbLine
 10
66.59724
 20
170.6228499999999
 30
0.0
 11
66.59724
 21
167.69464
 31
0.0
  0
LINE
  5
214
330
1F
100
AcDbEntity
  8
SLD-0
  6
Continuous
 62
   179
100
AcDbLine
 10
54.97543
 20
170.6228499999999
 30
0.0
 11
54.45648000000001
 21
170.6228499999999
 31
0.0
  0
LINE
  5
215
330
1F
100
AcDbEntity
  8
SLD-0
  6
Continuous
 62
   179
100
AcDbLine
 10
52.56618
 20
170.6228499999999
 30
0.0
 11
52.04723
 21
170.6228499999999
 31
0.0
  0
LINE
  5
216
330
1F
100
AcDbEntity
  8
SLD-0
  6
Continuous
 62
   179
100
AcDbLine
 10
53.51134
 20
177.55875
 30
0.0
 11
53.51134
 21
179.55875
 31
0.0
  0
LINE
  5
217
330
1F
100
AcDbEntity
  8
SLD-0
  6
Continuous
 62
   179
100
AcDbLine
 10
53.51134
 20
177.55875
 30
0.0
 11
51.51134
 21
177.55875
 31
0.0
  0
LINE
  5
218
330
1F
100
AcDbEntity
  8
SLD-0
  6
Continuous
 62
   179
100
AcDbLine
 10
53.51134
 20
177.55875
 30
0.0
 11
53.51134
 21
175.55875
 31
0.0
  0
LINE
  5
219
330
1F
100
AcDbEntity
  8
SLD-0
  6
Continuous
 62
   179
100
AcDbLine
 10
53.51134
 20
177.55875
 30
0.0
 11
55.51134000000001
 21
177.55875
 31
0.0
  0
LINE
  5
21A
330
1F
100
AcDbEntity
  8
SLD-0
  6
Continuous
 62
   179
100
AcDbLine
 10
53.51134
 20
181.55875
 30
0.0
 11
53.51134
 21
185.55875
 31
0.0
  0
LINE
  5
21B
330
1F
100
AcDbEntity
  8
SLD-0
  6
Continuous
 62
   179
100
AcDbLine
 10
49.51134
 20
177.55875
 30
0.0
 11
45.51134
 21
177.55875
 31
0.0
  0
LINE
  5
21C
330
1F
100
AcDbEntity
  8
SLD-0
  6
Continuous
 62
   179
100
AcDbLine
 10
53.51134
 20
173.55875
 30
0.0
 11
53.51134
 21
169.55875
 31
0.0
  0
LINE
  5
21D
330
1F
100
AcDbEntity
  8
SLD-0
  6
Continuous
 62
   179
100
AcDbLine
 10
57.51134
 20
177.55875
 30
0.0
 11
61.51134
 21
177.55875
 31
0.0
  0
LINE
  5
21E
330
1F
100
AcDbEntity
  8
SLD-0
  6
CENTER
 62
   179
100
AcDbLine
 10
53.51134
 20
151.06505
 30
0.0
 11
53.51134
 21
208.18582
 31
0.0
  0
LINE
  5
21F
330
1F
100
AcDbEntity
  8
SLD-0
  6
Continuous
 62
   179
100
AcDbLine
 10
59.51134
 20
153.06505
 30
0.0
 11
53.51134
 21
153.06505
 31
0.0
  0
LINE
  5
220
330
1F
100
AcDbEntity
  8
SLD-0
  6
Continuous
 62
   179
100
AcDbLine
 10
59.51134
 20
204.83223
 30
0.0
 11
53.51134
 21
204.83223
 31
0.0
  0
LINE
  5
221
330
1F
100
AcDbEntity
  8
SLD-0
  6
Continuous
 62
   179
100
AcDbLine
 10
105.263046
 20
167.5587499999999
 30
0.0
 11
105.263046
 21
165.55875
 31
0.0
  0
LINE
  5
222
330
1F
100
AcDbEntity
  8
SLD-0
  6
Continuous
 62
   179
100
AcDbLine
 10
105.263046
 20
165.55875
 30
0.0
 11
97.263046
 21
165.55875
 31
0.0
  0
LINE
  5
223
330
1F
100
AcDbEntity
  8
SLD-0
  6
Continuous
 62
   179
100
AcDbLine
 10
97.263046
 20
165.55875
 30
0.0
 11
97.263046
 21
167.5587499999999
 31
0.0
  0
LINE
  5
224
330
1F
100
AcDbEntity
  8
SLD-0
  6
Continuous
 62
   179
100
AcDbLine
 10
97.263046
 20
191.5587499999999
 30
0.0
 11
105.263046
 21
191.5587499999999
 31
0.0
  0
LINE
  5
225
330
1F
100
AcDbEntity
  8
SLD-0
  6
Continuous
 62
   179
100
AcDbLine
 10
105.263046
 20
191.5587499999999
 30
0.0
 11
105.263046
 21
189.5587499999999
 31
0.0
  0
LINE
  5
226
330
1F
100
AcDbEntity
  8
SLD-0
  6
Continuous
 62
   179
100
AcDbLine
 10
97.263046
 20
189.5587499999999
 30
0.0
 11
97.263046
 21
191.5587499999999
 31
0.0
  0
LINE
  5
227
330
1F
100
AcDbEntity
  8
SLD-0
  6
Continuous
 62
   179
100
AcDbLine
 10
97.263046
 20
167.5587499999999
 30
0.0
 11
97.263046
 21
189.5587499999999
 31
0.0
  0
LINE
  5
228
330
1F
100
AcDbEntity
  8
SLD-0
  6
Continuous
 62
   179
100
AcDbLine
 10
105.263046
 20
167.5587499999999
 30
0.0
 11
105.263046
 21
189.5587499999999
 31
0.0
  0
LINE
  5
229
330
1F
100
AcDbEntity
  8
SLD-0
  6
Continuous
 62
   179
100
AcDbLine
 10
108.463051
 20
165.55875
 30
0.0
 11
105.263046
 21
165.55875
 31
0.0
  0
LINE
  5
22A
330
1F
100
AcDbEntity
  8
SLD-0
  6
Continuous
 62
   179
100
AcDbLine
 10
105.263046
 20
165.55875
 30
0.0
 11
105.263046
 21
167.5587499999999
 31
0.0
  0
LINE
  5
22B
330
1F
100
AcDbEntity
  8
SLD-0
  6
Continuous
 62
   179
100
AcDbLine
 10
108.463051
 20
167.5587499999999
 30
0.0
 11
108.463051
 21
165.55875
 31
0.0
  0
LINE
  5
22C
330
1F
100
AcDbEntity
  8
SLD-0
  6
Continuous
 62
   179
100
AcDbLine
 10
105.263046
 20
167.5587499999999
 30
0.0
 11
105.263046
 21
189.5587499999999
 31
0.0
  0
LINE
  5
22D
330
1F
100
AcDbEntity
  8
SLD-0
  6
Continuous
 62
   179
100
AcDbLine
 10
108.463051
 20
167.5587499999999
 30
0.0
 11
108.463051
 21
189.5587499999999
 31
0.0
  0
LINE
  5
22E
330
1F
100
AcDbEntity
  8
SLD-0
  6
Continuous
 62
   179
100
AcDbLine
 10
105.263046
 20
191.5587499999999
 30
0.0
 11
108.463051
 21
191.5587499999999
 31
0.0
  0
LINE
  5
22F
330
1F
100
AcDbEntity
  8
SLD-0
  6
Continuous
 62
   179
100
AcDbLine
 10
105.263046
 20
189.5587499999999
 30
0.0
 11
105.263046
 21
191.5587499999999
 31
0.0
  0
LINE
  5
230
330
1F
100
AcDbEntity
  8
SLD-0
  6
Continuous
 62
   179
100
AcDbLine
 10
108.463051
 20
191.5587499999999
 30
0.0
 11
108.463051
 21
189.5587499999999
 31
0.0
  0
LINE
  5
231
330
1F
100
AcDbEntity
  8
SLD-0
  6
Continuous
 62
   179
100
AcDbLine
 10
105.263042
 20
115.0686199999999
 30
0.0
 11
107.263042
 21
117.06862
 31
0.0
  0
LINE
  5
232
330
1F
100
AcDbEntity
  8
SLD-0
  6
Continuous
 62
   179
100
AcDbLine
 10
105.2630439999999
 20
110.5784879999999
 30
0.0
 11
108.4630439999999
 21
113.7784899999999
 31
0.0
  0
LINE
  5
233
330
1F
100
AcDbEntity
  8
SLD-0
  6
Continuous
 62
   179
100
AcDbLine
 10
105.2630439999999
 20
133.02913
 30
0.0
 11
107.79266
 21
135.55874
 31
0.0
  0
LINE
  5
234
330
1F
100
AcDbEntity
  8
SLD-0
  6
Continuous
 62
   179
100
AcDbLine
 10
105.2630469999999
 20
128.5389999999999
 30
0.0
 11
108.463047
 21
131.739
 31
0.0
  0
LINE
  5
235
330
1F
100
AcDbEntity
  8
SLD-0
  6
Continuous
 62
   179
100
AcDbLine
 10
106.0729199999999
 20
124.8587399999999
 30
0.0
 11
107.2630489999999
 21
126.04887
 31
0.0
  0
LINE
  5
236
330
1F
100
AcDbEntity
  8
SLD-0
  6
Continuous
 62
   179
100
AcDbLine
 10
99.263051
 20
113.5587399999999
 30
0.0
 11
101.263051
 21
115.5587399999999
 31
0.0
  0
LINE
  5
237
330
1F
100
AcDbEntity
  8
SLD-0
  6
Continuous
 62
   179
100
AcDbLine
 10
99.75317
 20
109.5587459999999
 30
0.0
 11
105.263042
 21
115.0686199999999
 31
0.0
  0
LINE
  5
238
330
1F
100
AcDbEntity
  8
SLD-0
  6
Continuous
 62
   179
100
AcDbLine
 10
104.243301
 20
109.5587439999998
 30
0.0
 11
105.2630439999999
 21
110.5784879999999
 31
0.0
  0
LINE
  5
239
330
1F
100
AcDbEntity
  8
SLD-0
  6
Continuous
 62
   179
100
AcDbLine
 10
97.263052
 20
134.00938
 30
0.0
 11
98.81241000000001
 21
135.55874
 31
0.0
  0
LINE
  5
23A
330
1F
100
AcDbEntity
  8
SLD-0
  6
Continuous
 62
   179
100
AcDbLine
 10
99.26304299999999
 20
131.51926
 30
0.0
 11
103.30253
 21
135.55875
 31
0.0
  0
LINE
  5
23B
330
1F
100
AcDbEntity
  8
SLD-0
  6
Continuous
 62
   179
100
AcDbLine
 10
97.26304200000001
 20
129.51926
 30
0.0
 11
97.86339400000001
 21
130.11961
 31
0.0
  0
LINE
  5
23C
330
1F
100
AcDbEntity
  8
SLD-0
  6
Continuous
 62
   179
100
AcDbLine
 10
99.79266
 20
127.5587399999998
 30
0.0
 11
105.2630439999999
 21
133.02913
 31
0.0
  0
LINE
  5
23D
330
1F
100
AcDbEntity
  8
SLD-0
  6
Continuous
 62
   179
100
AcDbLine
 10
104.2827909999999
 20
127.5587399999998
 30
0.0
 11
105.2630469999999
 21
128.5389999999999
 31
0.0
  0
LINE
  5
23E
330
1F
100
AcDbEntity
  8
SLD-0
  6
Continuous
 62
   179
100
AcDbLine
 10
97.263046
 20
109.5587389999999
 30
0.0
 11
97.263046
 21
111.158745
 31
0.0
  0
LINE
  5
23F
330
1F
100
AcDbEntity
  8
SLD-0
  6
Continuous
 62
   179
100
AcDbLine
 10
97.263046
 20
111.158745
 30
0.0
 11
99.26304600000001
 21
111.69464
 31
0.0
  0
LINE
  5
240
330
1F
100
AcDbEntity
  8
SLD-0
  6
Continuous
 62
   179
100
AcDbLine
 10
99.26304600000001
 20
114.5587399999999
 30
0.0
 11
99.26304600000001
 21
111.69464
 31
0.0
  0
LINE
  5
241
330
1F
100
AcDbEntity
  8
SLD-0
  6
Continuous
 62
   179
100
AcDbLine
 10
97.263046
 20
114.5587399999999
 30
0.0
 11
99.26304600000001
 21
114.5587399999999
 31
0.0
  0
LINE
  5
242
330
1F
100
AcDbEntity
  8
SLD-0
  6
Continuous
 62
   179
100
AcDbLine
 10
97.263046
 20
114.5587399999999
 30
0.0
 11
97.263046
 21
115.5587399999999
 31
0.0
  0
LINE
  5
243
330
1F
100
AcDbEntity
  8
SLD-0
  6
Continuous
 62
   179
100
AcDbLine
 10
97.263046
 20
115.5587399999999
 30
0.0
 11
105.263046
 21
115.5587399999999
 31
0.0
  0
LINE
  5
244
330
1F
100
AcDbEntity
  8
SLD-0
  6
Continuous
 62
   179
100
AcDbLine
 10
105.263046
 20
109.5587389999999
 30
0.0
 11
105.263046
 21
115.5587399999999
 31
0.0
  0
LINE
  5
245
330
1F
100
AcDbEntity
  8
SLD-0
  6
Continuous
 62
   179
100
AcDbLine
 10
105.263046
 20
109.5587389999999
 30
0.0
 11
97.263046
 21
109.5587389999999
 31
0.0
  0
LINE
  5
246
330
1F
100
AcDbEntity
  8
SLD-0
  6
Continuous
 62
   179
100
AcDbLine
 10
97.263046
 20
133.9587399999998
 30
0.0
 11
97.263046
 21
135.55874
 31
0.0
  0
LINE
  5
247
330
1F
100
AcDbEntity
  8
SLD-0
  6
Continuous
 62
   179
100
AcDbLine
 10
105.263046
 20
127.5587399999998
 30
0.0
 11
97.263046
 21
127.5587399999998
 31
0.0
  0
LINE
  5
248
330
1F
100
AcDbEntity
  8
SLD-0
  6
Continuous
 62
   179
100
AcDbLine
 10
97.263046
 20
127.5587399999998
 30
0.0
 11
97.263046
 21
128.55874
 31
0.0
  0
LINE
  5
249
330
1F
100
AcDbEntity
  8
SLD-0
  6
Continuous
 62
   179
100
AcDbLine
 10
97.263046
 20
129.2587399999999
 30
0.0
 11
97.263046
 21
129.9587399999998
 31
0.0
  0
LINE
  5
24A
330
1F
100
AcDbEntity
  8
SLD-0
  6
Continuous
 62
   179
100
AcDbLine
 10
97.263046
 20
129.9587399999998
 30
0.0
 11
99.263048
 21
130.49464
 31
0.0
  0
LINE
  5
24B
330
1F
100
AcDbEntity
  8
SLD-0
  6
Continuous
 62
   179
100
AcDbLine
 10
99.26304600000001
 20
133.4228399999998
 30
0.0
 11
99.263048
 21
130.49464
 31
0.0
  0
LINE
  5
24C
330
1F
100
AcDbEntity
  8
SLD-0
  6
Continuous
 62
   179
100
AcDbLine
 10
99.26304600000001
 20
133.4228399999998
 30
0.0
 11
97.263046
 21
133.9587399999998
 31
0.0
  0
LINE
  5
24D
330
1F
100
AcDbEntity
  8
SLD-0
  6
Continuous
 62
   179
100
AcDbLine
 10
105.263046
 20
127.5587399999998
 30
0.0
 11
105.263046
 21
135.55874
 31
0.0
  0
LINE
  5
24E
330
1F
100
AcDbEntity
  8
SLD-0
  6
Continuous
 62
   179
100
AcDbLine
 10
97.263046
 20
135.55874
 30
0.0
 11
105.263046
 21
135.55874
 31
0.0
  0
LINE
  5
24F
330
1F
100
AcDbEntity
  8
SLD-0
  6
Continuous
 62
   179
100
AcDbLine
 10
97.263046
 20
127.5587399999998
 30
0.0
 11
97.263046
 21
115.5587399999999
 31
0.0
  0
LINE
  5
250
330
1F
100
AcDbEntity
  8
SLD-0
  6
Continuous
 62
   179
100
AcDbLine
 10
97.263046
 20
114.5587399999999
 30
0.0
 11
97.263046
 21
111.158745
 31
0.0
  0
LINE
  5
251
330
1F
100
AcDbEntity
  8
SLD-0
  6
Continuous
 62
   179
100
AcDbLine
 10
97.263046
 20
129.2587399999999
 30
0.0
 11
97.263046
 21
128.55874
 31
0.0
  0
LINE
  5
252
330
1F
100
AcDbEntity
  8
SLD-0
  6
Continuous
 62
   179
100
AcDbLine
 10
97.263046
 20
133.9587399999998
 30
0.0
 11
97.263046
 21
129.9587399999998
 31
0.0
  0
LINE
  5
253
330
1F
100
AcDbEntity
  8
SLD-0
  6
Continuous
 62
   179
100
AcDbLine
 10
107.263046
 20
128.55874
 30
0.0
 11
107.263046
 21
124.8587399999999
 31
0.0
  0
LINE
  5
254
330
1F
100
AcDbEntity
  8
SLD-0
  6
Continuous
 62
   179
100
AcDbLine
 10
107.263046
 20
124.8587399999999
 30
0.0
 11
105.263046
 21
124.8587399999999
 31
0.0
  0
LINE
  5
255
330
1F
100
AcDbEntity
  8
SLD-0
  6
Continuous
 62
   179
100
AcDbLine
 10
105.263046
 20
124.8587399999999
 30
0.0
 11
105.263046
 21
135.55874
 31
0.0
  0
LINE
  5
256
330
1F
100
AcDbEntity
  8
SLD-0
  6
Continuous
 62
   179
100
AcDbLine
 10
105.263046
 20
135.55874
 30
0.0
 11
108.463051
 21
135.55874
 31
0.0
  0
LINE
  5
257
330
1F
100
AcDbEntity
  8
SLD-0
  6
Continuous
 62
   179
100
AcDbLine
 10
108.463051
 20
128.55874
 30
0.0
 11
108.463051
 21
135.55874
 31
0.0
  0
LINE
  5
258
330
1F
100
AcDbEntity
  8
SLD-0
  6
Continuous
 62
   179
100
AcDbLine
 10
108.463051
 20
128.55874
 30
0.0
 11
107.263046
 21
128.55874
 31
0.0
  0
LINE
  5
259
330
1F
100
AcDbEntity
  8
SLD-0
  6
Continuous
 62
   179
100
AcDbLine
 10
105.263046
 20
109.5587389999999
 30
0.0
 11
105.263046
 21
118.2587399999998
 31
0.0
  0
LINE
  5
25A
330
1F
100
AcDbEntity
  8
SLD-0
  6
Continuous
 62
   179
100
AcDbLine
 10
105.263046
 20
118.2587399999998
 30
0.0
 11
107.263046
 21
118.2587399999998
 31
0.0
  0
LINE
  5
25B
330
1F
100
AcDbEntity
  8
SLD-0
  6
Continuous
 62
   179
100
AcDbLine
 10
107.263046
 20
118.2587399999998
 30
0.0
 11
107.263046
 21
114.5587399999999
 31
0.0
  0
LINE
  5
25C
330
1F
100
AcDbEntity
  8
SLD-0
  6
Continuous
 62
   179
100
AcDbLine
 10
107.263046
 20
114.5587399999999
 30
0.0
 11
108.463051
 21
114.5587399999999
 31
0.0
  0
LINE
  5
25D
330
1F
100
AcDbEntity
  8
SLD-0
  6
Continuous
 62
   179
100
AcDbLine
 10
108.463051
 20
109.5587389999999
 30
0.0
 11
108.463051
 21
114.5587399999999
 31
0.0
  0
LINE
  5
25E
330
1F
100
AcDbEntity
  8
SLD-0
  6
Continuous
 62
   179
100
AcDbLine
 10
108.463051
 20
109.5587389999999
 30
0.0
 11
105.263046
 21
109.5587389999999
 31
0.0
  0
LINE
  5
25F
330
1F
100
AcDbEntity
  8
SLD-0
  6
Continuous
 62
   179
100
AcDbLine
 10
105.263046
 20
118.2587399999998
 30
0.0
 11
105.263046
 21
124.8587399999999
 31
0.0
  0
LINE
  5
260
330
1F
100
AcDbEntity
  8
SLD-0
  6
Continuous
 62
   179
100
AcDbLine
 10
107.263046
 20
118.2587399999998
 30
0.0
 11
107.263046
 21
124.8587399999999
 31
0.0
  0
LINE
  5
261
330
1F
100
AcDbEntity
  8
SLD-0
  6
Continuous
 62
   179
100
AcDbLine
 10
108.463051
 20
128.55874
 30
0.0
 11
108.463051
 21
125.5587399999999
 31
0.0
  0
LINE
  5
262
330
1F
100
AcDbEntity
  8
SLD-0
  6
Continuous
 62
   179
100
AcDbLine
 10
108.463051
 20
117.5587399999999
 30
0.0
 11
108.463051
 21
114.5587399999999
 31
0.0
  0
LINE
  5
263
330
1F
100
AcDbEntity
  8
SLD-0
  6
Continuous
 62
   179
100
AcDbLine
 10
108.463051
 20
117.5587399999999
 30
0.0
 11
108.463051
 21
125.5587399999999
 31
0.0
  0
LINE
  5
264
330
1F
100
AcDbEntity
  8
SLD-0
  6
CENTER
 62
   179
100
AcDbLine
 10
110.635178
 20
121.5587399999999
 30
0.0
 11
94.73014799999999
 21
121.5587399999999
 31
0.0
  0
LINE
  5
265
330
1F
100
AcDbEntity
  8
SLD-0
  6
Continuous
 62
   179
100
AcDbLine
 10
132.84856
 20
191.5587499999999
 30
0.0
 11
174.84856
 21
191.5587499999999
 31
0.0
  0
LINE
  5
266
330
1F
100
AcDbEntity
  8
SLD-0
  6
Continuous
 62
   179
100
AcDbLine
 10
176.84856
 20
189.5587499999999
 30
0.0
 11
176.84856
 21
167.5587499999999
 31
0.0
  0
LINE
  5
267
330
1F
100
AcDbEntity
  8
SLD-0
  6
Continuous
 62
   179
100
AcDbLine
 10
174.84856
 20
165.55875
 30
0.0
 11
132.84856
 21
165.55875
 31
0.0
  0
LINE
  5
268
330
1F
100
AcDbEntity
  8
SLD-0
  6
Continuous
 62
   179
100
AcDbLine
 10
130.84856
 20
167.5587499999999
 30
0.0
 11
130.84856
 21
189.5587499999999
 31
0.0
  0
LINE
  5
269
330
1F
100
AcDbEntity
  8
SLD-0
  6
Continuous
 62
   179
100
AcDbLine
 10
155.84856
 20
184.55875
 30
0.0
 11
151.84856
 21
184.55875
 31
0.0
  0
LINE
  5
26A
330
1F
100
AcDbEntity
  8
SLD-0
  6
Continuous
 62
   179
100
AcDbLine
 10
148.84856
 20
181.55875
 30
0.0
 11
148.84856
 21
173.55875
 31
0.0
  0
LINE
  5
26B
330
1F
100
AcDbEntity
  8
SLD-0
  6
Continuous
 62
   179
100
AcDbLine
 10
151.84856
 20
170.55875
 30
0.0
 11
155.84856
 21
170.55875
 31
0.0
  0
LINE
  5
26C
330
1F
100
AcDbEntity
  8
SLD-0
  6
Continuous
 62
   179
100
AcDbLine
 10
158.84856
 20
173.55875
 30
0.0
 11
158.84856
 21
181.55875
 31
0.0
  0
LINE
  5
26D
330
1F
100
AcDbEntity
  8
SLD-0
  6
Continuous
 62
   179
100
AcDbLine
 10
153.84856
 20
177.55875
 30
0.0
 11
153.84856
 21
179.55875
 31
0.0
  0
LINE
  5
26E
330
1F
100
AcDbEntity
  8
SLD-0
  6
Continuous
 62
   179
100
AcDbLine
 10
153.84856
 20
177.55875
 30
0.0
 11
151.84856
 21
177.55875
 31
0.0
  0
LINE
  5
26F
330
1F
100
AcDbEntity
  8
SLD-0
  6
Continuous
 62
   179
100
AcDbLine
 10
153.84856
 20
177.55875
 30
0.0
 11
153.84856
 21
175.55875
 31
0.0
  0
LINE
  5
270
330
1F
100
AcDbEntity
  8
SLD-0
  6
Continuous
 62
   179
100
AcDbLine
 10
153.84856
 20
177.55875
 30
0.0
 11
155.84856
 21
177.55875
 31
0.0
  0
LINE
  5
271
330
1F
100
AcDbEntity
  8
SLD-0
  6
Continuous
 62
   179
100
AcDbLine
 10
153.84856
 20
181.55875
 30
0.0
 11
153.84856
 21
182.85873
 31
0.0
  0
LINE
  5
272
330
1F
100
AcDbEntity
  8
SLD-0
  6
Continuous
 62
   179
100
AcDbLine
 10
149.84856
 20
177.55875
 30
0.0
 11
148.548561
 21
177.55875
 31
0.0
  0
LINE
  5
273
330
1F
100
AcDbEntity
  8
SLD-0
  6
Continuous
 62
   179
100
AcDbLine
 10
153.84856
 20
173.55875
 30
0.0
 11
153.84856
 21
172.2587399999999
 31
0.0
  0
LINE
  5
274
330
1F
100
AcDbEntity
  8
SLD-0
  6
Continuous
 62
   179
100
AcDbLine
 10
157.84856
 20
177.55875
 30
0.0
 11
159.14856
 21
177.55875
 31
0.0
  0
LINE
  5
275
330
1F
100
AcDbEntity
  8
SLD-0
  6
Continuous
 62
   179
100
AcDbLine
 10
193.375
 20
285.5
 30
0.0
 11
193.375
 21
11.5
 31
0.0
  0
LINE
  5
276
330
1F
100
AcDbEntity
  8
SLD-0
  6
Continuous
 62
   179
100
AcDbLine
 10
16.57499999999999
 20
11.5
 30
0.0
 11
193.375
 21
11.5
 31
0.0
  0
LINE
  5
277
330
1F
100
AcDbEntity
  8
SLD-0
  6
Continuous
 62
   179
100
AcDbLine
 10
16.57499999999999
 20
285.5
 30
0.0
 11
16.57499999999999
 21
11.5
 31
0.0
  0
LINE
  5
278
330
1F
100
AcDbEntity
  8
SLD-0
  6
Continuous
 62
   179
100
AcDbLine
 10
16.57499999999999
 20
285.5
 30
0.0
 11
193.375
 21
285.5
 31
0.0
  0
LINE
  5
279
330
1F
100
AcDbEntity
  8
SLD-0
  6
Continuous
 62
   179
100
AcDbLine
 10
16.375
 20
11.3
 30
0.0
 11
193.5749999999999
 21
11.3
 31
0.0
  0
LINE
  5
27A
330
1F
100
AcDbEntity
  8
SLD-0
  6
Continuous
 62
   179
100
AcDbLine
 10
193.5749999999999
 20
285.70001
 30
0.0
 11
193.5749999999999
 21
11.3
 31
0.0
  0
LINE
  5
27B
330
1F
100
AcDbEntity
  8
SLD-0
  6
Continuous
 62
   179
100
AcDbLine
 10
16.375
 20
285.70001
 30
0.0
 11
193.5749999999999
 21
285.70001
 31
0.0
  0
LINE
  5
27C
330
1F
100
AcDbEntity
  8
SLD-0
  6
Continuous
 62
   179
100
AcDbLine
 10
16.375
 20
285.70001
 30
0.0
 11
16.375
 21
11.3
 31
0.0
  0
LINE
  5
27D
330
1F
100
AcDbEntity
  8
SLD-0
  6
Continuous
 62
   179
100
AcDbLine
 10
131.775002
 20
50.0
 30
0.0
 11
131.775002
 21
11.5
 31
0.0
  0
LINE
  5
27E
330
1F
100
AcDbEntity
  8
SLD-0
  6
Continuous
 62
   179
100
AcDbLine
 10
131.775002
 20
24.0
 30
0.0
 11
193.375
 21
24.0
 31
0.0
  0
LINE
  5
27F
330
1F
100
AcDbEntity
  8
SLD-0
  6
Continuous
 62
   179
100
AcDbLine
 10
131.775002
 20
36.5
 30
0.0
 11
193.375
 21
36.5
 31
0.0
  0
LINE
  5
280
330
1F
100
AcDbEntity
  8
SLD-0
  6
Continuous
 62
   179
100
AcDbLine
 10
131.775002
 20
50.0
 30
0.0
 11
193.375
 21
50.0
 31
0.0
  0
LINE
  5
281
330
1F
100
AcDbEntity
  8
SLD-0
100
AcDbLine
 10
57.51134
 20
152.06505
 30
0.0
 11
53.51134
 21
153.06505
 31
0.0
  0
LINE
  5
282
330
1F
100
AcDbEntity
  8
SLD-0
100
AcDbLine
 10
53.51134
 20
153.06505
 30
0.0
 11
57.51134
 21
154.06505
 31
0.0
  0
LINE
  5
283
330
1F
100
AcDbEntity
  8
SLD-0
100
AcDbLine
 10
57.51134
 20
154.06505
 30
0.0
 11
57.51134
 21
152.06505
 31
0.0
  0
LINE
  5
284
330
1F
100
AcDbEntity
  8
SLD-0
100
AcDbLine
 10
57.51134
 20
203.8322299999999
 30
0.0
 11
53.51134
 21
204.83223
 31
0.0
  0
LINE
  5
285
330
1F
100
AcDbEntity
  8
SLD-0
100
AcDbLine
 10
53.51134
 20
204.83223
 30
0.0
 11
57.51134
 21
205.8322299999999
 31
0.0
  0
LINE
  5
286
330
1F
100
AcDbEntity
  8
SLD-0
100
AcDbLine
 10
57.51134
 20
205.8322299999999
 30
0.0
 11
57.51134
 21
203.8322299999999
 31
0.0
  0
ARC
  5
287
330
1F
100
AcDbEntity
  8
SLD-0
  6
Continuous
 62
   179
100
AcDbCircle
 10
74.51134
 20
189.5587499999999
 30
0.0
 40
2.0
100
AcDbArc
 50
0.0
 51
90.0
  0
ARC
  5
288
330
1F
100
AcDbEntity
  8
SLD-0
  6
Continuous
 62
   179
100
AcDbCircle
 10
74.51134
 20
167.5587499999999
 30
0.0
 40
2.0
100
AcDbArc
 50
270.0
 51
0.0
  0
ARC
  5
289
330
1F
100
AcDbEntity
  8
SLD-0
  6
Continuous
 62
   179
100
AcDbCircle
 10
32.51134
 20
167.5587499999999
 30
0.0
 40
2.0
100
AcDbArc
 50
180.0
 51
270.0
  0
ARC
  5
28A
330
1F
100
AcDbEntity
  8
SLD-0
  6
Continuous
 62
   179
100
AcDbCircle
 10
32.51134
 20
189.5587499999999
 30
0.0
 40
2.0
100
AcDbArc
 50
90.0
 51
180.0
  0
ARC
  5
28B
330
1F
100
AcDbEntity
  8
SLD-0
  6
Continuous
 62
   179
100
AcDbCircle
 10
53.51134
 20
177.55875
 30
0.0
 40
7.000005814576164
100
AcDbArc
 50
253.3984645904
 51
286.6015354095998
  0
ARC
  5
28C
330
1F
100
AcDbEntity
  8
SLD-0
  6
Continuous
 62
   179
100
AcDbCircle
 10
53.51134
 20
177.55875
 30
0.0
 40
6.999999999999997
100
AcDbArc
 50
305.4832
 51
345.94477
  0
ARC
  5
28D
330
1F
100
AcDbEntity
  8
SLD-0
  6
Continuous
 62
   179
100
AcDbCircle
 10
53.51134
 20
177.55875
 30
0.0
 40
7.000000000000017
100
AcDbArc
 50
31.908984
 51
65.974518
  0
ARC
  5
28E
330
1F
100
AcDbEntity
  8
SLD-0
  6
Continuous
 62
   179
100
AcDbCircle
 10
53.51134
 20
177.55875
 30
0.0
 40
6.99999623142756
100
AcDbArc
 50
73.39844120440002
 51
106.6015587956
  0
ARC
  5
28F
330
1F
100
AcDbEntity
  8
SLD-0
  6
Continuous
 62
   179
100
AcDbCircle
 10
53.51134
 20
177.55875
 30
0.0
 40
6.999999999999997
100
AcDbArc
 50
114.02548
 51
148.09101
  0
CIRCLE
  5
290
330
1F
100
AcDbEntity
  8
SLD-0
  6
Continuous
 62
   179
100
AcDbCircle
 10
53.51134
 20
177.55875
 30
0.0
 40
6.0
  0
ARC
  5
291
330
1F
100
AcDbEntity
  8
SLD-0
  6
Continuous
 62
   179
100
AcDbCircle
 10
53.51134
 20
177.55875
 30
0.0
 40
6.999999999999995
100
AcDbArc
 50
194.05523
 51
234.5168
  0
CIRCLE
  5
292
330
1F
100
AcDbEntity
  8
SLD-0
  6
Continuous
 62
   179
100
AcDbCircle
 10
53.51134
 20
177.55875
 30
0.0
 40
3.299999999999997
  0
ARC
  5
293
330
1F
100
AcDbEntity
  8
SLD-0
  6
Continuous
 62
   179
100
AcDbCircle
 10
132.84856
 20
189.5587499999999
 30
0.0
 40
2.0
100
AcDbArc
 50
90.0
 51
180.0
  0
ARC
  5
294
330
1F
100
AcDbEntity
  8
SLD-0
  6
Continuous
 62
   179
100
AcDbCircle
 10
174.84856
 20
189.5587499999999
 30
0.0
 40
2.0
100
AcDbArc
 50
0.0
 51
90.0
  0
ARC
  5
295
330
1F
100
AcDbEntity
  8
SLD-0
  6
Continuous
 62
   179
100
AcDbCircle
 10
174.84856
 20
167.5587499999999
 30
0.0
 40
2.0
100
AcDbArc
 50
270.0
 51
0.0
  0
ARC
  5
296
330
1F
100
AcDbEntity
  8
SLD-0
  6
Continuous
 62
   179
100
AcDbCircle
 10
132.84856
 20
167.5587499999999
 30
0.0
 40
2.0
100
AcDbArc
 50
180.0
 51
270.0
  0
ARC
  5
297
330
1F
100
AcDbEntity
  8
SLD-0
  6
Continuous
 62
   179
100
AcDbCircle
 10
155.84856
 20
181.55875
 30
0.0
 40
3.0
100
AcDbArc
 50
0.0
 51
90.0
  0
ARC
  5
298
330
1F
100
AcDbEntity
  8
SLD-0
  6
Continuous
 62
   179
100
AcDbCircle
 10
151.84856
 20
181.55875
 30
0.0
 40
3.0
100
AcDbArc
 50
90.0
 51
180.0
  0
ARC
  5
299
330
1F
100
AcDbEntity
  8
SLD-0
  6
Continuous
 62
   179
100
AcDbCircle
 10
151.84856
 20
173.55875
 30
0.0
 40
3.0
100
AcDbArc
 50
180.0
 51
270.0
  0
ARC
  5
29A
330
1F
100
AcDbEntity
  8
SLD-0
  6
Continuous
 62
   179
100
AcDbCircle
 10
155.84856
 20
173.55875
 30
0.0
 40
3.0
100
AcDbArc
 50
270.0
 51
0.0
  0
CIRCLE
  5
29B
330
1F
100
AcDbEntity
  8
SLD-0
  6
Continuous
 62
   179
100
AcDbCircle
 10
153.84856
 20
177.55875
 30
0.0
 40
3.300000000000011
  0
POINT
  5
29C
330
1F
100
AcDbEntity
  8
SLD-0
100
AcDbPoint
 10
16.57499999999999
 20
285.5
 30
0.0
  0
POINT
  5
29D
330
1F
100
AcDbEntity
  8
SLD-0
100
AcDbPoint
 10
16.57499999999999
 20
11.5
 30
0.0
  0
POINT
  5
29E
330
1F
100
AcDbEntity
  8
SLD-0
100
AcDbPoint
 10
193.375
 20
11.5
 30
0.0
  0
POINT
  5
29F
330
1F
100
AcDbEntity
  8
SLD-0
100
AcDbPoint
 10
193.375
 20
285.5
 30
0.0
  0
MTEXT
  5
2A1
330
1F
100
AcDbEntity
  8
SLD-0
 62
     7
100
AcDbMText
 10
92.30197
 20
102.1225614668
 30
0.0
 40
3.174999999999998
 41
0.0
 71
     1
 72
     1
  1
断面図　Ａ－Ａ
  7
SLDTEXTSTYLE1
 73
     1
 44
1.0
  0
MTEXT
  5
2A3
330
1F
100
AcDbEntity
  8
SLD-0
 62
     7
100
AcDbMText
 10
60.21501999999999
 20
206.7536992496
 30
0.0
 40
4.8000002
 41
0.0
 71
     1
 72
     1
  1
Ａ
  7
SLDTEXTSTYLE2
 73
     1
 44
1.0
  0
MTEXT
  5
2A4
330
1F
100
AcDbEntity
  8
SLD-0
 62
     7
100
AcDbMText
 10
61.12515
 20
154.6494492496
 30
0.0
 40
4.8000002
 41
0.0
 71
     1
 72
     1
  1
Ａ
  7
SLDTEXTSTYLE2
 73
     1
 44
1.0
  0
MTEXT
  5
2A6
330
1F
100
AcDbEntity
  8
SLD-0
 62
     7
100
AcDbMText
 10
136.612042
 20
44.4512162496
 30
0.0
 40
4.8000002
 41
0.0
 71
     1
 72
     1
  1
マイクロミニシリンダー用当板(白)
  7
SLDTEXTSTYLE3
 73
     1
 44
1.0
  0
MTEXT
  5
2A8
330
1F
100
AcDbEntity
  8
SLD-0
 62
     7
100
AcDbMText
 10
147.362162
 20
31.5452732496
 30
0.0
 40
4.8000002
 41
0.0
 71
     1
 72
     1
  1
ＣＰＵＭ－０１（ＳＲ）
  7
SLDTEXTSTYLE4
 73
     1
 44
1.0
  0
MTEXT
  5
2AA
330
1F
100
AcDbEntity
  8
SLD-0
 62
     7
100
AcDbMText
 10
149.2474699999999
 20
18.5750114496
 30
0.0
 40
4.8000002
 41
0.0
 71
     1
 72
     1
  1
　023113
  7
SLDTEXTSTYLE5
 73
     1
 44
1.0
  0
HATCH
  5
2AB
330
1F
100
AcDbEntity
  8
0
  6
Continuous
 62
   179
100
AcDbHatch
 10
0.0
 20
0.0
 30
0.0
210
0.0
220
0.0
230
1.0
  2
ANSI31
 70
     0
 71
     0
 91
        1
 92
        0
 93
        3
 72
     1
 10
53.51133999999999
 20
153.06505
 11
57.51134
 21
154.06505
 72
     1
 10
57.51134
 20
154.06505
 11
57.51134
 21
152.06505
 72
     1
 10
57.51134
 20
152.06505
 11
53.51133999999999
 21
153.06505
 97
        0
 75
     0
 76
     1
 52
0.0
 41
1.0
 77
     0
 78
     1
 53
45.00000209717174
 43
0.0
 44
0.0
 45
-2.245064112442359
 46
2.245063948092213
 79
     0
 98
        1
 10
0.0
 20
0.0
  0
HATCH
  5
2AC
330
1F
100
AcDbEntity
  8
0
  6
Continuous
 62
   179
100
AcDbHatch
 10
0.0
 20
0.0
 30
0.0
210
0.0
220
0.0
230
1.0
  2
ANSI31
 70
     0
 71
     0
 91
        1
 92
        0
 93
        3
 72
     1
 10
53.51133999999999
 20
204.83223
 11
57.51134
 21
205.8322299999999
 72
     1
 10
57.51134
 20
205.8322299999999
 11
57.51134
 21
203.8322299999999
 72
     1
 10
57.51134
 20
203.8322299999999
 11
53.51133999999999
 21
204.83223
 97
        0
 75
     0
 76
     1
 52
0.0
 41
1.0
 77
     0
 78
     1
 53
45.00000209717174
 43
0.0
 44
0.0
 45
-2.245064112442359
 46
2.245063948092213
 79
     0
 98
        1
 10
0.0
 20
0.0
  0
ENDSEC
  0
SECTION
  2
OBJECTS
  0
DICTIONARY
  5
C
330
0
100
AcDbDictionary
281
     1
  3
ACAD_GROUP
350
D
  3
ACAD_LAYOUT
350
1A
  3
ACAD_MLINESTYLE
350
17
  3
ACAD_PLOTSETTINGS
350
19
  3
ACAD_PLOTSTYLENAME
350
E
  0
DICTIONARY
  5
D
102
{ACAD_REACTORS
330
C
102
}
330
C
100
AcDbDictionary
281
     1
  0
DICTIONARY
  5
1A
102
{ACAD_REACTORS
330
C
102
}
330
C
100
AcDbDictionary
281
     1
  3
Layout1
350
1E
  3
Layout2
350
26
  3
Model
350
22
  0
DICTIONARY
  5
17
102
{ACAD_REACTORS
330
C
102
}
330
C
100
AcDbDictionary
281
     1
  3
Standard
350
18
  0
DICTIONARY
  5
19
102
{ACAD_REACTORS
330
C
102
}
330
C
100
AcDbDictionary
281
     1
  0
ACDBDICTIONARYWDFLT
  5
E
102
{ACAD_REACTORS
330
C
102
}
330
C
100
AcDbDictionary
281
     1
  3
Normal
350
F
100
AcDbDictionaryWithDefault
340
F
  0
LAYOUT
  5
1E
102
{ACAD_REACTORS
330
1A
102
}
330
1A
100
AcDbPlotSettings
  1

  2

  4

  6

 40
0.0
 41
0.0
 42
0.0
 43
0.0
 44
0.0
 45
0.0
 46
0.0
 47
0.0
 48
0.0
 49
0.0
140
0.0
141
0.0
142
1.0
143
1.0
 70
   688
 72
     0
 73
     0
 74
     5
  7

 75
    16
147
1.0
148
0.0
149
0.0
100
AcDbLayout
  1
Layout1
 70
     1
 71
     1
 10
0.0
 20
0.0
 11
420.0
 21
297.0
 12
0.0
 22
0.0
 32
0.0
 14
1.000000000000000E+20
 24
1.000000000000000E+20
 34
1.000000000000000E+20
 15
-1.000000000000000E+20
 25
-1.000000000000000E+20
 35
-1.000000000000000E+20
146
0.0
 13
0.0
 23
0.0
 33
0.0
 16
1.0
 26
0.0
 36
0.0
 17
0.0
 27
1.0
 37
0.0
 76
     0
330
1B
  0
LAYOUT
  5
26
102
{ACAD_REACTORS
330
1A
102
}
330
1A
100
AcDbPlotSettings
  1

  2

  4

  6

 40
0.0
 41
0.0
 42
0.0
 43
0.0
 44
0.0
 45
0.0
 46
0.0
 47
0.0
 48
0.0
 49
0.0
140
0.0
141
0.0
142
1.0
143
1.0
 70
   688
 72
     0
 73
     0
 74
     5
  7

 75
    16
147
1.0
148
0.0
149
0.0
100
AcDbLayout
  1
Layout2
 70
     1
 71
     2
 10
0.0
 20
0.0
 11
0.0
 21
0.0
 12
0.0
 22
0.0
 32
0.0
 14
0.0
 24
0.0
 34
0.0
 15
0.0
 25
0.0
 35
0.0
146
0.0
 13
0.0
 23
0.0
 33
0.0
 16
1.0
 26
0.0
 36
0.0
 17
0.0
 27
1.0
 37
0.0
 76
     0
330
23
  0
LAYOUT
  5
22
102
{ACAD_REACTORS
330
1A
102
}
330
1A
100
AcDbPlotSettings
  1

  2

  4

  6

 40
0.0
 41
0.0
 42
0.0
 43
0.0
 44
0.0
 45
0.0
 46
0.0
 47
0.0
 48
0.0
 49
0.0
140
0.0
141
0.0
142
1.0
143
1.0
 70
  1712
 72
     0
 73
     0
 74
     0
  7

 75
     0
147
1.0
148
0.0
149
0.0
100
AcDbLayout
  1
Model
 70
     1
 71
     0
 10
0.0
 20
0.0
 11
0.0
 21
0.0
 12
0.0
 22
0.0
 32
0.0
 14
0.0
 24
0.0
 34
0.0
 15
210.0
 25
297.0
 35
0.0
146
0.0
 13
0.0
 23
0.0
 33
0.0
 16
1.0
 26
0.0
 36
0.0
 17
0.0
 27
1.0
 37
0.0
 76
     0
330
1F
  0
MLINESTYLE
  5
18
102
{ACAD_REACTORS
330
17
102
}
330
17
100
AcDbMlineStyle
  2
STANDARD
 70
     0
  3

 62
   256
 51
90.0
 52
90.0
 71
     2
 49
0.5
 62
   256
  6
BYLAYER
 49
-0.5
 62
   256
  6
BYLAYER
  0
ACDBPLACEHOLDER
  5
F
102
{ACAD_REACTORS
330
E
102
}
330
E
  0
ENDSEC
  0
EOF
