  0
SECTION
  2
HEADER
  9
$ACADVER
  1
AC1015
  9
$ACADMAINTVER
 70
     6
  9
$DWGCODEPAGE
  3
DOS932
  9
$INSBASE
 10
0.0
 20
0.0
 30
0.0
  9
$EXTMIN
 10
0.0
 20
0.0
 30
0.0
  9
$EXTMAX
 10
44.0
 20
34.0
 30
0.0
  9
$LIMMIN
 10
0.0
 20
0.0
  9
$LIMMAX
 10
44.0
 20
34.0
  9
$ORTHOMODE
 70
     0
  9
$REGENMODE
 70
     1
  9
$FILLMODE
 70
     1
  9
$QTEXTMODE
 70
     0
  9
$MIRRTEXT
 70
     1
  9
$LTSCALE
 40
1.0
  9
$ATTMODE
 70
     1
  9
$TEXTSIZE
 40
0.1377952756
  9
$TRACEWID
 40
0.05
  9
$TEXTSTYLE
  7
Standard
  9
$CLAYER
  8
0
  9
$CELTYPE
  6
ByLayer
  9
$CECOLOR
 62
   256
  9
$CELTSCALE
 40
1.0
  9
$DISPSILH
 70
     0
  9
$DIMSCALE
 40
1.0
  9
$DIMASZ
 40
0.13
  9
$DIMEXO
 40
0.0393700787
  9
$DIMDLI
 40
0.38
  9
$DIMRND
 40
0.0
  9
$DIMDLE
 40
0.0
  9
$DIMEXE
 40
0.0393700787
  9
$DIMTP
 40
0.0
  9
$DIMTM
 40
0.0
  9
$DIMTXT
 40
0.1377952756
  9
$DIMCEN
 40
0.09
  9
$DIMTSZ
 40
0.0
  9
$DIMTOL
 70
     0
  9
$DIMLIM
 70
     0
  9
$DIMTIH
 70
     1
  9
$DIMTOH
 70
     1
  9
$DIMSE1
 70
     0
  9
$DIMSE2
 70
     0
  9
$DIMTAD
 70
     1
  9
$DIMZIN
 70
     1
  9
$DIMBLK
  1

  9
$DIMASO
 70
     1
  9
$DIMSHO
 70
     1
  9
$DIMPOST
  1

  9
$DIMAPOST
  1

  9
$DIMALT
 70
     0
  9
$DIMALTD
 70
     2
  9
$DIMALTF
 40
25.4
  9
$DIMLFAC
 40
1.0
  9
$DIMTOFL
 70
     0
  9
$DIMTVP
 40
0.0
  9
$DIMTIX
 70
     0
  9
$DIMSOXD
 70
     0
  9
$DIMSAH
 70
     0
  9
$DIMBLK1
  1

  9
$DIMBLK2
  1

  9
$DIMSTYLE
  2
Standard
  9
$DIMCLRD
 70
     0
  9
$DIMCLRE
 70
     0
  9
$DIMCLRT
 70
     0
  9
$DIMTFAC
 40
1.0
  9
$DIMGAP
 40
0.06
  9
$DIMJUST
 70
     0
  9
$DIMSD1
 70
     0
  9
$DIMSD2
 70
     0
  9
$DIMTOLJ
 70
     1
  9
$DIMTZIN
 70
     1
  9
$DIMALTZ
 70
     0
  9
$DIMALTTZ
 70
     0
  9
$DIMUPT
 70
     0
  9
$DIMDEC
 70
     3
  9
$DIMTDEC
 70
     3
  9
$DIMALTU
 70
     2
  9
$DIMALTTD
 70
     2
  9
$DIMTXSTY
  7
Standard
  9
$DIMAUNIT
 70
     0
  9
$DIMADEC
 70
     3
  9
$DIMALTRND
 40
0.0
  9
$DIMAZIN
 70
     0
  9
$DIMDSEP
 70
    46
  9
$DIMATFIT
 70
     3
  9
$DIMFRAC
 70
     0
  9
$DIMLDRBLK
  1

  9
$DIMLUNIT
 70
     2
  9
$DIMLWD
 70
    -2
  9
$DIMLWE
 70
    -2
  9
$DIMTMOVE
 70
     0
  9
$LUNITS
 70
     2
  9
$LUPREC
 70
     4
  9
$SKETCHINC
 40
0.1
  9
$FILLETRAD
 40
0.5
  9
$AUNITS
 70
     0
  9
$AUPREC
 70
     0
  9
$MENU
  1
.
  9
$ELEVATION
 40
0.0
  9
$PELEVATION
 40
0.0
  9
$THICKNESS
 40
0.0
  9
$LIMCHECK
 70
     0
  9
$CHAMFERA
 40
0.5
  9
$CHAMFERB
 40
0.5
  9
$CHAMFERC
 40
1.0
  9
$CHAMFERD
 40
0.0
  9
$SKPOLY
 70
     0
  9
$TDCREATE
 40
2457064.72780235
  9
$TDUCREATE
 40
2457064.35280235
  9
$TDUPDATE
 40
2457064.727810949
  9
$TDUUPDATE
 40
2457064.352810949
  9
$TDINDWG
 40
0.0000000116
  9
$TDUSRTIMER
 40
0.0000000116
  9
$USRTIMER
 70
     1
  9
$ANGBASE
 50
0.0
  9
$ANGDIR
 70
     0
  9
$PDMODE
 70
     0
  9
$PDSIZE
 40
-1.0
  9
$PLINEWID
 40
0.0
  9
$SPLFRAME
 70
     0
  9
$SPLINETYPE
 70
     6
  9
$SPLINESEGS
 70
     8
  9
$HANDSEED
  5
410
  9
$SURFTAB1
 70
     6
  9
$SURFTAB2
 70
     6
  9
$SURFTYPE
 70
     6
  9
$SURFU
 70
     6
  9
$SURFV
 70
     6
  9
$UCSBASE
  2

  9
$UCSNAME
  2

  9
$UCSORG
 10
0.0
 20
0.0
 30
0.0
  9
$UCSXDIR
 10
1.0
 20
0.0
 30
0.0
  9
$UCSYDIR
 10
0.0
 20
1.0
 30
0.0
  9
$UCSORTHOREF
  2

  9
$UCSORTHOVIEW
 70
     0
  9
$UCSORGTOP
 10
0.0
 20
0.0
 30
0.0
  9
$UCSORGBOTTOM
 10
0.0
 20
0.0
 30
0.0
  9
$UCSORGLEFT
 10
0.0
 20
0.0
 30
0.0
  9
$UCSORGRIGHT
 10
0.0
 20
0.0
 30
0.0
  9
$UCSORGFRONT
 10
0.0
 20
0.0
 30
0.0
  9
$UCSORGBACK
 10
0.0
 20
0.0
 30
0.0
  9
$PUCSBASE
  2

  9
$PUCSNAME
  2

  9
$PUCSORG
 10
0.0
 20
0.0
 30
0.0
  9
$PUCSXDIR
 10
1.0
 20
0.0
 30
0.0
  9
$PUCSYDIR
 10
0.0
 20
1.0
 30
0.0
  9
$PUCSORTHOREF
  2

  9
$PUCSORTHOVIEW
 70
     0
  9
$PUCSORGTOP
 10
0.0
 20
0.0
 30
0.0
  9
$PUCSORGBOTTOM
 10
0.0
 20
0.0
 30
0.0
  9
$PUCSORGLEFT
 10
0.0
 20
0.0
 30
0.0
  9
$PUCSORGRIGHT
 10
0.0
 20
0.0
 30
0.0
  9
$PUCSORGFRONT
 10
0.0
 20
0.0
 30
0.0
  9
$PUCSORGBACK
 10
0.0
 20
0.0
 30
0.0
  9
$USERI1
 70
     0
  9
$USERI2
 70
     0
  9
$USERI3
 70
     0
  9
$USERI4
 70
     0
  9
$USERI5
 70
     0
  9
$USERR1
 40
0.0
  9
$USERR2
 40
0.0
  9
$USERR3
 40
0.0
  9
$USERR4
 40
0.0
  9
$USERR5
 40
0.0
  9
$WORLDVIEW
 70
     1
  9
$SHADEDGE
 70
     3
  9
$SHADEDIF
 70
    70
  9
$TILEMODE
 70
     0
  9
$MAXACTVP
 70
    64
  9
$PINSBASE
 10
0.0
 20
0.0
 30
0.0
  9
$PLIMCHECK
 70
     0
  9
$PEXTMIN
 10
0.0
 20
0.0
 30
0.0
  9
$PEXTMAX
 10
44.0
 20
34.0
 30
0.0
  9
$PLIMMIN
 10
0.0
 20
0.0
  9
$PLIMMAX
 10
44.0
 20
34.0
  9
$UNITMODE
 70
     0
  9
$VISRETAIN
 70
     1
  9
$PLINEGEN
 70
     0
  9
$PSLTSCALE
 70
     1
  9
$TREEDEPTH
 70
  3020
  9
$CMLSTYLE
  2
Standard
  9
$CMLJUST
 70
     0
  9
$CMLSCALE
 40
1.0
  9
$PROXYGRAPHICS
 70
     1
  9
$MEASUREMENT
 70
     0
  9
$CELWEIGHT
370
    -1
  9
$ENDCAPS
280
     0
  9
$JOINSTYLE
280
     0
  9
$LWDISPLAY
290
     1
  9
$INSUNITS
 70
     1
  9
$HYPERLINKBASE
  1

  9
$STYLESHEET
  1

  9
$XEDIT
290
     1
  9
$CEPSNTYPE
380
     0
  9
$PSTYLEMODE
290
     1
  9
$FINGERPRINTGUID
  2
{3F0C9B29-456D-4B4C-983D-5AB935D2441E}
  9
$VERSIONGUID
  2
{FAEB1C32-E019-11D5-929B-00C0DF256EC4}
  9
$EXTNAMES
290
     1
  9
$PSVPSCALE
 40
0.0
  9
$OLESTARTUP
290
     0
  0
ENDSEC
  0
SECTION
  2
CLASSES
  0
CLASS
  1
ACDBDICTIONARYWDFLT
  2
AcDbDictionaryWithDefault
  3
ObjectDBX Classes
 90
        0
280
     0
281
     0
  0
CLASS
  1
VISUALSTYLE
  2
AcDbVisualStyle
  3
ObjectDBX Classes
 90
     4095
280
     0
281
     0
  0
CLASS
  1
MATERIAL
  2
AcDbMaterial
  3
ObjectDBX Classes
 90
     1153
280
     0
281
     0
  0
CLASS
  1
ACDBPLACEHOLDER
  2
AcDbPlaceHolder
  3
ObjectDBX Classes
 90
        0
280
     0
281
     0
  0
CLASS
  1
LAYOUT
  2
AcDbLayout
  3
ObjectDBX Classes
 90
        0
280
     0
281
     0
  0
ENDSEC
  0
SECTION
  2
TABLES
  0
TABLE
  2
VPORT
  5
8
330
0
100
AcDbSymbolTable
 70
     1
  0
VPORT
  5
29
330
8
100
AcDbSymbolTableRecord
100
AcDbViewportTableRecord
  2
*Active
 70
     0
 10
0.0
 20
0.0
 11
1.0
 21
1.0
 12
22.0
 22
17.0
 13
0.0
 23
0.0
 14
0.5
 24
0.5
 15
0.5
 25
0.5
 16
0.0
 26
0.0
 36
1.0
 17
0.0
 27
0.0
 37
0.0
 40
34.0
 41
1.2941176471
 42
50.0
 43
0.0
 44
0.0
 50
0.0
 51
0.0
 71
     0
 72
  2000
 73
     1
 74
     3
 75
     0
 76
     0
 77
     0
 78
     0
281
     0
 65
     1
110
0.0
120
0.0
130
0.0
111
1.0
121
0.0
131
0.0
112
0.0
122
1.0
132
0.0
 79
     0
146
0.0
  0
ENDTAB
  0
TABLE
  2
LTYPE
  5
5
330
0
100
AcDbSymbolTable
 70
     6
  0
LTYPE
  5
14
330
5
100
AcDbSymbolTableRecord
100
AcDbLinetypeTableRecord
  2
ByBlock
 70
     0
  3

 72
    65
 73
     0
 40
0.0
  0
LTYPE
  5
15
330
5
100
AcDbSymbolTableRecord
100
AcDbLinetypeTableRecord
  2
ByLayer
 70
     0
  3

 72
    65
 73
     0
 40
0.0
  0
LTYPE
  5
16
330
5
100
AcDbSymbolTableRecord
100
AcDbLinetypeTableRecord
  2
Continuous
 70
     0
  3
Solid line
 72
    65
 73
     0
 40
0.0
  0
LTYPE
  5
3F
330
5
100
AcDbSymbolTableRecord
100
AcDbLinetypeTableRecord
  2
HIDDEN
 70
     0
  3
Hidden __ __ __ __ __ __ __ __ __ __ __ __ __ __
 72
    65
 73
     2
 40
0.075
 49
0.05
 74
     0
 49
-0.025
 74
     0
  0
LTYPE
  5
40
330
5
100
AcDbSymbolTableRecord
100
AcDbLinetypeTableRecord
  2
PHANTOM
 70
     0
  3
Phantom ______  __  __  ______  __  __  ______
 72
    65
 73
     6
 40
0.5
 49
0.25
 74
     0
 49
-0.05
 74
     0
 49
0.05
 74
     0
 49
-0.05
 74
     0
 49
0.05
 74
     0
 49
-0.05
 74
     0
  0
LTYPE
  5
41
330
5
100
AcDbSymbolTableRecord
100
AcDbLinetypeTableRecord
  2
CENTER
 70
     0
  3
Center ____ _ ____ _ ____ _ ____ _ ____ _ ____
 72
    65
 73
     4
 40
0.4
 49
0.25
 74
     0
 49
-0.05
 74
     0
 49
0.05
 74
     0
 49
-0.05
 74
     0
  0
LTYPE
  5
42
330
5
100
AcDbSymbolTableRecord
100
AcDbLinetypeTableRecord
  2
CENTERX2
 70
     0
  3
Center (2x) ________  __  ________  __  _____
 72
    65
 73
     4
 40
0.8
 49
0.5
 74
     0
 49
-0.1
 74
     0
 49
0.1
 74
     0
 49
-0.1
 74
     0
  0
LTYPE
  5
43
330
5
100
AcDbSymbolTableRecord
100
AcDbLinetypeTableRecord
  2
DOT2
 70
     0
  3
Dot (.5x) ........................................
 72
    65
 73
     2
 40
0.025
 49
0.0
 74
     0
 49
-0.025
 74
     0
  0
ENDTAB
  0
TABLE
  2
LAYER
  5
2
330
0
100
AcDbSymbolTable
 70
     3
  0
LAYER
  5
10
330
2
100
AcDbSymbolTableRecord
100
AcDbLayerTableRecord
  2
0
 70
     0
 62
     7
  6
Continuous
370
    -3
390
F
  0
LAYER
  5
44
330
2
100
AcDbSymbolTableRecord
100
AcDbLayerTableRecord
  2
SLD-0
 70
     0
 62
   179
  6
Continuous
370
    -3
390
F
  0
LAYER
  5
45
330
2
100
AcDbSymbolTableRecord
100
AcDbLayerTableRecord
  2
LAYER0016
 70
     0
 62
  -179
  6
Continuous
370
    -3
390
F
  0
ENDTAB
  0
TABLE
  2
STYLE
  5
3
330
0
100
AcDbSymbolTable
 70
     8
  0
STYLE
  5
11
330
3
100
AcDbSymbolTableRecord
100
AcDbTextStyleTableRecord
  2
Standard
 70
     0
 40
0.0
 41
1.0
 50
0.0
 71
     0
 42
0.1377952756
  3
txt
  4
bigfont
  0
STYLE
  5
4D
330
3
100
AcDbSymbolTableRecord
100
AcDbTextStyleTableRecord
  2
SLDTEXTSTYLE0
 70
     0
 40
0.0
 41
0.7259259259
 50
0.0
 71
     0
 42
0.2
  3
TXT
  4
bigfont
  0
STYLE
  5
61
330
3
100
AcDbSymbolTableRecord
100
AcDbTextStyleTableRecord
  2
SLDTEXTSTYLE1
 70
     0
 40
0.0
 41
0.7550561798
 50
0.0
 71
     0
 42
0.2
  3
TXT
  4
bigfont
  0
STYLE
  5
E3
330
3
100
AcDbSymbolTableRecord
100
AcDbTextStyleTableRecord
  2
SLDTEXTSTYLE2
 70
     0
 40
0.0
 41
0.4722891566
 50
0.0
 71
     0
 42
0.2
  3
TXT
  4
bigfont
  0
STYLE
  5
F0
330
3
100
AcDbSymbolTableRecord
100
AcDbTextStyleTableRecord
  2
SLDTEXTSTYLE3
 70
     0
 40
0.0
 41
0.5052631579
 50
0.0
 71
     0
 42
0.2
  3
TXT
  4
bigfont
  0
STYLE
  5
100
330
3
100
AcDbSymbolTableRecord
100
AcDbTextStyleTableRecord
  2
SLDTEXTSTYLE4
 70
     0
 40
0.0
 41
0.8129032258
 50
0.0
 71
     0
 42
0.2
  3
TXT
  4
bigfont
  0
STYLE
  5
120
330
3
100
AcDbSymbolTableRecord
100
AcDbTextStyleTableRecord
  2
SLDTEXTSTYLE5
 70
     0
 40
0.0
 41
0.6222222222
 50
0.0
 71
     0
 42
0.2
  3
TXT
  4
bigfont
  0
STYLE
  5
40D
330
3
100
AcDbSymbolTableRecord
100
AcDbTextStyleTableRecord
  2
SLDTEXTSTYLE6
 70
     0
 40
0.0
 41
0.4540540541
 50
0.0
 71
     0
 42
0.2
  3
TXT
  4
bigfont
  0
ENDTAB
  0
TABLE
  2
VIEW
  5
6
330
0
100
AcDbSymbolTable
 70
     0
  0
ENDTAB
  0
TABLE
  2
UCS
  5
7
330
0
100
AcDbSymbolTable
 70
     0
  0
ENDTAB
  0
TABLE
  2
APPID
  5
9
330
0
100
AcDbSymbolTable
 70
     1
  0
APPID
  5
12
330
9
100
AcDbSymbolTableRecord
100
AcDbRegAppTableRecord
  2
ACAD
 70
     0
  0
ENDTAB
  0
TABLE
  2
DIMSTYLE
  5
A
330
0
100
AcDbSymbolTable
 70
     1
100
AcDbDimStyleTable
  0
DIMSTYLE
105
27
330
A
100
AcDbSymbolTableRecord
100
AcDbDimStyleTableRecord
  2
Standard
 70
     0
178
     0
340
11
  0
ENDTAB
  0
TABLE
  2
BLOCK_RECORD
  5
1
330
0
100
AcDbSymbolTable
 70
    96
  0
BLOCK_RECORD
  5
1F
330
1
100
AcDbSymbolTableRecord
100
AcDbBlockTableRecord
  2
*Model_Space
340
22
  0
BLOCK_RECORD
  5
1B
330
1
100
AcDbSymbolTableRecord
100
AcDbBlockTableRecord
  2
*Paper_Space
340
1E
  0
BLOCK_RECORD
  5
23
330
1
100
AcDbSymbolTableRecord
100
AcDbBlockTableRecord
  2
*Paper_Space0
340
26
  0
BLOCK_RECORD
  5
46
330
1
100
AcDbSymbolTableRecord
100
AcDbBlockTableRecord
  2
DC_GROUP_74
340
0
102
{BLKREFS
331
405
102
}
  0
BLOCK_RECORD
  5
4F
330
1
100
AcDbSymbolTableRecord
100
AcDbBlockTableRecord
  2
DC_GROUP_75
340
0
102
{BLKREFS
331
402
102
}
  0
BLOCK_RECORD
  5
5B
330
1
100
AcDbSymbolTableRecord
100
AcDbBlockTableRecord
  2
DA_IMAGEDIMGROUP_29
340
0
102
{BLKREFS
331
403
102
}
  0
BLOCK_RECORD
  5
63
330
1
100
AcDbSymbolTableRecord
100
AcDbBlockTableRecord
  2
_OPEN30_60
340
0
102
{BLKREFS
331
2E3
102
}
  0
BLOCK_RECORD
  5
69
330
1
100
AcDbSymbolTableRecord
100
AcDbBlockTableRecord
  2
_OPEN30_61
340
0
102
{BLKREFS
331
2E4
102
}
  0
BLOCK_RECORD
  5
6F
330
1
100
AcDbSymbolTableRecord
100
AcDbBlockTableRecord
  2
DC_GROUP_77
340
0
102
{BLKREFS
331
404
102
}
  0
BLOCK_RECORD
  5
82
330
1
100
AcDbSymbolTableRecord
100
AcDbBlockTableRecord
  2
DC_GROUP_78
340
0
102
{BLKREFS
331
3FF
102
}
  0
BLOCK_RECORD
  5
95
330
1
100
AcDbSymbolTableRecord
100
AcDbBlockTableRecord
  2
DC_GROUP_79
340
0
102
{BLKREFS
331
401
102
}
  0
BLOCK_RECORD
  5
9A
330
1
100
AcDbSymbolTableRecord
100
AcDbBlockTableRecord
  2
DC_GROUP_80
340
0
102
{BLKREFS
331
400
102
}
  0
BLOCK_RECORD
  5
AD
330
1
100
AcDbSymbolTableRecord
100
AcDbBlockTableRecord
  2
DC_GROUP_81
340
0
102
{BLKREFS
331
3FE
102
}
  0
BLOCK_RECORD
  5
C0
330
1
100
AcDbSymbolTableRecord
100
AcDbBlockTableRecord
  2
DC_GROUP_82
340
0
102
{BLKREFS
331
406
102
}
  0
BLOCK_RECORD
  5
DE
330
1
100
AcDbSymbolTableRecord
100
AcDbBlockTableRecord
  2
DC_GROUP_83
340
0
102
{BLKREFS
331
407
102
}
  0
BLOCK_RECORD
  5
E5
330
1
100
AcDbSymbolTableRecord
100
AcDbBlockTableRecord
  2
_OPEN30_68
340
0
102
{BLKREFS
331
2E5
102
}
  0
BLOCK_RECORD
  5
EB
330
1
100
AcDbSymbolTableRecord
100
AcDbBlockTableRecord
  2
DC_GROUP_84
340
0
102
{BLKREFS
331
408
102
}
  0
BLOCK_RECORD
  5
F2
330
1
100
AcDbSymbolTableRecord
100
AcDbBlockTableRecord
  2
_OPEN30_69
340
0
102
{BLKREFS
331
2E6
102
}
  0
BLOCK_RECORD
  5
F8
330
1
100
AcDbSymbolTableRecord
100
AcDbBlockTableRecord
  2
DA_IMAGEDIMGROUP_30
340
0
102
{BLKREFS
331
409
102
}
  0
BLOCK_RECORD
  5
102
330
1
100
AcDbSymbolTableRecord
100
AcDbBlockTableRecord
  2
_OPEN30_62
340
0
102
{BLKREFS
331
2E7
102
}
  0
BLOCK_RECORD
  5
108
330
1
100
AcDbSymbolTableRecord
100
AcDbBlockTableRecord
  2
_OPEN30_63
340
0
102
{BLKREFS
331
2E8
102
}
  0
BLOCK_RECORD
  5
10E
330
1
100
AcDbSymbolTableRecord
100
AcDbBlockTableRecord
  2
DC_GROUP_76
340
0
102
{BLKREFS
331
40A
102
}
  0
BLOCK_RECORD
  5
11A
330
1
100
AcDbSymbolTableRecord
100
AcDbBlockTableRecord
  2
DA_IMAGEDIMGROUP_31
340
0
102
{BLKREFS
331
40B
102
}
  0
BLOCK_RECORD
  5
122
330
1
100
AcDbSymbolTableRecord
100
AcDbBlockTableRecord
  2
_OPEN30_64
340
0
102
{BLKREFS
331
2E9
102
}
  0
BLOCK_RECORD
  5
128
330
1
100
AcDbSymbolTableRecord
100
AcDbBlockTableRecord
  2
_OPEN30_65
340
0
102
{BLKREFS
331
2EA
102
}
  0
BLOCK_RECORD
  5
12E
330
1
100
AcDbSymbolTableRecord
100
AcDbBlockTableRecord
  2
DA_IMAGEDIMGROUP_32
340
0
102
{BLKREFS
331
40C
102
}
  0
BLOCK_RECORD
  5
133
330
1
100
AcDbSymbolTableRecord
100
AcDbBlockTableRecord
  2
_OPEN30_66
340
0
102
{BLKREFS
331
2EB
102
}
  0
BLOCK_RECORD
  5
139
330
1
100
AcDbSymbolTableRecord
100
AcDbBlockTableRecord
  2
_OPEN30_67
340
0
102
{BLKREFS
331
2EC
102
}
  0
BLOCK_RECORD
  5
13F
330
1
100
AcDbSymbolTableRecord
100
AcDbBlockTableRecord
  2
_OPEN30_52
340
0
  0
BLOCK_RECORD
  5
145
330
1
100
AcDbSymbolTableRecord
100
AcDbBlockTableRecord
  2
_OPEN30_15
340
0
  0
BLOCK_RECORD
  5
14B
330
1
100
AcDbSymbolTableRecord
100
AcDbBlockTableRecord
  2
_OPEN30_40
340
0
  0
BLOCK_RECORD
  5
151
330
1
100
AcDbSymbolTableRecord
100
AcDbBlockTableRecord
  2
_OPEN30_18
340
0
  0
BLOCK_RECORD
  5
157
330
1
100
AcDbSymbolTableRecord
100
AcDbBlockTableRecord
  2
_OPEN30_35
340
0
  0
BLOCK_RECORD
  5
15D
330
1
100
AcDbSymbolTableRecord
100
AcDbBlockTableRecord
  2
_OPEN30_12
340
0
  0
BLOCK_RECORD
  5
163
330
1
100
AcDbSymbolTableRecord
100
AcDbBlockTableRecord
  2
_OPEN30_44
340
0
  0
BLOCK_RECORD
  5
169
330
1
100
AcDbSymbolTableRecord
100
AcDbBlockTableRecord
  2
_OPEN30_49
340
0
  0
BLOCK_RECORD
  5
16F
330
1
100
AcDbSymbolTableRecord
100
AcDbBlockTableRecord
  2
_OPEN30_9
340
0
  0
BLOCK_RECORD
  5
175
330
1
100
AcDbSymbolTableRecord
100
AcDbBlockTableRecord
  2
_OPEN30_32
340
0
  0
BLOCK_RECORD
  5
17B
330
1
100
AcDbSymbolTableRecord
100
AcDbBlockTableRecord
  2
_OPEN30_29
340
0
  0
BLOCK_RECORD
  5
181
330
1
100
AcDbSymbolTableRecord
100
AcDbBlockTableRecord
  2
_OPEN30_78
340
0
  0
BLOCK_RECORD
  5
187
330
1
100
AcDbSymbolTableRecord
100
AcDbBlockTableRecord
  2
_OPEN30_10
340
0
  0
BLOCK_RECORD
  5
18D
330
1
100
AcDbSymbolTableRecord
100
AcDbBlockTableRecord
  2
_OPEN30_7
340
0
  0
BLOCK_RECORD
  5
193
330
1
100
AcDbSymbolTableRecord
100
AcDbBlockTableRecord
  2
_OPEN30_54
340
0
  0
BLOCK_RECORD
  5
199
330
1
100
AcDbSymbolTableRecord
100
AcDbBlockTableRecord
  2
_OPEN30_25
340
0
  0
BLOCK_RECORD
  5
19F
330
1
100
AcDbSymbolTableRecord
100
AcDbBlockTableRecord
  2
_OPEN30_5
340
0
  0
BLOCK_RECORD
  5
1A5
330
1
100
AcDbSymbolTableRecord
100
AcDbBlockTableRecord
  2
_OPEN30_48
340
0
  0
BLOCK_RECORD
  5
1AB
330
1
100
AcDbSymbolTableRecord
100
AcDbBlockTableRecord
  2
_OPEN30_1
340
0
  0
BLOCK_RECORD
  5
1B1
330
1
100
AcDbSymbolTableRecord
100
AcDbBlockTableRecord
  2
_OPEN30_6
340
0
  0
BLOCK_RECORD
  5
1B7
330
1
100
AcDbSymbolTableRecord
100
AcDbBlockTableRecord
  2
_OPEN30_33
340
0
  0
BLOCK_RECORD
  5
1BD
330
1
100
AcDbSymbolTableRecord
100
AcDbBlockTableRecord
  2
_OPEN30_58
340
0
  0
BLOCK_RECORD
  5
1C3
330
1
100
AcDbSymbolTableRecord
100
AcDbBlockTableRecord
  2
_OPEN30_37
340
0
  0
BLOCK_RECORD
  5
1C9
330
1
100
AcDbSymbolTableRecord
100
AcDbBlockTableRecord
  2
_OPEN30_8
340
0
  0
BLOCK_RECORD
  5
1CF
330
1
100
AcDbSymbolTableRecord
100
AcDbBlockTableRecord
  2
_OPEN30_57
340
0
  0
BLOCK_RECORD
  5
1D5
330
1
100
AcDbSymbolTableRecord
100
AcDbBlockTableRecord
  2
_OPEN30_73
340
0
  0
BLOCK_RECORD
  5
1DB
330
1
100
AcDbSymbolTableRecord
100
AcDbBlockTableRecord
  2
_OPEN30_28
340
0
  0
BLOCK_RECORD
  5
1E1
330
1
100
AcDbSymbolTableRecord
100
AcDbBlockTableRecord
  2
_OPEN30_55
340
0
  0
BLOCK_RECORD
  5
1E7
330
1
100
AcDbSymbolTableRecord
100
AcDbBlockTableRecord
  2
_OPEN30_21
340
0
  0
BLOCK_RECORD
  5
1ED
330
1
100
AcDbSymbolTableRecord
100
AcDbBlockTableRecord
  2
_OPEN30_79
340
0
  0
BLOCK_RECORD
  5
1F3
330
1
100
AcDbSymbolTableRecord
100
AcDbBlockTableRecord
  2
_OPEN30_16
340
0
  0
BLOCK_RECORD
  5
1F9
330
1
100
AcDbSymbolTableRecord
100
AcDbBlockTableRecord
  2
_OPEN30_24
340
0
  0
BLOCK_RECORD
  5
1FF
330
1
100
AcDbSymbolTableRecord
100
AcDbBlockTableRecord
  2
_OPEN30_17
340
0
  0
BLOCK_RECORD
  5
205
330
1
100
AcDbSymbolTableRecord
100
AcDbBlockTableRecord
  2
_OPEN30_43
340
0
  0
BLOCK_RECORD
  5
20B
330
1
100
AcDbSymbolTableRecord
100
AcDbBlockTableRecord
  2
_OPEN30_53
340
0
  0
BLOCK_RECORD
  5
211
330
1
100
AcDbSymbolTableRecord
100
AcDbBlockTableRecord
  2
_OPEN30_14
340
0
  0
BLOCK_RECORD
  5
217
330
1
100
AcDbSymbolTableRecord
100
AcDbBlockTableRecord
  2
_OPEN30_50
340
0
  0
BLOCK_RECORD
  5
21D
330
1
100
AcDbSymbolTableRecord
100
AcDbBlockTableRecord
  2
_OPEN30_42
340
0
  0
BLOCK_RECORD
  5
223
330
1
100
AcDbSymbolTableRecord
100
AcDbBlockTableRecord
  2
_OPEN30_45
340
0
  0
BLOCK_RECORD
  5
229
330
1
100
AcDbSymbolTableRecord
100
AcDbBlockTableRecord
  2
_OPEN30_13
340
0
  0
BLOCK_RECORD
  5
22F
330
1
100
AcDbSymbolTableRecord
100
AcDbBlockTableRecord
  2
_OPEN30_47
340
0
  0
BLOCK_RECORD
  5
235
330
1
100
AcDbSymbolTableRecord
100
AcDbBlockTableRecord
  2
_OPEN30_71
340
0
  0
BLOCK_RECORD
  5
23B
330
1
100
AcDbSymbolTableRecord
100
AcDbBlockTableRecord
  2
_OPEN30_34
340
0
  0
BLOCK_RECORD
  5
241
330
1
100
AcDbSymbolTableRecord
100
AcDbBlockTableRecord
  2
_OPEN30_77
340
0
  0
BLOCK_RECORD
  5
247
330
1
100
AcDbSymbolTableRecord
100
AcDbBlockTableRecord
  2
_OPEN30_0
340
0
  0
BLOCK_RECORD
  5
24D
330
1
100
AcDbSymbolTableRecord
100
AcDbBlockTableRecord
  2
_OPEN30_19
340
0
  0
BLOCK_RECORD
  5
253
330
1
100
AcDbSymbolTableRecord
100
AcDbBlockTableRecord
  2
_OPEN30_31
340
0
  0
BLOCK_RECORD
  5
259
330
1
100
AcDbSymbolTableRecord
100
AcDbBlockTableRecord
  2
_OPEN30_38
340
0
  0
BLOCK_RECORD
  5
25F
330
1
100
AcDbSymbolTableRecord
100
AcDbBlockTableRecord
  2
_OPEN30_59
340
0
  0
BLOCK_RECORD
  5
265
330
1
100
AcDbSymbolTableRecord
100
AcDbBlockTableRecord
  2
_OPEN30_23
340
0
  0
BLOCK_RECORD
  5
26B
330
1
100
AcDbSymbolTableRecord
100
AcDbBlockTableRecord
  2
_OPEN30_36
340
0
  0
BLOCK_RECORD
  5
271
330
1
100
AcDbSymbolTableRecord
100
AcDbBlockTableRecord
  2
_OPEN30_75
340
0
  0
BLOCK_RECORD
  5
277
330
1
100
AcDbSymbolTableRecord
100
AcDbBlockTableRecord
  2
_OPEN30_22
340
0
  0
BLOCK_RECORD
  5
27D
330
1
100
AcDbSymbolTableRecord
100
AcDbBlockTableRecord
  2
_OPEN30_70
340
0
  0
BLOCK_RECORD
  5
283
330
1
100
AcDbSymbolTableRecord
100
AcDbBlockTableRecord
  2
_OPEN30_56
340
0
  0
BLOCK_RECORD
  5
289
330
1
100
AcDbSymbolTableRecord
100
AcDbBlockTableRecord
  2
_OPEN30_46
340
0
  0
BLOCK_RECORD
  5
28F
330
1
100
AcDbSymbolTableRecord
100
AcDbBlockTableRecord
  2
_OPEN30_41
340
0
  0
BLOCK_RECORD
  5
295
330
1
100
AcDbSymbolTableRecord
100
AcDbBlockTableRecord
  2
_OPEN30_30
340
0
  0
BLOCK_RECORD
  5
29B
330
1
100
AcDbSymbolTableRecord
100
AcDbBlockTableRecord
  2
_OPEN30_51
340
0
  0
BLOCK_RECORD
  5
2A1
330
1
100
AcDbSymbolTableRecord
100
AcDbBlockTableRecord
  2
_OPEN30_72
340
0
  0
BLOCK_RECORD
  5
2A7
330
1
100
AcDbSymbolTableRecord
100
AcDbBlockTableRecord
  2
_OPEN30_27
340
0
  0
BLOCK_RECORD
  5
2AD
330
1
100
AcDbSymbolTableRecord
100
AcDbBlockTableRecord
  2
_OPEN30_4
340
0
  0
BLOCK_RECORD
  5
2B3
330
1
100
AcDbSymbolTableRecord
100
AcDbBlockTableRecord
  2
_OPEN30_3
340
0
  0
BLOCK_RECORD
  5
2B9
330
1
100
AcDbSymbolTableRecord
100
AcDbBlockTableRecord
  2
_OPEN30_11
340
0
  0
BLOCK_RECORD
  5
2BF
330
1
100
AcDbSymbolTableRecord
100
AcDbBlockTableRecord
  2
_OPEN30_26
340
0
  0
BLOCK_RECORD
  5
2C5
330
1
100
AcDbSymbolTableRecord
100
AcDbBlockTableRecord
  2
_OPEN30_74
340
0
  0
BLOCK_RECORD
  5
2CB
330
1
100
AcDbSymbolTableRecord
100
AcDbBlockTableRecord
  2
_OPEN30_76
340
0
  0
BLOCK_RECORD
  5
2D1
330
1
100
AcDbSymbolTableRecord
100
AcDbBlockTableRecord
  2
_OPEN30_2
340
0
  0
BLOCK_RECORD
  5
2D7
330
1
100
AcDbSymbolTableRecord
100
AcDbBlockTableRecord
  2
_OPEN30_39
340
0
  0
BLOCK_RECORD
  5
2DD
330
1
100
AcDbSymbolTableRecord
100
AcDbBlockTableRecord
  2
_OPEN30_20
340
0
  0
ENDTAB
  0
ENDSEC
  0
SECTION
  2
BLOCKS
  0
BLOCK
  5
20
330
1F
100
AcDbEntity
  8
0
100
AcDbBlockBegin
  2
*Model_Space
 70
     0
 10
0.0
 20
0.0
 30
0.0
  3
*Model_Space
  1

  0
ENDBLK
  5
21
330
1F
100
AcDbEntity
  8
0
100
AcDbBlockEnd
  0
BLOCK
  5
1C
330
1B
100
AcDbEntity
 67
     1
  8
0
100
AcDbBlockBegin
  2
*Paper_Space
 70
     0
 10
0.0
 20
0.0
 30
0.0
  3
*Paper_Space
  1

  0
ENDBLK
  5
1D
330
1B
100
AcDbEntity
 67
     1
  8
0
100
AcDbBlockEnd
  0
BLOCK
  5
24
330
23
100
AcDbEntity
  8
0
100
AcDbBlockBegin
  2
*Paper_Space0
 70
     0
 10
0.0
 20
0.0
 30
0.0
  3
*Paper_Space0
  1

  0
ENDBLK
  5
25
330
23
100
AcDbEntity
  8
0
100
AcDbBlockEnd
  0
BLOCK
  5
47
330
46
100
AcDbEntity
  8
0
100
AcDbBlockBegin
  2
DC_GROUP_74
 70
     0
 10
0.0
 20
0.0
 30
0.0
  3
DC_GROUP_74
  1

  0
LINE
  5
49
330
46
100
AcDbEntity
  8
SLD-0
  6
Continuous
 62
   179
100
AcDbLine
 10
-188.4630825038
 20
-56.2823666542
 30
0.0
 11
-133.7430825038
 21
-56.2823666542
 31
0.0
  0
LINE
  5
4A
330
46
100
AcDbEntity
  8
SLD-0
  6
Continuous
 62
   179
100
AcDbLine
 10
-133.7430825038
 20
-56.2823666542
 30
0.0
 11
-133.7430825038
 21
-50.9623666542
 31
0.0
  0
LINE
  5
4B
330
46
100
AcDbEntity
  8
SLD-0
  6
Continuous
 62
   179
100
AcDbLine
 10
-188.4630825038
 20
-50.9623666542
 30
0.0
 11
-133.7430825038
 21
-50.9623666542
 31
0.0
  0
LINE
  5
4C
330
46
100
AcDbEntity
  8
SLD-0
  6
Continuous
 62
   179
100
AcDbLine
 10
-188.4630825038
 20
-56.2823666542
 30
0.0
 11
-188.4630825038
 21
-50.9623666542
 31
0.0
  0
MTEXT
  5
4E
330
46
100
AcDbEntity
  8
SLD-0
100
AcDbMText
 10
-187.7030825038
 20
-51.3839093522
 30
0.0
 40
3.8
 41
0.0
 71
     1
 72
     1
  1
EＧ1-ＮＷ20補強-AＳＴ
  7
SLDTEXTSTYLE0
 73
     1
 44
1.0
  0
ENDBLK
  5
48
330
46
100
AcDbEntity
  8
0
100
AcDbBlockEnd
  0
BLOCK
  5
50
330
4F
100
AcDbEntity
  8
0
100
AcDbBlockBegin
  2
DC_GROUP_75
 70
     0
 10
0.0
 20
0.0
 30
0.0
  3
DC_GROUP_75
  1

  0
CIRCLE
  5
52
330
4F
100
AcDbEntity
  8
SLD-0
  6
Continuous
 62
   179
100
AcDbCircle
 10
-94.3421218313
 20
-21.3963235673
 30
0.0
 40
2.750000000000014
  0
CIRCLE
  5
53
330
4F
100
AcDbEntity
  8
SLD-0
  6
Continuous
 62
   179
100
AcDbCircle
 10
-94.3421218313
 20
-21.3963235673
 30
0.0
 40
1.250000000000014
  0
CIRCLE
  5
54
330
4F
100
AcDbEntity
  8
SLD-0
  6
Continuous
 62
   179
100
AcDbCircle
 10
-94.3421218313
 20
-21.3963235673
 30
0.0
 40
1.5
  0
LINE
  5
55
330
4F
100
AcDbEntity
  8
SLD-0
  6
Continuous
 62
   179
100
AcDbLine
 10
-91.1666953508
 20
-21.3963235673
 30
0.0
 11
-92.7544085911
 21
-18.6463235673
 31
0.0
  0
LINE
  5
56
330
4F
100
AcDbEntity
  8
SLD-0
  6
Continuous
 62
   179
100
AcDbLine
 10
-92.7544085911
 20
-18.6463235673
 30
0.0
 11
-95.9298350716
 21
-18.6463235673
 31
0.0
  0
LINE
  5
57
330
4F
100
AcDbEntity
  8
SLD-0
  6
Continuous
 62
   179
100
AcDbLine
 10
-95.9298350716
 20
-18.6463235673
 30
0.0
 11
-97.5175483119
 21
-21.3963235673
 31
0.0
  0
LINE
  5
58
330
4F
100
AcDbEntity
  8
SLD-0
  6
Continuous
 62
   179
100
AcDbLine
 10
-97.5175483119
 20
-21.3963235673
 30
0.0
 11
-95.9298350716
 21
-24.1463235673
 31
0.0
  0
LINE
  5
59
330
4F
100
AcDbEntity
  8
SLD-0
  6
Continuous
 62
   179
100
AcDbLine
 10
-95.9298350716
 20
-24.1463235673
 30
0.0
 11
-92.7544085911
 21
-24.1463235673
 31
0.0
  0
LINE
  5
5A
330
4F
100
AcDbEntity
  8
SLD-0
  6
Continuous
 62
   179
100
AcDbLine
 10
-92.7544085911
 20
-24.1463235673
 30
0.0
 11
-91.1666953508
 21
-21.3963235673
 31
0.0
  0
ENDBLK
  5
51
330
4F
100
AcDbEntity
  8
0
100
AcDbBlockEnd
  0
BLOCK
  5
5C
330
5B
100
AcDbEntity
  8
0
100
AcDbBlockBegin
  2
DA_IMAGEDIMGROUP_29
 70
     0
 10
0.0
 20
0.0
 30
0.0
  3
DA_IMAGEDIMGROUP_29
  1

  0
LINE
  5
5E
330
5B
100
AcDbEntity
  8
SLD-0
  6
Continuous
 62
     9
100
AcDbLine
 10
-97.6421218313
 20
-42.8963235673
 30
0.0
 11
-78.7702862459
 21
-42.8963235673
 31
0.0
  0
LINE
  5
5F
330
5B
100
AcDbEntity
  8
SLD-0
  6
Continuous
 62
     9
100
AcDbLine
 10
-93.8421218313
 20
-21.3963235673
 30
0.0
 11
-78.7702862459
 21
-21.3963235673
 31
0.0
  0
LINE
  5
60
330
5B
100
AcDbEntity
  8
SLD-0
  6
Continuous
 62
     9
100
AcDbLine
 10
-79.7702862459
 20
-42.8963235673
 30
0.0
 11
-79.7702862459
 21
-21.3963235673
 31
0.0
  0
MTEXT
  5
62
330
5B
100
AcDbEntity
  8
SLD-0
100
AcDbMText
 10
-84.0820234005
 20
-37.3963235673
 30
0.0
 40
3.5
 41
0.0
 71
     1
 72
     1
  1
21.5
  7
SLDTEXTSTYLE1
 11
6.123233995736766E-17
 21
1.0
 31
0.0
 73
     1
 44
1.0
  0
INSERT
  5
2E3
330
5B
100
AcDbEntity
  8
0
  6
Continuous
 62
     7
100
AcDbBlockReference
  2
_OPEN30_60
 10
0.0
 20
0.0
 30
0.0
  0
INSERT
  5
2E4
330
5B
100
AcDbEntity
  8
0
  6
Continuous
 62
     7
100
AcDbBlockReference
  2
_OPEN30_61
 10
0.0
 20
0.0
 30
0.0
  0
ENDBLK
  5
5D
330
5B
100
AcDbEntity
  8
0
100
AcDbBlockEnd
  0
BLOCK
  5
64
330
63
100
AcDbEntity
  8
0
100
AcDbBlockBegin
  2
_OPEN30_60
 70
     0
 10
0.0
 20
0.0
 30
0.0
  3
_OPEN30_60
  1

  0
LINE
  5
66
330
63
100
AcDbEntity
  8
SLD-0
  6
Continuous
 62
     9
100
AcDbLine
 10
-78.9664420947
 20
-39.8963207597
 30
0.0
 11
-79.7702862459
 21
-42.8963235673
 31
0.0
  0
LINE
  5
67
330
63
100
AcDbEntity
  8
SLD-0
  6
Continuous
 62
     9
100
AcDbLine
 10
-79.7702862459
 20
-42.8963235673
 30
0.0
 11
-80.5741303971
 21
-39.8963207597
 31
0.0
  0
LINE
  5
68
330
63
100
AcDbEntity
  8
SLD-0
  6
Continuous
 62
     9
100
AcDbLine
 10
-79.7702862459
 20
-42.8963235673
 30
0.0
 11
-79.7702862459
 21
-39.8963207597
 31
0.0
  0
ENDBLK
  5
65
330
63
100
AcDbEntity
  8
0
100
AcDbBlockEnd
  0
BLOCK
  5
6A
330
69
100
AcDbEntity
  8
0
100
AcDbBlockBegin
  2
_OPEN30_61
 70
     0
 10
0.0
 20
0.0
 30
0.0
  3
_OPEN30_61
  1

  0
LINE
  5
6C
330
69
100
AcDbEntity
  8
SLD-0
  6
Continuous
 62
     9
100
AcDbLine
 10
-80.5741303971
 20
-24.3963263749
 30
0.0
 11
-79.7702862459
 21
-21.3963235673
 31
0.0
  0
LINE
  5
6D
330
69
100
AcDbEntity
  8
SLD-0
  6
Continuous
 62
     9
100
AcDbLine
 10
-79.7702862459
 20
-21.3963235673
 30
0.0
 11
-78.9664420947
 21
-24.3963263749
 31
0.0
  0
LINE
  5
6E
330
69
100
AcDbEntity
  8
SLD-0
  6
Continuous
 62
     9
100
AcDbLine
 10
-79.7702862459
 20
-21.3963235673
 30
0.0
 11
-79.7702862459
 21
-24.3963263749
 31
0.0
  0
ENDBLK
  5
6B
330
69
100
AcDbEntity
  8
0
100
AcDbBlockEnd
  0
BLOCK
  5
70
330
6F
100
AcDbEntity
  8
0
100
AcDbBlockBegin
  2
DC_GROUP_77
 70
     0
 10
0.0
 20
0.0
 30
0.0
  3
DC_GROUP_77
  1

  0
LINE
  5
72
330
6F
100
AcDbEntity
  8
SLD-0
  6
Continuous
 62
   150
100
AcDbLine
 10
-178.0023528815
 20
-19.8963235673
 30
0.0
 11
-178.1586029169
 21
-20.1669565673
 31
0.0
  0
LINE
  5
73
330
6F
100
AcDbEntity
  8
SLD-0
  6
Continuous
 62
   150
100
AcDbLine
 10
-178.0023528815
 20
-22.8963235673
 30
0.0
 11
-178.1586029169
 21
-22.6256905673
 31
0.0
  0
LINE
  5
74
330
6F
100
AcDbEntity
  8
SLD-0
  6
Continuous
 62
   150
100
AcDbLine
 10
-178.1586029169
 20
-20.1669565673
 30
0.0
 11
-178.1586029169
 21
-22.6256905673
 31
0.0
  0
LINE
  5
75
330
6F
100
AcDbEntity
  8
SLD-0
  6
Continuous
 62
   150
100
AcDbLine
 10
-166.6586029169
 20
-19.8963235673
 30
0.0
 11
-166.6586029169
 21
-22.8963235673
 31
0.0
  0
LINE
  5
76
330
6F
100
AcDbEntity
  8
SLD-0
  6
Continuous
 62
   150
100
AcDbLine
 10
-178.0023528815
 20
-22.8963235673
 30
0.0
 11
-178.0023528815
 21
-19.8963235673
 31
0.0
  0
LINE
  5
77
330
6F
100
AcDbEntity
  8
SLD-0
  6
Continuous
 62
   150
100
AcDbLine
 10
-166.6586029169
 20
-19.8963235673
 30
0.0
 11
-166.1586029169
 21
-20.3963235673
 31
0.0
  0
LINE
  5
78
330
6F
100
AcDbEntity
  8
SLD-0
  6
Continuous
 62
   150
100
AcDbLine
 10
-166.6586029169
 20
-22.8963235673
 30
0.0
 11
-166.1586029169
 21
-22.3963235673
 31
0.0
  0
LINE
  5
79
330
6F
100
AcDbEntity
  8
SLD-0
  6
Continuous
 62
   150
100
AcDbLine
 10
-166.1586029169
 20
-20.3963235673
 30
0.0
 11
-166.1586029169
 21
-22.3963235673
 31
0.0
  0
LINE
  5
7A
330
6F
100
AcDbEntity
  8
SLD-0
  6
Continuous
 62
   150
100
AcDbLine
 10
-178.0023528815
 20
-19.8963235673
 30
0.0
 11
-175.7044988313
 21
-19.8963235673
 31
0.0
  0
LINE
  5
7B
330
6F
100
AcDbEntity
  8
SLD-0
  6
Continuous
 62
   150
100
AcDbLine
 10
-175.7044988313
 20
-22.8963235673
 30
0.0
 11
-178.0023528815
 21
-22.8963235673
 31
0.0
  0
LINE
  5
7C
330
6F
100
AcDbEntity
  8
SLD-0
  6
Continuous
 62
   150
100
AcDbLine
 10
-171.7044988313
 20
-19.8963235673
 30
0.0
 11
-166.6586029169
 21
-19.8963235673
 31
0.0
  0
LINE
  5
7D
330
6F
100
AcDbEntity
  8
SLD-0
  6
Continuous
 62
   150
100
AcDbLine
 10
-166.6586029169
 20
-22.8963235673
 30
0.0
 11
-171.7044988313
 21
-22.8963235673
 31
0.0
  0
LINE
  5
7E
330
6F
100
AcDbEntity
  8
SLD-0
  6
Continuous
 62
   179
100
AcDbLine
 10
-178.1586029169
 20
-20.1669565673
 30
0.0
 11
-175.7044988313
 21
-20.1669565673
 31
0.0
  0
LINE
  5
7F
330
6F
100
AcDbEntity
  8
SLD-0
  6
Continuous
 62
   179
100
AcDbLine
 10
-178.1586029169
 20
-22.6256905673
 30
0.0
 11
-175.7044988313
 21
-22.6256905673
 31
0.0
  0
LINE
  5
80
330
6F
100
AcDbEntity
  8
SLD-0
  6
Continuous
 62
   179
100
AcDbLine
 10
-171.7044988313
 20
-20.1669565673
 30
0.0
 11
-166.3879699169
 21
-20.1669565673
 31
0.0
  0
LINE
  5
81
330
6F
100
AcDbEntity
  8
SLD-0
  6
Continuous
 62
   179
100
AcDbLine
 10
-171.7044988313
 20
-22.6256905673
 30
0.0
 11
-166.3879699169
 21
-22.6256905673
 31
0.0
  0
ENDBLK
  5
71
330
6F
100
AcDbEntity
  8
0
100
AcDbBlockEnd
  0
BLOCK
  5
83
330
82
100
AcDbEntity
  8
0
100
AcDbBlockBegin
  2
DC_GROUP_78
 70
     0
 10
0.0
 20
0.0
 30
0.0
  3
DC_GROUP_78
  1

  0
LINE
  5
85
330
82
100
AcDbEntity
  8
SLD-0
  6
Continuous
 62
   150
100
AcDbLine
 10
-140.6066447812
 20
-19.8963235673
 30
0.0
 11
-140.4503947458
 21
-20.1669565673
 31
0.0
  0
LINE
  5
86
330
82
100
AcDbEntity
  8
SLD-0
  6
Continuous
 62
   150
100
AcDbLine
 10
-140.6066447812
 20
-22.8963235673
 30
0.0
 11
-140.4503947458
 21
-22.6256905673
 31
0.0
  0
LINE
  5
87
330
82
100
AcDbEntity
  8
SLD-0
  6
Continuous
 62
   150
100
AcDbLine
 10
-140.4503947458
 20
-20.1669565673
 30
0.0
 11
-140.4503947458
 21
-22.6256905673
 31
0.0
  0
LINE
  5
88
330
82
100
AcDbEntity
  8
SLD-0
  6
Continuous
 62
   150
100
AcDbLine
 10
-151.9503947458
 20
-19.8963235673
 30
0.0
 11
-151.9503947458
 21
-22.8963235673
 31
0.0
  0
LINE
  5
89
330
82
100
AcDbEntity
  8
SLD-0
  6
Continuous
 62
   150
100
AcDbLine
 10
-140.6066447812
 20
-22.8963235673
 30
0.0
 11
-140.6066447812
 21
-19.8963235673
 31
0.0
  0
LINE
  5
8A
330
82
100
AcDbEntity
  8
SLD-0
  6
Continuous
 62
   150
100
AcDbLine
 10
-151.9503947458
 20
-19.8963235673
 30
0.0
 11
-152.4503947458
 21
-20.3963235673
 31
0.0
  0
LINE
  5
8B
330
82
100
AcDbEntity
  8
SLD-0
  6
Continuous
 62
   150
100
AcDbLine
 10
-151.9503947458
 20
-22.8963235673
 30
0.0
 11
-152.4503947458
 21
-22.3963235673
 31
0.0
  0
LINE
  5
8C
330
82
100
AcDbEntity
  8
SLD-0
  6
Continuous
 62
   150
100
AcDbLine
 10
-152.4503947458
 20
-20.3963235673
 30
0.0
 11
-152.4503947458
 21
-22.3963235673
 31
0.0
  0
LINE
  5
8D
330
82
100
AcDbEntity
  8
SLD-0
  6
Continuous
 62
   150
100
AcDbLine
 10
-140.6066447812
 20
-19.8963235673
 30
0.0
 11
-142.9044988313
 21
-19.8963235673
 31
0.0
  0
LINE
  5
8E
330
82
100
AcDbEntity
  8
SLD-0
  6
Continuous
 62
   150
100
AcDbLine
 10
-145.3044988313
 20
-19.8963235673
 30
0.0
 11
-151.9503947458
 21
-19.8963235673
 31
0.0
  0
LINE
  5
8F
330
82
100
AcDbEntity
  8
SLD-0
  6
Continuous
 62
   150
100
AcDbLine
 10
-151.9503947458
 20
-22.8963235673
 30
0.0
 11
-145.3044988313
 21
-22.8963235673
 31
0.0
  0
LINE
  5
90
330
82
100
AcDbEntity
  8
SLD-0
  6
Continuous
 62
   150
100
AcDbLine
 10
-142.9044988313
 20
-22.8963235673
 30
0.0
 11
-140.6066447812
 21
-22.8963235673
 31
0.0
  0
LINE
  5
91
330
82
100
AcDbEntity
  8
SLD-0
  6
Continuous
 62
   179
100
AcDbLine
 10
-140.4503947458
 20
-20.1669565673
 30
0.0
 11
-142.9044988313
 21
-20.1669565673
 31
0.0
  0
LINE
  5
92
330
82
100
AcDbEntity
  8
SLD-0
  6
Continuous
 62
   179
100
AcDbLine
 10
-145.3044988313
 20
-20.1669565673
 30
0.0
 11
-152.2210277458
 21
-20.1669565673
 31
0.0
  0
LINE
  5
93
330
82
100
AcDbEntity
  8
SLD-0
  6
Continuous
 62
   179
100
AcDbLine
 10
-140.4503947458
 20
-22.6256905673
 30
0.0
 11
-142.9044988313
 21
-22.6256905673
 31
0.0
  0
LINE
  5
94
330
82
100
AcDbEntity
  8
SLD-0
  6
Continuous
 62
   179
100
AcDbLine
 10
-145.3044988313
 20
-22.6256905673
 30
0.0
 11
-152.2210277458
 21
-22.6256905673
 31
0.0
  0
ENDBLK
  5
84
330
82
100
AcDbEntity
  8
0
100
AcDbBlockEnd
  0
BLOCK
  5
96
330
95
100
AcDbEntity
  8
0
100
AcDbBlockBegin
  2
DC_GROUP_79
 70
     0
 10
0.0
 20
0.0
 30
0.0
  3
DC_GROUP_79
  1

  0
CIRCLE
  5
98
330
95
100
AcDbEntity
  8
SLD-0
  6
Continuous
 62
    32
100
AcDbCircle
 10
-159.3044988313
 20
-2.8963235673
 30
0.0
 40
1.229500000000002
  0
CIRCLE
  5
99
330
95
100
AcDbEntity
  8
SLD-0
  6
Continuous
 62
   150
100
AcDbCircle
 10
-159.3044988313
 20
-2.8963235673
 30
0.0
 40
1.5
  0
ENDBLK
  5
97
330
95
100
AcDbEntity
  8
0
100
AcDbBlockEnd
  0
BLOCK
  5
9B
330
9A
100
AcDbEntity
  8
0
100
AcDbBlockBegin
  2
DC_GROUP_80
 70
     0
 10
0.0
 20
0.0
 30
0.0
  3
DC_GROUP_80
  1

  0
ARC
  5
9D
330
9A
100
AcDbEntity
  8
SLD-0
  6
Continuous
 62
     9
100
AcDbCircle
 10
-136.4099867664
 20
-27.7685024702
 30
0.0
 40
22.45819178879874
100
AcDbArc
 50
129.1560419106
 51
131.1039976185
  0
ARC
  5
9E
330
9A
100
AcDbEntity
  8
SLD-0
  6
Continuous
 62
     9
100
AcDbCircle
 10
-146.5146272591
 20
-15.340885361
 30
0.0
 40
6.441046553481582
100
AcDbArc
 50
122.7987773806
 51
129.2609557638
  0
ARC
  5
9F
330
9A
100
AcDbEntity
  8
SLD-0
  6
Continuous
 62
     9
100
AcDbCircle
 10
-148.3892331816
 20
-12.4126459653
 30
0.0
 40
2.964195073627903
100
AcDbArc
 50
110.1357609282
 51
123.0006914823
  0
ARC
  5
A0
330
9A
100
AcDbEntity
  8
SLD-0
  6
Continuous
 62
     9
100
AcDbCircle
 10
-148.8301690305
 20
-11.2138111887
 30
0.0
 40
1.686843786166744
100
AcDbArc
 50
89.1571768804
 51
110.0918807789
  0
ARC
  5
A1
330
9A
100
AcDbEntity
  8
SLD-0
  6
Continuous
 62
     9
100
AcDbCircle
 10
-148.8763918675
 20
-11.6424762355
 30
0.0
 40
2.11651872921855
100
AcDbArc
 50
71.0564001558
 51
88.07665409
  0
ARC
  5
A2
330
9A
100
AcDbEntity
  8
SLD-0
  6
Continuous
 62
     9
100
AcDbCircle
 10
-149.5289655886
 20
-13.5756808398
 30
0.0
 40
4.156880914413185
100
AcDbArc
 50
61.7797920738
 51
71.1992073363
  0
ARC
  5
A3
330
9A
100
AcDbEntity
  8
SLD-0
  6
Continuous
 62
     9
100
AcDbCircle
 10
-152.6549963903
 20
-19.462247161
 30
0.0
 40
10.82196958717362
100
AcDbArc
 50
58.0593761371
 51
61.9337024923
  0
ARC
  5
A4
330
9A
100
AcDbEntity
  8
SLD-0
  6
Continuous
 62
     9
100
AcDbCircle
 10
-97.4006524104
 20
69.314718128
 30
0.0
 40
93.74567739528551
100
AcDbArc
 50
238.1069986802
 51
238.5658407388
  0
ARC
  5
A5
330
9A
100
AcDbEntity
  8
SLD-0
  6
Continuous
 62
     9
100
AcDbCircle
 10
-141.7378339726
 20
-3.2394661252
 30
0.0
 40
8.716890396792229
100
AcDbArc
 50
238.5126943839
 51
243.3432906587
  0
ARC
  5
A6
330
9A
100
AcDbEntity
  8
SLD-0
  6
Continuous
 62
     9
100
AcDbCircle
 10
-143.9274783091
 20
-7.6220128375
 30
0.0
 40
3.817802647985641
100
AcDbArc
 50
243.203805802
 51
253.5972444382
  0
ARC
  5
A7
330
9A
100
AcDbEntity
  8
SLD-0
  6
Continuous
 62
     9
100
AcDbCircle
 10
-144.3720815032
 20
-9.1009880075
 30
0.0
 40
2.273488036759805
100
AcDbArc
 50
253.8206274064
 51
270.2084929449
  0
ARC
  5
A8
330
9A
100
AcDbEntity
  8
SLD-0
  6
Continuous
 62
     9
100
AcDbCircle
 10
-144.3887264393
 20
-8.7089753907
 30
0.0
 40
2.665602069289974
100
AcDbArc
 50
270.5356052832
 51
284.4387301827
  0
ARC
  5
A9
330
9A
100
AcDbEntity
  8
SLD-0
  6
Continuous
 62
     9
100
AcDbCircle
 10
-144.7073431478
 20
-7.4749861555
 30
0.0
 40
3.940060987323819
100
AcDbArc
 50
284.4513036548
 51
294.2993463577
  0
ARC
  5
AA
330
9A
100
AcDbEntity
  8
SLD-0
  6
Continuous
 62
     9
100
AcDbCircle
 10
-145.7813413152
 20
-5.0786800787
 30
0.0
 40
6.566031937690116
100
AcDbArc
 50
294.2361786065
 51
300.4967108698
  0
ARC
  5
AB
330
9A
100
AcDbEntity
  8
SLD-0
  6
Continuous
 62
     9
100
AcDbCircle
 10
-148.8211839121
 20
0.1064315727
 30
0.0
 40
12.57651857795558
100
AcDbArc
 50
300.4416724793
 51
303.8646111566
  0
ARC
  5
AC
330
9A
100
AcDbEntity
  8
SLD-0
  6
Continuous
 62
     9
100
AcDbCircle
 10
-164.4450833156
 20
23.423688585
 30
0.0
 40
40.64430414790647
100
AcDbArc
 50
303.8368100033
 51
304.9224674815
  0
ENDBLK
  5
9C
330
9A
100
AcDbEntity
  8
0
100
AcDbBlockEnd
  0
BLOCK
  5
AE
330
AD
100
AcDbEntity
  8
0
100
AcDbBlockBegin
  2
DC_GROUP_81
 70
     0
 10
0.0
 20
0.0
 30
0.0
  3
DC_GROUP_81
  1

  0
ARC
  5
B0
330
AD
100
AcDbEntity
  8
SLD-0
  6
Continuous
 62
     9
100
AcDbCircle
 10
-136.4099867664
 20
-47.8431403686
 30
0.0
 40
22.45819178879874
100
AcDbArc
 50
129.1560419106
 51
131.1039976185
  0
ARC
  5
B1
330
AD
100
AcDbEntity
  8
SLD-0
  6
Continuous
 62
     9
100
AcDbCircle
 10
-146.5146272591
 20
-35.4155232593
 30
0.0
 40
6.441046553481581
100
AcDbArc
 50
122.7987773806
 51
129.2609557638
  0
ARC
  5
B2
330
AD
100
AcDbEntity
  8
SLD-0
  6
Continuous
 62
     9
100
AcDbCircle
 10
-148.3892331816
 20
-32.4872838636
 30
0.0
 40
2.964195073627905
100
AcDbArc
 50
110.1357609282
 51
123.0006914823
  0
ARC
  5
B3
330
AD
100
AcDbEntity
  8
SLD-0
  6
Continuous
 62
     9
100
AcDbCircle
 10
-148.8301690305
 20
-31.2884490871
 30
0.0
 40
1.686843786166745
100
AcDbArc
 50
89.1571768804
 51
110.0918807789
  0
ARC
  5
B4
330
AD
100
AcDbEntity
  8
SLD-0
  6
Continuous
 62
     9
100
AcDbCircle
 10
-148.8763918675
 20
-31.7171141339
 30
0.0
 40
2.116518729218547
100
AcDbArc
 50
71.0564001558
 51
88.07665409
  0
ARC
  5
B5
330
AD
100
AcDbEntity
  8
SLD-0
  6
Continuous
 62
     9
100
AcDbCircle
 10
-149.5289655886
 20
-33.6503187382
 30
0.0
 40
4.156880914413177
100
AcDbArc
 50
61.7797920738
 51
71.1992073363
  0
ARC
  5
B6
330
AD
100
AcDbEntity
  8
SLD-0
  6
Continuous
 62
     9
100
AcDbCircle
 10
-152.6549963903
 20
-39.5368850594
 30
0.0
 40
10.82196958717361
100
AcDbArc
 50
58.0593761371
 51
61.9337024923
  0
ARC
  5
B7
330
AD
100
AcDbEntity
  8
SLD-0
  6
Continuous
 62
     9
100
AcDbCircle
 10
-97.4006524104
 20
49.2400802296
 30
0.0
 40
93.74567739528548
100
AcDbArc
 50
238.1069986802
 51
238.5658407388
  0
ARC
  5
B8
330
AD
100
AcDbEntity
  8
SLD-0
  6
Continuous
 62
     9
100
AcDbCircle
 10
-141.7378339726
 20
-23.3141040236
 30
0.0
 40
8.71689039679223
100
AcDbArc
 50
238.5126943839
 51
243.3432906587
  0
ARC
  5
B9
330
AD
100
AcDbEntity
  8
SLD-0
  6
Continuous
 62
     9
100
AcDbCircle
 10
-143.9274783091
 20
-27.6966507359
 30
0.0
 40
3.817802647985644
100
AcDbArc
 50
243.203805802
 51
253.5972444382
  0
ARC
  5
BA
330
AD
100
AcDbEntity
  8
SLD-0
  6
Continuous
 62
     9
100
AcDbCircle
 10
-144.3720815032
 20
-29.1756259058
 30
0.0
 40
2.273488036759802
100
AcDbArc
 50
253.8206274064
 51
270.2084929449
  0
ARC
  5
BB
330
AD
100
AcDbEntity
  8
SLD-0
  6
Continuous
 62
     9
100
AcDbCircle
 10
-144.3887264393
 20
-28.7836132891
 30
0.0
 40
2.665602069289974
100
AcDbArc
 50
270.5356052832
 51
284.4387301827
  0
ARC
  5
BC
330
AD
100
AcDbEntity
  8
SLD-0
  6
Continuous
 62
     9
100
AcDbCircle
 10
-144.7073431478
 20
-27.5496240539
 30
0.0
 40
3.94006098732382
100
AcDbArc
 50
284.4513036548
 51
294.2993463577
  0
ARC
  5
BD
330
AD
100
AcDbEntity
  8
SLD-0
  6
Continuous
 62
     9
100
AcDbCircle
 10
-145.7813413152
 20
-25.1533179771
 30
0.0
 40
6.56603193769012
100
AcDbArc
 50
294.2361786065
 51
300.4967108698
  0
ARC
  5
BE
330
AD
100
AcDbEntity
  8
SLD-0
  6
Continuous
 62
     9
100
AcDbCircle
 10
-148.8211839121
 20
-19.9682063257
 30
0.0
 40
12.57651857795558
100
AcDbArc
 50
300.4416724793
 51
303.8646111566
  0
ARC
  5
BF
330
AD
100
AcDbEntity
  8
SLD-0
  6
Continuous
 62
     9
100
AcDbCircle
 10
-164.4450833156
 20
3.3490506866
 30
0.0
 40
40.64430414790647
100
AcDbArc
 50
303.8368100033
 51
304.9224674815
  0
ENDBLK
  5
AF
330
AD
100
AcDbEntity
  8
0
100
AcDbBlockEnd
  0
BLOCK
  5
C1
330
C0
100
AcDbEntity
  8
0
100
AcDbBlockBegin
  2
DC_GROUP_82
 70
     0
 10
0.0
 20
0.0
 30
0.0
  3
DC_GROUP_82
  1

  0
LINE
  5
C3
330
C0
100
AcDbEntity
  8
SLD-0
  6
Continuous
 62
   179
100
AcDbLine
 10
-146.9044988313
 20
-26.2768966228
 30
0.0
 11
-145.3044988313
 21
-27.8768966228
 31
0.0
  0
LINE
  5
C4
330
C0
100
AcDbEntity
  8
SLD-0
  6
Continuous
 62
   179
100
AcDbLine
 10
-146.9044988313
 20
-25.5697898416
 30
0.0
 11
-145.3044988313
 21
-27.1697898416
 31
0.0
  0
LINE
  5
C5
330
C0
100
AcDbEntity
  8
SLD-0
  6
Continuous
 62
   179
100
AcDbLine
 10
-146.9044988313
 20
-24.8626830604
 30
0.0
 11
-145.3044988313
 21
-26.4626830604
 31
0.0
  0
LINE
  5
C6
330
C0
100
AcDbEntity
  8
SLD-0
  6
Continuous
 62
   179
100
AcDbLine
 10
-146.9044988313
 20
-24.1555762792
 30
0.0
 11
-145.3044988313
 21
-25.7555762792
 31
0.0
  0
LINE
  5
C7
330
C0
100
AcDbEntity
  8
SLD-0
  6
Continuous
 62
   179
100
AcDbLine
 10
-146.9044988313
 20
-23.448469498
 30
0.0
 11
-145.3044988313
 21
-25.048469498
 31
0.0
  0
LINE
  5
C8
330
C0
100
AcDbEntity
  8
SLD-0
  6
Continuous
 62
   179
100
AcDbLine
 10
-146.7495379809
 20
-22.8963235673
 30
0.0
 11
-145.3044988313
 21
-24.3413627169
 31
0.0
  0
LINE
  5
C9
330
C0
100
AcDbEntity
  8
SLD-0
  6
Continuous
 62
   179
100
AcDbLine
 10
-146.0424311997
 20
-22.8963235673
 30
0.0
 11
-145.3044988313
 21
-23.6342559357
 31
0.0
  0
LINE
  5
CA
330
C0
100
AcDbEntity
  8
SLD-0
  6
Continuous
 62
   179
100
AcDbLine
 10
-145.3353244185
 20
-22.8963235673
 30
0.0
 11
-145.3044988313
 21
-22.9271491545
 31
0.0
  0
LINE
  5
CB
330
C0
100
AcDbEntity
  8
SLD-0
  6
Continuous
 62
   179
100
AcDbLine
 10
-146.9044988313
 20
-19.2058288109
 30
0.0
 11
-146.2140040749
 21
-19.8963235673
 31
0.0
  0
LINE
  5
CC
330
C0
100
AcDbEntity
  8
SLD-0
  6
Continuous
 62
   179
100
AcDbLine
 10
-146.9044988313
 20
-18.4987220297
 30
0.0
 11
-145.5068972937
 21
-19.8963235673
 31
0.0
  0
LINE
  5
CD
330
C0
100
AcDbEntity
  8
SLD-0
  6
Continuous
 62
   179
100
AcDbLine
 10
-146.9044988313
 20
-17.7916152485
 30
0.0
 11
-145.3044988313
 21
-19.3916152486
 31
0.0
  0
LINE
  5
CE
330
C0
100
AcDbEntity
  8
SLD-0
  6
Continuous
 62
   179
100
AcDbLine
 10
-146.9044988313
 20
-17.0845084674
 30
0.0
 11
-145.3044988313
 21
-18.6845084674
 31
0.0
  0
LINE
  5
CF
330
C0
100
AcDbEntity
  8
SLD-0
  6
Continuous
 62
   179
100
AcDbLine
 10
-146.9044988313
 20
-16.3774016862
 30
0.0
 11
-145.3044988313
 21
-17.9774016862
 31
0.0
  0
LINE
  5
D0
330
C0
100
AcDbEntity
  8
SLD-0
  6
Continuous
 62
   179
100
AcDbLine
 10
-146.9044988313
 20
-15.670294905
 30
0.0
 11
-145.3044988313
 21
-17.270294905
 31
0.0
  0
LINE
  5
D1
330
C0
100
AcDbEntity
  8
SLD-0
  6
Continuous
 62
   179
100
AcDbLine
 10
-146.9044988313
 20
-14.9631881238
 30
0.0
 11
-145.3044988313
 21
-16.5631881238
 31
0.0
  0
LINE
  5
D2
330
C0
100
AcDbEntity
  8
SLD-0
  6
Continuous
 62
   179
100
AcDbLine
 10
-146.9044988313
 20
-14.2560813426
 30
0.0
 11
-145.3044988313
 21
-15.8560813426
 31
0.0
  0
LINE
  5
D3
330
C0
100
AcDbEntity
  8
SLD-0
  6
Continuous
 62
   179
100
AcDbLine
 10
-146.9044988313
 20
-13.5489745614
 30
0.0
 11
-145.3044988313
 21
-15.1489745614
 31
0.0
  0
LINE
  5
D4
330
C0
100
AcDbEntity
  8
SLD-0
  6
Continuous
 62
   179
100
AcDbLine
 10
-146.9044988313
 20
-12.8418677802
 30
0.0
 11
-145.3044988313
 21
-14.4418677802
 31
0.0
  0
LINE
  5
D5
330
C0
100
AcDbEntity
  8
SLD-0
  6
Continuous
 62
   179
100
AcDbLine
 10
-146.9044988313
 20
-12.1347609991
 30
0.0
 11
-145.3044988313
 21
-13.7347609991
 31
0.0
  0
LINE
  5
D6
330
C0
100
AcDbEntity
  8
SLD-0
  6
Continuous
 62
   179
100
AcDbLine
 10
-146.9044988313
 20
-11.4276542179
 30
0.0
 11
-145.3044988313
 21
-13.0276542179
 31
0.0
  0
LINE
  5
D7
330
C0
100
AcDbEntity
  8
SLD-0
  6
Continuous
 62
   179
100
AcDbLine
 10
-146.9044988313
 20
-10.7205474367
 30
0.0
 11
-145.3044988313
 21
-12.3205474367
 31
0.0
  0
LINE
  5
D8
330
C0
100
AcDbEntity
  8
SLD-0
  6
Continuous
 62
   179
100
AcDbLine
 10
-146.1760401463
 20
-10.7418993405
 30
0.0
 11
-145.3044988313
 21
-11.6134406555
 31
0.0
  0
LINE
  5
D9
330
C0
100
AcDbEntity
  8
SLD-0
  6
Continuous
 62
   179
100
AcDbLine
 10
-146.9044988313
 20
-26.984003404
 30
0.0
 11
-145.3044988313
 21
-28.584003404
 31
0.0
  0
LINE
  5
DA
330
C0
100
AcDbEntity
  8
SLD-0
  6
Continuous
 62
   179
100
AcDbLine
 10
-146.9044988313
 20
-27.6911101852
 30
0.0
 11
-145.3044988313
 21
-29.2911101852
 31
0.0
  0
LINE
  5
DB
330
C0
100
AcDbEntity
  8
SLD-0
  6
Continuous
 62
   179
100
AcDbLine
 10
-146.9044988313
 20
-28.3982169663
 30
0.0
 11
-145.3044988313
 21
-29.9982169663
 31
0.0
  0
LINE
  5
DC
330
C0
100
AcDbEntity
  8
SLD-0
  6
Continuous
 62
   179
100
AcDbLine
 10
-146.9044988313
 20
-29.1053237475
 30
0.0
 11
-145.3044988313
 21
-30.7053237475
 31
0.0
  0
LINE
  5
DD
330
C0
100
AcDbEntity
  8
SLD-0
  6
Continuous
 62
   179
100
AcDbLine
 10
-146.9044988313
 20
-29.8124305287
 30
0.0
 11
-145.5774105268
 21
-31.1395188333
 31
0.0
  0
ENDBLK
  5
C2
330
C0
100
AcDbEntity
  8
0
100
AcDbBlockEnd
  0
BLOCK
  5
DF
330
DE
100
AcDbEntity
  8
0
100
AcDbBlockBegin
  2
DC_GROUP_83
 70
     0
 10
0.0
 20
0.0
 30
0.0
  3
DC_GROUP_83
  1

  0
LINE
  5
E1
330
DE
100
AcDbEntity
  8
SLD-0
  6
Continuous
 62
     9
100
AcDbLine
 10
-145.1094199524
 20
-24.5963235673
 30
0.0
 11
-129.1461005582
 21
-52.2456038156
 31
0.0
  0
LINE
  5
E2
330
DE
100
AcDbEntity
  8
SLD-0
  6
Continuous
 62
     9
100
AcDbLine
 10
-129.1461005582
 20
-52.2456038156
 30
0.0
 11
-110.7711005582
 21
-52.2456038156
 31
0.0
  0
MTEXT
  5
E4
330
DE
100
AcDbEntity
  8
SLD-0
100
AcDbMText
 10
-129.1461005582
 20
-48.183866661
 30
0.0
 40
3.5
 41
0.0
 71
     1
 72
     1
  1
六角ナットＭ3
  7
SLDTEXTSTYLE2
 73
     1
 44
1.0
  0
INSERT
  5
2E5
330
DE
100
AcDbEntity
  8
0
  6
Continuous
 62
     7
100
AcDbBlockReference
  2
_OPEN30_68
 10
0.0
 20
0.0
 30
0.0
  0
ENDBLK
  5
E0
330
DE
100
AcDbEntity
  8
0
100
AcDbBlockEnd
  0
BLOCK
  5
E6
330
E5
100
AcDbEntity
  8
0
100
AcDbBlockBegin
  2
_OPEN30_68
 70
     0
 10
0.0
 20
0.0
 30
0.0
  3
_OPEN30_68
  1

  0
LINE
  5
E8
330
E5
100
AcDbEntity
  8
SLD-0
  6
Continuous
 62
     9
100
AcDbLine
 10
-144.3055680043
 20
-27.5963242858
 30
0.0
 11
-145.1094199524
 21
-24.5963235673
 31
0.0
  0
LINE
  5
E9
330
E5
100
AcDbEntity
  8
SLD-0
  6
Continuous
 62
     9
100
AcDbLine
 10
-145.1094199524
 20
-24.5963235673
 30
0.0
 11
-142.913269093
 21
-26.7924801345
 31
0.0
  0
LINE
  5
EA
330
E5
100
AcDbEntity
  8
SLD-0
  6
Continuous
 62
     9
100
AcDbLine
 10
-145.1094199524
 20
-24.5963235673
 30
0.0
 11
-143.6094185486
 21
-27.1944022101
 31
0.0
  0
ENDBLK
  5
E7
330
E5
100
AcDbEntity
  8
0
100
AcDbBlockEnd
  0
BLOCK
  5
EC
330
EB
100
AcDbEntity
  8
0
100
AcDbBlockBegin
  2
DC_GROUP_84
 70
     0
 10
0.0
 20
0.0
 30
0.0
  3
DC_GROUP_84
  1

  0
LINE
  5
EE
330
EB
100
AcDbEntity
  8
SLD-0
  6
Continuous
 62
     9
100
AcDbLine
 10
-142.1786467048
 20
-22.8963235673
 30
0.0
 11
-129.6096145302
 21
-44.6665258957
 31
0.0
  0
LINE
  5
EF
330
EB
100
AcDbEntity
  8
SLD-0
  6
Continuous
 62
     9
100
AcDbLine
 10
-129.6096145302
 20
-44.6665258957
 30
0.0
 11
-108.6096145302
 21
-44.6665258957
 31
0.0
  0
MTEXT
  5
F1
330
EB
100
AcDbEntity
  8
SLD-0
100
AcDbMText
 10
-129.6096145302
 20
-40.604788741
 30
0.0
 40
3.5
 41
0.0
 71
     1
 72
     1
  1
　　　Ｍ3×12
  7
SLDTEXTSTYLE3
 73
     1
 44
1.0
  0
INSERT
  5
2E6
330
EB
100
AcDbEntity
  8
0
  6
Continuous
 62
     7
100
AcDbBlockReference
  2
_OPEN30_69
 10
0.0
 20
0.0
 30
0.0
  0
ENDBLK
  5
ED
330
EB
100
AcDbEntity
  8
0
100
AcDbBlockEnd
  0
BLOCK
  5
F3
330
F2
100
AcDbEntity
  8
0
100
AcDbBlockBegin
  2
_OPEN30_69
 70
     0
 10
0.0
 20
0.0
 30
0.0
  3
_OPEN30_69
  1

  0
LINE
  5
F5
330
F2
100
AcDbEntity
  8
SLD-0
  6
Continuous
 62
     9
100
AcDbLine
 10
-141.3747947566
 20
-25.8963242858
 30
0.0
 11
-142.1786467048
 21
-22.8963235673
 31
0.0
  0
LINE
  5
F6
330
F2
100
AcDbEntity
  8
SLD-0
  6
Continuous
 62
     9
100
AcDbLine
 10
-142.1786467048
 20
-22.8963235673
 30
0.0
 11
-139.9824958453
 21
-25.0924801345
 31
0.0
  0
LINE
  5
F7
330
F2
100
AcDbEntity
  8
SLD-0
  6
Continuous
 62
     9
100
AcDbLine
 10
-142.1786467048
 20
-22.8963235673
 30
0.0
 11
-140.678645301
 21
-25.4944022101
 31
0.0
  0
ENDBLK
  5
F4
330
F2
100
AcDbEntity
  8
0
100
AcDbBlockEnd
  0
BLOCK
  5
F9
330
F8
100
AcDbEntity
  8
0
100
AcDbBlockBegin
  2
DA_IMAGEDIMGROUP_30
 70
     0
 10
0.0
 20
0.0
 30
0.0
  3
DA_IMAGEDIMGROUP_30
  1

  0
LINE
  5
FB
330
F8
100
AcDbEntity
  8
SLD-0
  6
Continuous
 62
     9
100
AcDbLine
 10
-99.7421218313
 20
-43.3963235673
 30
0.0
 11
-99.7421218313
 21
-56.1593515918
 31
0.0
  0
LINE
  5
FC
330
F8
100
AcDbEntity
  8
SLD-0
  6
Continuous
 62
     9
100
AcDbLine
 10
-94.3421218313
 20
-28.4735165034
 30
0.0
 11
-94.3421218313
 21
-56.1593515918
 31
0.0
  0
LINE
  5
FD
330
F8
100
AcDbEntity
  8
SLD-0
  6
Continuous
 62
     9
100
AcDbLine
 10
-99.7421218313
 20
-55.1593515918
 30
0.0
 11
-94.3421218313
 21
-55.1593515918
 31
0.0
  0
LINE
  5
FE
330
F8
100
AcDbEntity
  8
SLD-0
  6
Continuous
 62
     9
100
AcDbLine
 10
-82.5881218313
 20
-55.1593515918
 30
0.0
 11
-94.3421218313
 21
-55.1593515918
 31
0.0
  0
LINE
  5
FF
330
F8
100
AcDbEntity
  8
SLD-0
  6
Continuous
 62
     9
100
AcDbLine
 10
-104.7421218313
 20
-55.1593515918
 30
0.0
 11
-99.7421218313
 21
-55.1593515918
 31
0.0
  0
MTEXT
  5
101
330
F8
100
AcDbEntity
  8
SLD-0
100
AcDbMText
 10
-91.4631218313
 20
-50.8476144371
 30
0.0
 40
3.5
 41
0.0
 71
     1
 72
     1
  1
5.4
  7
SLDTEXTSTYLE4
 73
     1
 44
1.0
  0
INSERT
  5
2E7
330
F8
100
AcDbEntity
  8
0
  6
Continuous
 62
     7
100
AcDbBlockReference
  2
_OPEN30_62
 10
0.0
 20
0.0
 30
0.0
  0
INSERT
  5
2E8
330
F8
100
AcDbEntity
  8
0
  6
Continuous
 62
     7
100
AcDbBlockReference
  2
_OPEN30_63
 10
0.0
 20
0.0
 30
0.0
  0
ENDBLK
  5
FA
330
F8
100
AcDbEntity
  8
0
100
AcDbBlockEnd
  0
BLOCK
  5
103
330
102
100
AcDbEntity
  8
0
100
AcDbBlockBegin
  2
_OPEN30_62
 70
     0
 10
0.0
 20
0.0
 30
0.0
  3
_OPEN30_62
  1

  0
LINE
  5
105
330
102
100
AcDbEntity
  8
SLD-0
  6
Continuous
 62
     9
100
AcDbLine
 10
-91.3421190237
 20
-55.963195743
 30
0.0
 11
-94.3421218313
 21
-55.1593515918
 31
0.0
  0
LINE
  5
106
330
102
100
AcDbEntity
  8
SLD-0
  6
Continuous
 62
     9
100
AcDbLine
 10
-94.3421218313
 20
-55.1593515918
 30
0.0
 11
-91.3421190237
 21
-54.3555074405
 31
0.0
  0
LINE
  5
107
330
102
100
AcDbEntity
  8
SLD-0
  6
Continuous
 62
     9
100
AcDbLine
 10
-94.3421218313
 20
-55.1593515918
 30
0.0
 11
-91.3421190237
 21
-55.1593515918
 31
0.0
  0
ENDBLK
  5
104
330
102
100
AcDbEntity
  8
0
100
AcDbBlockEnd
  0
BLOCK
  5
109
330
108
100
AcDbEntity
  8
0
100
AcDbBlockBegin
  2
_OPEN30_63
 70
     0
 10
0.0
 20
0.0
 30
0.0
  3
_OPEN30_63
  1

  0
LINE
  5
10B
330
108
100
AcDbEntity
  8
SLD-0
  6
Continuous
 62
     9
100
AcDbLine
 10
-102.7421246389
 20
-54.3555074405
 30
0.0
 11
-99.7421218313
 21
-55.1593515918
 31
0.0
  0
LINE
  5
10C
330
108
100
AcDbEntity
  8
SLD-0
  6
Continuous
 62
     9
100
AcDbLine
 10
-99.7421218313
 20
-55.1593515918
 30
0.0
 11
-102.7421246389
 21
-55.963195743
 31
0.0
  0
LINE
  5
10D
330
108
100
AcDbEntity
  8
SLD-0
  6
Continuous
 62
     9
100
AcDbLine
 10
-99.7421218313
 20
-55.1593515918
 30
0.0
 11
-102.7421246389
 21
-55.1593515918
 31
0.0
  0
ENDBLK
  5
10A
330
108
100
AcDbEntity
  8
0
100
AcDbBlockEnd
  0
BLOCK
  5
10F
330
10E
100
AcDbEntity
  8
0
100
AcDbBlockBegin
  2
DC_GROUP_76
 70
     0
 10
0.0
 20
0.0
 30
0.0
  3
DC_GROUP_76
  1

  0
ARC
  5
111
330
10E
100
AcDbEntity
  8
SLD-0
  6
Continuous
 62
    32
100
AcDbCircle
 10
-144.0555909305
 20
-23.8024669472
 30
0.0
 40
1.151092099196794
100
AcDbArc
 50
316.3971810273
 51
43.6028189727
  0
ARC
  5
112
330
10E
100
AcDbEntity
  8
SLD-0
  6
Continuous
 62
    32
100
AcDbCircle
 10
-144.0555909305
 20
-18.9901801875
 30
0.0
 40
1.151092099196794
100
AcDbArc
 50
316.3971810273
 51
43.6028189727
  0
ARC
  5
113
330
10E
100
AcDbEntity
  8
SLD-0
  6
Continuous
 62
    32
100
AcDbCircle
 10
-147.1563716828
 20
-21.3963235673
 30
0.0
 40
4.251872851528799
100
AcDbArc
 50
337.7162035264
 51
22.2837964736
  0
LINE
  5
114
330
10E
100
AcDbEntity
  8
SLD-0
  6
Continuous
 62
    32
100
AcDbLine
 10
-145.3044988313
 20
-24.5963235673
 30
0.0
 11
-143.2220414794
 21
-24.5963235673
 31
0.0
  0
LINE
  5
115
330
10E
100
AcDbEntity
  8
SLD-0
  6
Continuous
 62
    32
100
AcDbLine
 10
-143.2220414794
 20
-23.0086103271
 30
0.0
 11
-145.3044988313
 21
-23.0086103271
 31
0.0
  0
LINE
  5
116
330
10E
100
AcDbEntity
  8
SLD-0
  6
Continuous
 62
    32
100
AcDbLine
 10
-145.3044988313
 20
-24.5963235673
 30
0.0
 11
-145.3044988313
 21
-18.1963235673
 31
0.0
  0
LINE
  5
117
330
10E
100
AcDbEntity
  8
SLD-0
  6
Continuous
 62
    32
100
AcDbLine
 10
-142.9044988313
 20
-23.8024669472
 30
0.0
 11
-142.9044988313
 21
-18.9901801875
 31
0.0
  0
LINE
  5
118
330
10E
100
AcDbEntity
  8
SLD-0
  6
Continuous
 62
    32
100
AcDbLine
 10
-145.3044988313
 20
-18.1963235673
 30
0.0
 11
-143.2220414794
 21
-18.1963235673
 31
0.0
  0
LINE
  5
119
330
10E
100
AcDbEntity
  8
SLD-0
  6
Continuous
 62
    32
100
AcDbLine
 10
-145.3044988313
 20
-19.7840368076
 30
0.0
 11
-143.2220414794
 21
-19.7840368076
 31
0.0
  0
ENDBLK
  5
110
330
10E
100
AcDbEntity
  8
0
100
AcDbBlockEnd
  0
BLOCK
  5
11B
330
11A
100
AcDbEntity
  8
0
100
AcDbBlockBegin
  2
DA_IMAGEDIMGROUP_31
 70
     0
 10
0.0
 20
0.0
 30
0.0
  3
DA_IMAGEDIMGROUP_31
  1

  0
LINE
  5
11D
330
11A
100
AcDbEntity
  8
SLD-0
  6
Continuous
 62
     9
100
AcDbLine
 10
-184.3329187058
 20
-42.8963235673
 30
0.0
 11
-184.3329187058
 21
3.1036772029
 31
0.0
  0
LINE
  5
11E
330
11A
100
AcDbEntity
  8
SLD-0
  6
Continuous
 62
     9
100
AcDbLine
 10
-171.8044988313
 20
-42.8963235673
 30
0.0
 11
-185.3329187058
 21
-42.8963235673
 31
0.0
  0
LINE
  5
11F
330
11A
100
AcDbEntity
  8
SLD-0
  6
Continuous
 62
     9
100
AcDbLine
 10
-170.5283038313
 20
3.1036764534
 30
0.0
 11
-185.3329187058
 21
3.1036772572
 31
0.0
  0
MTEXT
  5
121
330
11A
100
AcDbEntity
  8
SLD-0
100
AcDbMText
 10
-188.6446558605
 20
-20.1762144215
 30
0.0
 40
3.5
 41
0.0
 71
     1
 72
     1
  1
46
  7
SLDTEXTSTYLE5
 11
6.123233995736766E-17
 21
1.0
 31
0.0
 73
     1
 44
1.0
  0
INSERT
  5
2E9
330
11A
100
AcDbEntity
  8
0
  6
Continuous
 62
     7
100
AcDbBlockReference
  2
_OPEN30_64
 10
0.0
 20
0.0
 30
0.0
  0
INSERT
  5
2EA
330
11A
100
AcDbEntity
  8
0
  6
Continuous
 62
     7
100
AcDbBlockReference
  2
_OPEN30_65
 10
0.0
 20
0.0
 30
0.0
  0
ENDBLK
  5
11C
330
11A
100
AcDbEntity
  8
0
100
AcDbBlockEnd
  0
BLOCK
  5
123
330
122
100
AcDbEntity
  8
0
100
AcDbBlockBegin
  2
_OPEN30_64
 70
     0
 10
0.0
 20
0.0
 30
0.0
  3
_OPEN30_64
  1

  0
LINE
  5
125
330
122
100
AcDbEntity
  8
SLD-0
  6
Continuous
 62
     9
100
AcDbLine
 10
-183.5290745546
 20
-39.8963207597
 30
0.0
 11
-184.3329187058
 21
-42.8963235673
 31
0.0
  0
LINE
  5
126
330
122
100
AcDbEntity
  8
SLD-0
  6
Continuous
 62
     9
100
AcDbLine
 10
-184.3329187058
 20
-42.8963235673
 30
0.0
 11
-185.1367628571
 21
-39.8963207597
 31
0.0
  0
LINE
  5
127
330
122
100
AcDbEntity
  8
SLD-0
  6
Continuous
 62
     9
100
AcDbLine
 10
-184.3329187058
 20
-42.8963235673
 30
0.0
 11
-184.3329187058
 21
-39.8963207597
 31
0.0
  0
ENDBLK
  5
124
330
122
100
AcDbEntity
  8
0
100
AcDbBlockEnd
  0
BLOCK
  5
129
330
128
100
AcDbEntity
  8
0
100
AcDbBlockBegin
  2
_OPEN30_65
 70
     0
 10
0.0
 20
0.0
 30
0.0
  3
_OPEN30_65
  1

  0
LINE
  5
12B
330
128
100
AcDbEntity
  8
SLD-0
  6
Continuous
 62
     9
100
AcDbLine
 10
-185.1367628571
 20
0.1036743953
 30
0.0
 11
-184.3329187058
 21
3.1036772029
 31
0.0
  0
LINE
  5
12C
330
128
100
AcDbEntity
  8
SLD-0
  6
Continuous
 62
     9
100
AcDbLine
 10
-184.3329187058
 20
3.1036772029
 30
0.0
 11
-183.5290745546
 21
0.1036743953
 31
0.0
  0
LINE
  5
12D
330
128
100
AcDbEntity
  8
SLD-0
  6
Continuous
 62
     9
100
AcDbLine
 10
-184.3329187058
 20
3.1036772029
 30
0.0
 11
-184.3329187058
 21
0.1036743953
 31
0.0
  0
ENDBLK
  5
12A
330
128
100
AcDbEntity
  8
0
100
AcDbBlockEnd
  0
BLOCK
  5
12F
330
12E
100
AcDbEntity
  8
0
100
AcDbBlockBegin
  2
DA_IMAGEDIMGROUP_32
 70
     0
 10
0.0
 20
0.0
 30
0.0
  3
DA_IMAGEDIMGROUP_32
  1

  0
LINE
  5
131
330
12E
100
AcDbEntity
  8
SLD-0
  6
Continuous
 62
     9
100
AcDbLine
 10
-130.9611794893
 20
-21.3963235673
 30
0.0
 11
-130.9611794893
 21
-2.8963235673
 31
0.0
  0
MTEXT
  5
132
330
12E
100
AcDbEntity
  8
SLD-0
100
AcDbMText
 10
-135.0229166439
 20
-17.3963235673
 30
0.0
 40
3.5
 41
0.0
 71
     1
 72
     1
  1
18.5
  7
SLDTEXTSTYLE1
 11
6.123233995736766E-17
 21
1.0
 31
0.0
 73
     1
 44
1.0
  0
INSERT
  5
2EB
330
12E
100
AcDbEntity
  8
0
  6
Continuous
 62
     7
100
AcDbBlockReference
  2
_OPEN30_66
 10
0.0
 20
0.0
 30
0.0
  0
INSERT
  5
2EC
330
12E
100
AcDbEntity
  8
0
  6
Continuous
 62
     7
100
AcDbBlockReference
  2
_OPEN30_67
 10
0.0
 20
0.0
 30
0.0
  0
ENDBLK
  5
130
330
12E
100
AcDbEntity
  8
0
100
AcDbBlockEnd
  0
BLOCK
  5
134
330
133
100
AcDbEntity
  8
0
100
AcDbBlockBegin
  2
_OPEN30_66
 70
     0
 10
0.0
 20
0.0
 30
0.0
  3
_OPEN30_66
  1

  0
LINE
  5
136
330
133
100
AcDbEntity
  8
SLD-0
  6
Continuous
 62
     9
100
AcDbLine
 10
-130.1573353381
 20
-18.3963207597
 30
0.0
 11
-130.9611794893
 21
-21.3963235673
 31
0.0
  0
LINE
  5
137
330
133
100
AcDbEntity
  8
SLD-0
  6
Continuous
 62
     9
100
AcDbLine
 10
-130.9611794893
 20
-21.3963235673
 30
0.0
 11
-131.7650236405
 21
-18.3963207597
 31
0.0
  0
LINE
  5
138
330
133
100
AcDbEntity
  8
SLD-0
  6
Continuous
 62
     9
100
AcDbLine
 10
-130.9611794893
 20
-21.3963235673
 30
0.0
 11
-130.9611794893
 21
-18.3963207597
 31
0.0
  0
ENDBLK
  5
135
330
133
100
AcDbEntity
  8
0
100
AcDbBlockEnd
  0
BLOCK
  5
13A
330
139
100
AcDbEntity
  8
0
100
AcDbBlockBegin
  2
_OPEN30_67
 70
     0
 10
0.0
 20
0.0
 30
0.0
  3
_OPEN30_67
  1

  0
LINE
  5
13C
330
139
100
AcDbEntity
  8
SLD-0
  6
Continuous
 62
     9
100
AcDbLine
 10
-131.7650236405
 20
-5.8963263749
 30
0.0
 11
-130.9611794893
 21
-2.8963235673
 31
0.0
  0
LINE
  5
13D
330
139
100
AcDbEntity
  8
SLD-0
  6
Continuous
 62
     9
100
AcDbLine
 10
-130.9611794893
 20
-2.8963235673
 30
0.0
 11
-130.1573353381
 21
-5.8963263749
 31
0.0
  0
LINE
  5
13E
330
139
100
AcDbEntity
  8
SLD-0
  6
Continuous
 62
     9
100
AcDbLine
 10
-130.9611794893
 20
-2.8963235673
 30
0.0
 11
-130.9611794893
 21
-5.8963263749
 31
0.0
  0
ENDBLK
  5
13B
330
139
100
AcDbEntity
  8
0
100
AcDbBlockEnd
  0
BLOCK
  5
140
330
13F
100
AcDbEntity
  8
0
100
AcDbBlockBegin
  2
_OPEN30_52
 70
     0
 10
0.0
 20
0.0
 30
0.0
  3
_OPEN30_52
  1

  0
LINE
  5
142
330
13F
100
AcDbEntity
  8
SLD-0
  6
Continuous
 62
     9
100
AcDbLine
 10
-77.0892575889
 20
71.1036792403
 30
0.0
 11
-77.8931017401
 21
68.1036764327
 31
0.0
  0
LINE
  5
143
330
13F
100
AcDbEntity
  8
SLD-0
  6
Continuous
 62
     9
100
AcDbLine
 10
-77.8931017401
 20
68.1036764327
 30
0.0
 11
-78.6969458913
 21
71.1036792403
 31
0.0
  0
LINE
  5
144
330
13F
100
AcDbEntity
  8
SLD-0
  6
Continuous
 62
     9
100
AcDbLine
 10
-77.8931017401
 20
68.1036764327
 30
0.0
 11
-77.8931017401
 21
71.1036792403
 31
0.0
  0
ENDBLK
  5
141
330
13F
100
AcDbEntity
  8
0
100
AcDbBlockEnd
  0
BLOCK
  5
146
330
145
100
AcDbEntity
  8
0
100
AcDbBlockBegin
  2
_OPEN30_15
 70
     0
 10
0.0
 20
0.0
 30
0.0
  3
_OPEN30_15
  1

  0
LINE
  5
148
330
145
100
AcDbEntity
  8
SLD-0
  6
Continuous
 62
     9
100
AcDbLine
 10
-3.5286449595
 20
87.1036757142
 30
0.0
 11
-4.3324969077
 21
90.1036764327
 31
0.0
  0
LINE
  5
149
330
145
100
AcDbEntity
  8
SLD-0
  6
Continuous
 62
     9
100
AcDbLine
 10
-4.3324969077
 20
90.1036764327
 30
0.0
 11
-2.1363460483
 21
87.9075198655
 31
0.0
  0
LINE
  5
14A
330
145
100
AcDbEntity
  8
SLD-0
  6
Continuous
 62
     9
100
AcDbLine
 10
-4.3324969077
 20
90.1036764327
 30
0.0
 11
-2.8324955039
 21
87.5055977899
 31
0.0
  0
ENDBLK
  5
147
330
145
100
AcDbEntity
  8
0
100
AcDbBlockEnd
  0
BLOCK
  5
14C
330
14B
100
AcDbEntity
  8
0
100
AcDbBlockBegin
  2
_OPEN30_40
 70
     0
 10
0.0
 20
0.0
 30
0.0
  3
_OPEN30_40
  1

  0
LINE
  5
14E
330
14B
100
AcDbEntity
  8
SLD-0
  6
Continuous
 62
     9
100
AcDbLine
 10
7.8426646619
 20
-102.8963207597
 30
0.0
 11
7.0388205107
 21
-105.8963235673
 31
0.0
  0
LINE
  5
14F
330
14B
100
AcDbEntity
  8
SLD-0
  6
Continuous
 62
     9
100
AcDbLine
 10
7.0388205107
 20
-105.8963235673
 30
0.0
 11
6.2349763595
 21
-102.8963207597
 31
0.0
  0
LINE
  5
150
330
14B
100
AcDbEntity
  8
SLD-0
  6
Continuous
 62
     9
100
AcDbLine
 10
7.0388205107
 20
-105.8963235673
 30
0.0
 11
7.0388205107
 21
-102.8963207597
 31
0.0
  0
ENDBLK
  5
14D
330
14B
100
AcDbEntity
  8
0
100
AcDbBlockEnd
  0
BLOCK
  5
152
330
151
100
AcDbEntity
  8
0
100
AcDbBlockBegin
  2
_OPEN30_18
 70
     0
 10
0.0
 20
0.0
 30
0.0
  3
_OPEN30_18
  1

  0
LINE
  5
154
330
151
100
AcDbEntity
  8
SLD-0
  6
Continuous
 62
     9
100
AcDbLine
 10
87.0690876483
 20
71.1036792403
 30
0.0
 11
86.2652434971
 21
68.1036764327
 31
0.0
  0
LINE
  5
155
330
151
100
AcDbEntity
  8
SLD-0
  6
Continuous
 62
     9
100
AcDbLine
 10
86.2652434971
 20
68.1036764327
 30
0.0
 11
85.4613993458
 21
71.1036792403
 31
0.0
  0
LINE
  5
156
330
151
100
AcDbEntity
  8
SLD-0
  6
Continuous
 62
     9
100
AcDbLine
 10
86.2652434971
 20
68.1036764327
 30
0.0
 11
86.2652434971
 21
71.1036792403
 31
0.0
  0
ENDBLK
  5
153
330
151
100
AcDbEntity
  8
0
100
AcDbBlockEnd
  0
BLOCK
  5
158
330
157
100
AcDbEntity
  8
0
100
AcDbBlockBegin
  2
_OPEN30_35
 70
     0
 10
0.0
 20
0.0
 30
0.0
  3
_OPEN30_35
  1

  0
LINE
  5
15A
330
157
100
AcDbEntity
  8
SLD-0
  6
Continuous
 62
     9
100
AcDbLine
 10
136.6252052434
 20
-25.8963242858
 30
0.0
 11
135.8213532952
 21
-22.8963235673
 31
0.0
  0
LINE
  5
15B
330
157
100
AcDbEntity
  8
SLD-0
  6
Continuous
 62
     9
100
AcDbLine
 10
135.8213532952
 20
-22.8963235673
 30
0.0
 11
138.0175041547
 21
-25.0924801345
 31
0.0
  0
LINE
  5
15C
330
157
100
AcDbEntity
  8
SLD-0
  6
Continuous
 62
     9
100
AcDbLine
 10
135.8213532952
 20
-22.8963235673
 30
0.0
 11
137.321354699
 21
-25.4944022101
 31
0.0
  0
ENDBLK
  5
159
330
157
100
AcDbEntity
  8
0
100
AcDbBlockEnd
  0
BLOCK
  5
15E
330
15D
100
AcDbEntity
  8
0
100
AcDbBlockBegin
  2
_OPEN30_12
 70
     0
 10
0.0
 20
0.0
 30
0.0
  3
_OPEN30_12
  1

  0
LINE
  5
160
330
15D
100
AcDbEntity
  8
SLD-0
  6
Continuous
 62
     9
100
AcDbLine
 10
59.0335579053
 20
-39.8963207597
 30
0.0
 11
58.2297137541
 21
-42.8963235673
 31
0.0
  0
LINE
  5
161
330
15D
100
AcDbEntity
  8
SLD-0
  6
Continuous
 62
     9
100
AcDbLine
 10
58.2297137541
 20
-42.8963235673
 30
0.0
 11
57.4258696029
 21
-39.8963207597
 31
0.0
  0
LINE
  5
162
330
15D
100
AcDbEntity
  8
SLD-0
  6
Continuous
 62
     9
100
AcDbLine
 10
58.2297137541
 20
-42.8963235673
 30
0.0
 11
58.2297137541
 21
-39.8963207597
 31
0.0
  0
ENDBLK
  5
15F
330
15D
100
AcDbEntity
  8
0
100
AcDbBlockEnd
  0
BLOCK
  5
164
330
163
100
AcDbEntity
  8
0
100
AcDbBlockBegin
  2
_OPEN30_44
 70
     0
 10
0.0
 20
0.0
 30
0.0
  3
_OPEN30_44
  1

  0
LINE
  5
166
330
163
100
AcDbEntity
  8
SLD-0
  6
Continuous
 62
     9
100
AcDbLine
 10
-6.3055680043
 20
-112.0963242858
 30
0.0
 11
-7.1094199524
 21
-109.0963235673
 31
0.0
  0
LINE
  5
167
330
163
100
AcDbEntity
  8
SLD-0
  6
Continuous
 62
     9
100
AcDbLine
 10
-7.1094199524
 20
-109.0963235673
 30
0.0
 11
-4.913269093
 21
-111.2924801345
 31
0.0
  0
LINE
  5
168
330
163
100
AcDbEntity
  8
SLD-0
  6
Continuous
 62
     9
100
AcDbLine
 10
-7.1094199524
 20
-109.0963235673
 30
0.0
 11
-5.6094185486
 21
-111.6944022101
 31
0.0
  0
ENDBLK
  5
165
330
163
100
AcDbEntity
  8
0
100
AcDbBlockEnd
  0
BLOCK
  5
16A
330
169
100
AcDbEntity
  8
0
100
AcDbBlockBegin
  2
_OPEN30_49
 70
     0
 10
0.0
 20
0.0
 30
0.0
  3
_OPEN30_49
  1

  0
LINE
  5
16C
330
169
100
AcDbEntity
  8
SLD-0
  6
Continuous
 62
     9
100
AcDbLine
 10
-96.7421246389
 20
59.4855493432
 30
0.0
 11
-93.7421218313
 21
58.6817051919
 31
0.0
  0
LINE
  5
16D
330
169
100
AcDbEntity
  8
SLD-0
  6
Continuous
 62
     9
100
AcDbLine
 10
-93.7421218313
 20
58.6817051919
 30
0.0
 11
-96.7421246389
 21
57.8778610407
 31
0.0
  0
LINE
  5
16E
330
169
100
AcDbEntity
  8
SLD-0
  6
Continuous
 62
     9
100
AcDbLine
 10
-93.7421218313
 20
58.6817051919
 30
0.0
 11
-96.7421246389
 21
58.6817051919
 31
0.0
  0
ENDBLK
  5
16B
330
169
100
AcDbEntity
  8
0
100
AcDbBlockEnd
  0
BLOCK
  5
170
330
16F
100
AcDbEntity
  8
0
100
AcDbBlockBegin
  2
_OPEN30_9
 70
     0
 10
0.0
 20
0.0
 30
0.0
  3
_OPEN30_9
  1

  0
LINE
  5
172
330
16F
100
AcDbEntity
  8
SLD-0
  6
Continuous
 62
     9
100
AcDbLine
 10
59.2540313023
 20
88.6036736251
 30
0.0
 11
60.0578754536
 21
91.6036764327
 31
0.0
  0
LINE
  5
173
330
16F
100
AcDbEntity
  8
SLD-0
  6
Continuous
 62
     9
100
AcDbLine
 10
60.0578754536
 20
91.6036764327
 30
0.0
 11
60.8617196048
 21
88.6036736251
 31
0.0
  0
LINE
  5
174
330
16F
100
AcDbEntity
  8
SLD-0
  6
Continuous
 62
     9
100
AcDbLine
 10
60.0578754536
 20
91.6036764327
 30
0.0
 11
60.0578754536
 21
88.6036736251
 31
0.0
  0
ENDBLK
  5
171
330
16F
100
AcDbEntity
  8
0
100
AcDbBlockEnd
  0
BLOCK
  5
176
330
175
100
AcDbEntity
  8
0
100
AcDbBlockBegin
  2
_OPEN30_32
 70
     0
 10
0.0
 20
0.0
 30
0.0
  3
_OPEN30_32
  1

  0
LINE
  5
178
330
175
100
AcDbEntity
  8
SLD-0
  6
Continuous
 62
     9
100
AcDbLine
 10
133.5405817928
 20
85.4036757142
 30
0.0
 11
132.7367298447
 21
88.4036764327
 31
0.0
  0
LINE
  5
179
330
175
100
AcDbEntity
  8
SLD-0
  6
Continuous
 62
     9
100
AcDbLine
 10
132.7367298447
 20
88.4036764327
 30
0.0
 11
134.9328807041
 21
86.2075198655
 31
0.0
  0
LINE
  5
17A
330
175
100
AcDbEntity
  8
SLD-0
  6
Continuous
 62
     9
100
AcDbLine
 10
132.7367298447
 20
88.4036764327
 30
0.0
 11
134.2367312485
 21
85.8055977899
 31
0.0
  0
ENDBLK
  5
177
330
175
100
AcDbEntity
  8
0
100
AcDbBlockEnd
  0
BLOCK
  5
17C
330
17B
100
AcDbEntity
  8
0
100
AcDbBlockBegin
  2
_OPEN30_29
 70
     0
 10
0.0
 20
0.0
 30
0.0
  3
_OPEN30_29
  1

  0
LINE
  5
17E
330
17B
100
AcDbEntity
  8
SLD-0
  6
Continuous
 62
     9
100
AcDbLine
 10
181.2578753611
 20
59.4855493432
 30
0.0
 11
184.2578781687
 21
58.6817051919
 31
0.0
  0
LINE
  5
17F
330
17B
100
AcDbEntity
  8
SLD-0
  6
Continuous
 62
     9
100
AcDbLine
 10
184.2578781687
 20
58.6817051919
 30
0.0
 11
181.2578753611
 21
57.8778610407
 31
0.0
  0
LINE
  5
180
330
17B
100
AcDbEntity
  8
SLD-0
  6
Continuous
 62
     9
100
AcDbLine
 10
184.2578781687
 20
58.6817051919
 30
0.0
 11
181.2578753611
 21
58.6817051919
 31
0.0
  0
ENDBLK
  5
17D
330
17B
100
AcDbEntity
  8
0
100
AcDbBlockEnd
  0
BLOCK
  5
182
330
181
100
AcDbEntity
  8
0
100
AcDbBlockBegin
  2
_OPEN30_78
 70
     0
 10
0.0
 20
0.0
 30
0.0
  3
_OPEN30_78
  1

  0
LINE
  5
184
330
181
100
AcDbEntity
  8
LAYER0016
  6
Continuous
 62
     9
100
AcDbLine
 10
-393.6428651192
 20
96.8410776076
 30
0.0
 11
-394.4467170674
 21
99.8410783261
 31
0.0
  0
LINE
  5
185
330
181
100
AcDbEntity
  8
LAYER0016
  6
Continuous
 62
     9
100
AcDbLine
 10
-394.4467170674
 20
99.8410783261
 30
0.0
 11
-392.2505662079
 21
97.6449217588
 31
0.0
  0
LINE
  5
186
330
181
100
AcDbEntity
  8
LAYER0016
  6
Continuous
 62
     9
100
AcDbLine
 10
-394.4467170674
 20
99.8410783261
 30
0.0
 11
-392.9467156636
 21
97.2429996832
 31
0.0
  0
ENDBLK
  5
183
330
181
100
AcDbEntity
  8
0
100
AcDbBlockEnd
  0
BLOCK
  5
188
330
187
100
AcDbEntity
  8
0
100
AcDbBlockBegin
  2
_OPEN30_10
 70
     0
 10
0.0
 20
0.0
 30
0.0
  3
_OPEN30_10
  1

  0
LINE
  5
18A
330
187
100
AcDbEntity
  8
SLD-0
  6
Continuous
 62
     9
100
AcDbLine
 10
41.2578809763
 20
57.8778610407
 30
0.0
 11
38.2578781687
 21
58.6817051919
 31
0.0
  0
LINE
  5
18B
330
187
100
AcDbEntity
  8
SLD-0
  6
Continuous
 62
     9
100
AcDbLine
 10
38.2578781687
 20
58.6817051919
 30
0.0
 11
41.2578809763
 21
59.4855493432
 31
0.0
  0
LINE
  5
18C
330
187
100
AcDbEntity
  8
SLD-0
  6
Continuous
 62
     9
100
AcDbLine
 10
38.2578781687
 20
58.6817051919
 30
0.0
 11
41.2578809763
 21
58.6817051919
 31
0.0
  0
ENDBLK
  5
189
330
187
100
AcDbEntity
  8
0
100
AcDbBlockEnd
  0
BLOCK
  5
18E
330
18D
100
AcDbEntity
  8
0
100
AcDbBlockBegin
  2
_OPEN30_7
 70
     0
 10
0.0
 20
0.0
 30
0.0
  3
_OPEN30_7
  1

  0
LINE
  5
190
330
18D
100
AcDbEntity
  8
SLD-0
  6
Continuous
 62
     9
100
AcDbLine
 10
13.6446766909
 20
107.1036736251
 30
0.0
 11
14.4485208422
 21
110.1036764327
 31
0.0
  0
LINE
  5
191
330
18D
100
AcDbEntity
  8
SLD-0
  6
Continuous
 62
     9
100
AcDbLine
 10
14.4485208422
 20
110.1036764327
 30
0.0
 11
15.2523649934
 21
107.1036736251
 31
0.0
  0
LINE
  5
192
330
18D
100
AcDbEntity
  8
SLD-0
  6
Continuous
 62
     9
100
AcDbLine
 10
14.4485208422
 20
110.1036764327
 30
0.0
 11
14.4485208422
 21
107.1036736251
 31
0.0
  0
ENDBLK
  5
18F
330
18D
100
AcDbEntity
  8
0
100
AcDbBlockEnd
  0
BLOCK
  5
194
330
193
100
AcDbEntity
  8
0
100
AcDbBlockBegin
  2
_OPEN30_54
 70
     0
 10
0.0
 20
0.0
 30
0.0
  3
_OPEN30_54
  1

  0
LINE
  5
196
330
193
100
AcDbEntity
  8
SLD-0
  6
Continuous
 62
     9
100
AcDbLine
 10
-122.7476350066
 20
92.1036792403
 30
0.0
 11
-123.5514791578
 21
89.1036764327
 31
0.0
  0
LINE
  5
197
330
193
100
AcDbEntity
  8
SLD-0
  6
Continuous
 62
     9
100
AcDbLine
 10
-123.5514791578
 20
89.1036764327
 30
0.0
 11
-124.3553233091
 21
92.1036792403
 31
0.0
  0
LINE
  5
198
330
193
100
AcDbEntity
  8
SLD-0
  6
Continuous
 62
     9
100
AcDbLine
 10
-123.5514791578
 20
89.1036764327
 30
0.0
 11
-123.5514791578
 21
92.1036792403
 31
0.0
  0
ENDBLK
  5
195
330
193
100
AcDbEntity
  8
0
100
AcDbBlockEnd
  0
BLOCK
  5
19A
330
199
100
AcDbEntity
  8
0
100
AcDbBlockBegin
  2
_OPEN30_25
 70
     0
 10
0.0
 20
0.0
 30
0.0
  3
_OPEN30_25
  1

  0
LINE
  5
19C
330
199
100
AcDbEntity
  8
SLD-0
  6
Continuous
 62
     9
100
AcDbLine
 10
153.6446766909
 20
107.1036736251
 30
0.0
 11
154.4485208422
 21
110.1036764327
 31
0.0
  0
LINE
  5
19D
330
199
100
AcDbEntity
  8
SLD-0
  6
Continuous
 62
     9
100
AcDbLine
 10
154.4485208422
 20
110.1036764327
 30
0.0
 11
155.2523649934
 21
107.1036736251
 31
0.0
  0
LINE
  5
19E
330
199
100
AcDbEntity
  8
SLD-0
  6
Continuous
 62
     9
100
AcDbLine
 10
154.4485208422
 20
110.1036764327
 30
0.0
 11
154.4485208422
 21
107.1036736251
 31
0.0
  0
ENDBLK
  5
19B
330
199
100
AcDbEntity
  8
0
100
AcDbBlockEnd
  0
BLOCK
  5
1A0
330
19F
100
AcDbEntity
  8
0
100
AcDbBlockBegin
  2
_OPEN30_5
 70
     0
 10
0.0
 20
0.0
 30
0.0
  3
_OPEN30_5
  1

  0
LINE
  5
1A2
330
19F
100
AcDbEntity
  8
SLD-0
  6
Continuous
 62
     9
100
AcDbLine
 10
6.2349763595
 20
-5.8963263749
 30
0.0
 11
7.0388205107
 21
-2.8963235673
 31
0.0
  0
LINE
  5
1A3
330
19F
100
AcDbEntity
  8
SLD-0
  6
Continuous
 62
     9
100
AcDbLine
 10
7.0388205107
 20
-2.8963235673
 30
0.0
 11
7.8426646619
 21
-5.8963263749
 31
0.0
  0
LINE
  5
1A4
330
19F
100
AcDbEntity
  8
SLD-0
  6
Continuous
 62
     9
100
AcDbLine
 10
7.0388205107
 20
-2.8963235673
 30
0.0
 11
7.0388205107
 21
-5.8963263749
 31
0.0
  0
ENDBLK
  5
1A1
330
19F
100
AcDbEntity
  8
0
100
AcDbBlockEnd
  0
BLOCK
  5
1A6
330
1A5
100
AcDbEntity
  8
0
100
AcDbBlockBegin
  2
_OPEN30_48
 70
     0
 10
0.0
 20
0.0
 30
0.0
  3
_OPEN30_48
  1

  0
LINE
  5
1A8
330
1A5
100
AcDbEntity
  8
SLD-0
  6
Continuous
 62
     9
100
AcDbLine
 10
-96.7421190237
 20
57.8778610407
 30
0.0
 11
-99.7421218313
 21
58.6817051919
 31
0.0
  0
LINE
  5
1A9
330
1A5
100
AcDbEntity
  8
SLD-0
  6
Continuous
 62
     9
100
AcDbLine
 10
-99.7421218313
 20
58.6817051919
 30
0.0
 11
-96.7421190237
 21
59.4855493432
 31
0.0
  0
LINE
  5
1AA
330
1A5
100
AcDbEntity
  8
SLD-0
  6
Continuous
 62
     9
100
AcDbLine
 10
-99.7421218313
 20
58.6817051919
 30
0.0
 11
-96.7421190237
 21
58.6817051919
 31
0.0
  0
ENDBLK
  5
1A7
330
1A5
100
AcDbEntity
  8
0
100
AcDbBlockEnd
  0
BLOCK
  5
1AC
330
1AB
100
AcDbEntity
  8
0
100
AcDbBlockBegin
  2
_OPEN30_1
 70
     0
 10
0.0
 20
0.0
 30
0.0
  3
_OPEN30_1
  1

  0
LINE
  5
1AE
330
1AB
100
AcDbEntity
  8
SLD-0
  6
Continuous
 62
     9
100
AcDbLine
 10
-54.5907576995
 20
100.1036736251
 30
0.0
 11
-53.7869135483
 21
103.1036764327
 31
0.0
  0
LINE
  5
1AF
330
1AB
100
AcDbEntity
  8
SLD-0
  6
Continuous
 62
     9
100
AcDbLine
 10
-53.7869135483
 20
103.1036764327
 30
0.0
 11
-52.983069397
 21
100.1036736251
 31
0.0
  0
LINE
  5
1B0
330
1AB
100
AcDbEntity
  8
SLD-0
  6
Continuous
 62
     9
100
AcDbLine
 10
-53.7869135483
 20
103.1036764327
 30
0.0
 11
-53.7869135483
 21
100.1036736251
 31
0.0
  0
ENDBLK
  5
1AD
330
1AB
100
AcDbEntity
  8
0
100
AcDbBlockEnd
  0
BLOCK
  5
1B2
330
1B1
100
AcDbEntity
  8
0
100
AcDbBlockBegin
  2
_OPEN30_6
 70
     0
 10
0.0
 20
0.0
 30
0.0
  3
_OPEN30_6
  1

  0
LINE
  5
1B4
330
1B1
100
AcDbEntity
  8
SLD-0
  6
Continuous
 62
     9
100
AcDbLine
 10
15.2523649934
 20
94.6036792403
 30
0.0
 11
14.4485208422
 21
91.6036764327
 31
0.0
  0
LINE
  5
1B5
330
1B1
100
AcDbEntity
  8
SLD-0
  6
Continuous
 62
     9
100
AcDbLine
 10
14.4485208422
 20
91.6036764327
 30
0.0
 11
13.6446766909
 21
94.6036792403
 31
0.0
  0
LINE
  5
1B6
330
1B1
100
AcDbEntity
  8
SLD-0
  6
Continuous
 62
     9
100
AcDbLine
 10
14.4485208422
 20
91.6036764327
 30
0.0
 11
14.4485208422
 21
94.6036792403
 31
0.0
  0
ENDBLK
  5
1B3
330
1B1
100
AcDbEntity
  8
0
100
AcDbBlockEnd
  0
BLOCK
  5
1B8
330
1B7
100
AcDbEntity
  8
0
100
AcDbBlockBegin
  2
_OPEN30_33
 70
     0
 10
0.0
 20
0.0
 30
0.0
  3
_OPEN30_33
  1

  0
LINE
  5
1BA
330
1B7
100
AcDbEntity
  8
SLD-0
  6
Continuous
 62
     9
100
AcDbLine
 10
136.4713550405
 20
87.1036757142
 30
0.0
 11
135.6675030923
 21
90.1036764327
 31
0.0
  0
LINE
  5
1BB
330
1B7
100
AcDbEntity
  8
SLD-0
  6
Continuous
 62
     9
100
AcDbLine
 10
135.6675030923
 20
90.1036764327
 30
0.0
 11
137.8636539517
 21
87.9075198655
 31
0.0
  0
LINE
  5
1BC
330
1B7
100
AcDbEntity
  8
SLD-0
  6
Continuous
 62
     9
100
AcDbLine
 10
135.6675030923
 20
90.1036764327
 30
0.0
 11
137.1675044961
 21
87.5055977899
 31
0.0
  0
ENDBLK
  5
1B9
330
1B7
100
AcDbEntity
  8
0
100
AcDbBlockEnd
  0
BLOCK
  5
1BE
330
1BD
100
AcDbEntity
  8
0
100
AcDbBlockBegin
  2
_OPEN30_58
 70
     0
 10
0.0
 20
0.0
 30
0.0
  3
_OPEN30_58
  1

  0
LINE
  5
1C0
330
1BD
100
AcDbEntity
  8
SLD-0
  6
Continuous
 62
     9
100
AcDbLine
 10
46.6578809763
 20
-137.5494479668
 30
0.0
 11
43.6578781687
 21
-136.7456038156
 31
0.0
  0
LINE
  5
1C1
330
1BD
100
AcDbEntity
  8
SLD-0
  6
Continuous
 62
     9
100
AcDbLine
 10
43.6578781687
 20
-136.7456038156
 30
0.0
 11
46.6578809763
 21
-135.9417596644
 31
0.0
  0
LINE
  5
1C2
330
1BD
100
AcDbEntity
  8
SLD-0
  6
Continuous
 62
     9
100
AcDbLine
 10
43.6578781687
 20
-136.7456038156
 30
0.0
 11
46.6578809763
 21
-136.7456038156
 31
0.0
  0
ENDBLK
  5
1BF
330
1BD
100
AcDbEntity
  8
0
100
AcDbBlockEnd
  0
BLOCK
  5
1C4
330
1C3
100
AcDbEntity
  8
0
100
AcDbBlockBegin
  2
_OPEN30_37
 70
     0
 10
0.0
 20
0.0
 30
0.0
  3
_OPEN30_37
  1

  0
LINE
  5
1C6
330
1C3
100
AcDbEntity
  8
SLD-0
  6
Continuous
 62
     9
100
AcDbLine
 10
175.2578753611
 20
-54.3555074405
 30
0.0
 11
178.2578781687
 21
-55.1593515918
 31
0.0
  0
LINE
  5
1C7
330
1C3
100
AcDbEntity
  8
SLD-0
  6
Continuous
 62
     9
100
AcDbLine
 10
178.2578781687
 20
-55.1593515918
 30
0.0
 11
175.2578753611
 21
-55.963195743
 31
0.0
  0
LINE
  5
1C8
330
1C3
100
AcDbEntity
  8
SLD-0
  6
Continuous
 62
     9
100
AcDbLine
 10
178.2578781687
 20
-55.1593515918
 30
0.0
 11
175.2578753611
 21
-55.1593515918
 31
0.0
  0
ENDBLK
  5
1C5
330
1C3
100
AcDbEntity
  8
0
100
AcDbBlockEnd
  0
BLOCK
  5
1CA
330
1C9
100
AcDbEntity
  8
0
100
AcDbBlockBegin
  2
_OPEN30_8
 70
     0
 10
0.0
 20
0.0
 30
0.0
  3
_OPEN30_8
  1

  0
LINE
  5
1CC
330
1C9
100
AcDbEntity
  8
SLD-0
  6
Continuous
 62
     9
100
AcDbLine
 10
60.8617196048
 20
71.1036792403
 30
0.0
 11
60.0578754536
 21
68.1036764327
 31
0.0
  0
LINE
  5
1CD
330
1C9
100
AcDbEntity
  8
SLD-0
  6
Continuous
 62
     9
100
AcDbLine
 10
60.0578754536
 20
68.1036764327
 30
0.0
 11
59.2540313023
 21
71.1036792403
 31
0.0
  0
LINE
  5
1CE
330
1C9
100
AcDbEntity
  8
SLD-0
  6
Continuous
 62
     9
100
AcDbLine
 10
60.0578754536
 20
68.1036764327
 30
0.0
 11
60.0578754536
 21
71.1036792403
 31
0.0
  0
ENDBLK
  5
1CB
330
1C9
100
AcDbEntity
  8
0
100
AcDbBlockEnd
  0
BLOCK
  5
1D0
330
1CF
100
AcDbEntity
  8
0
100
AcDbBlockBegin
  2
_OPEN30_57
 70
     0
 10
0.0
 20
0.0
 30
0.0
  3
_OPEN30_57
  1

  0
LINE
  5
1D2
330
1CF
100
AcDbEntity
  8
SLD-0
  6
Continuous
 62
     9
100
AcDbLine
 10
35.2578753611
 20
-54.3555074405
 30
0.0
 11
38.2578781687
 21
-55.1593515918
 31
0.0
  0
LINE
  5
1D3
330
1CF
100
AcDbEntity
  8
SLD-0
  6
Continuous
 62
     9
100
AcDbLine
 10
38.2578781687
 20
-55.1593515918
 30
0.0
 11
35.2578753611
 21
-55.963195743
 31
0.0
  0
LINE
  5
1D4
330
1CF
100
AcDbEntity
  8
SLD-0
  6
Continuous
 62
     9
100
AcDbLine
 10
38.2578781687
 20
-55.1593515918
 30
0.0
 11
35.2578753611
 21
-55.1593515918
 31
0.0
  0
ENDBLK
  5
1D1
330
1CF
100
AcDbEntity
  8
0
100
AcDbBlockEnd
  0
BLOCK
  5
1D6
330
1D5
100
AcDbEntity
  8
0
100
AcDbBlockBegin
  2
_OPEN30_73
 70
     0
 10
0.0
 20
0.0
 30
0.0
  3
_OPEN30_73
  1

  0
LINE
  5
1D8
330
1D5
100
AcDbEntity
  8
LAYER0016
  6
Continuous
 62
     9
100
AcDbLine
 10
-373.5387702211
 20
118.5410755184
 30
0.0
 11
-372.7349260699
 21
121.5410783261
 31
0.0
  0
LINE
  5
1D9
330
1D5
100
AcDbEntity
  8
LAYER0016
  6
Continuous
 62
     9
100
AcDbLine
 10
-372.7349260699
 20
121.5410783261
 30
0.0
 11
-371.9310819186
 21
118.5410755184
 31
0.0
  0
LINE
  5
1DA
330
1D5
100
AcDbEntity
  8
LAYER0016
  6
Continuous
 62
     9
100
AcDbLine
 10
-372.7349260699
 20
121.5410783261
 30
0.0
 11
-372.7349260699
 21
118.5410755184
 31
0.0
  0
ENDBLK
  5
1D7
330
1D5
100
AcDbEntity
  8
0
100
AcDbBlockEnd
  0
BLOCK
  5
1DC
330
1DB
100
AcDbEntity
  8
0
100
AcDbBlockBegin
  2
_OPEN30_28
 70
     0
 10
0.0
 20
0.0
 30
0.0
  3
_OPEN30_28
  1

  0
LINE
  5
1DE
330
1DB
100
AcDbEntity
  8
SLD-0
  6
Continuous
 62
     9
100
AcDbLine
 10
181.2578809763
 20
57.8778610407
 30
0.0
 11
178.2578781687
 21
58.6817051919
 31
0.0
  0
LINE
  5
1DF
330
1DB
100
AcDbEntity
  8
SLD-0
  6
Continuous
 62
     9
100
AcDbLine
 10
178.2578781687
 20
58.6817051919
 30
0.0
 11
181.2578809763
 21
59.4855493432
 31
0.0
  0
LINE
  5
1E0
330
1DB
100
AcDbEntity
  8
SLD-0
  6
Continuous
 62
     9
100
AcDbLine
 10
178.2578781687
 20
58.6817051919
 30
0.0
 11
181.2578809763
 21
58.6817051919
 31
0.0
  0
ENDBLK
  5
1DD
330
1DB
100
AcDbEntity
  8
0
100
AcDbBlockEnd
  0
BLOCK
  5
1E2
330
1E1
100
AcDbEntity
  8
0
100
AcDbBlockBegin
  2
_OPEN30_55
 70
     0
 10
0.0
 20
0.0
 30
0.0
  3
_OPEN30_55
  1

  0
LINE
  5
1E4
330
1E1
100
AcDbEntity
  8
SLD-0
  6
Continuous
 62
     9
100
AcDbLine
 10
-124.3553233091
 20
107.1036736251
 30
0.0
 11
-123.5514791578
 21
110.1036764327
 31
0.0
  0
LINE
  5
1E5
330
1E1
100
AcDbEntity
  8
SLD-0
  6
Continuous
 62
     9
100
AcDbLine
 10
-123.5514791578
 20
110.1036764327
 30
0.0
 11
-122.7476350066
 21
107.1036736251
 31
0.0
  0
LINE
  5
1E6
330
1E1
100
AcDbEntity
  8
SLD-0
  6
Continuous
 62
     9
100
AcDbLine
 10
-123.5514791578
 20
110.1036764327
 30
0.0
 11
-123.5514791578
 21
107.1036736251
 31
0.0
  0
ENDBLK
  5
1E3
330
1E1
100
AcDbEntity
  8
0
100
AcDbBlockEnd
  0
BLOCK
  5
1E8
330
1E7
100
AcDbEntity
  8
0
100
AcDbBlockBegin
  2
_OPEN30_21
 70
     0
 10
0.0
 20
0.0
 30
0.0
  3
_OPEN30_21
  1

  0
LINE
  5
1EA
330
1E7
100
AcDbEntity
  8
SLD-0
  6
Continuous
 62
     9
100
AcDbLine
 10
91.3609262342
 20
0.1036743953
 30
0.0
 11
92.1647703855
 21
3.1036772029
 31
0.0
  0
LINE
  5
1EB
330
1E7
100
AcDbEntity
  8
SLD-0
  6
Continuous
 62
     9
100
AcDbLine
 10
92.1647703855
 20
3.1036772029
 30
0.0
 11
92.9686145367
 21
0.1036743953
 31
0.0
  0
LINE
  5
1EC
330
1E7
100
AcDbEntity
  8
SLD-0
  6
Continuous
 62
     9
100
AcDbLine
 10
92.1647703855
 20
3.1036772029
 30
0.0
 11
92.1647703855
 21
0.1036743953
 31
0.0
  0
ENDBLK
  5
1E9
330
1E7
100
AcDbEntity
  8
0
100
AcDbBlockEnd
  0
BLOCK
  5
1EE
330
1ED
100
AcDbEntity
  8
0
100
AcDbBlockBegin
  2
_OPEN30_79
 70
     0
 10
0.0
 20
0.0
 30
0.0
  3
_OPEN30_79
  1

  0
LINE
  5
1F0
330
1ED
100
AcDbEntity
  8
LAYER0016
  6
Continuous
 62
     9
100
AcDbLine
 10
-390.7120918716
 20
98.5410776076
 30
0.0
 11
-391.5159438197
 21
101.5410783261
 31
0.0
  0
LINE
  5
1F1
330
1ED
100
AcDbEntity
  8
LAYER0016
  6
Continuous
 62
     9
100
AcDbLine
 10
-391.5159438197
 20
101.5410783261
 30
0.0
 11
-389.3197929603
 21
99.3449217588
 31
0.0
  0
LINE
  5
1F2
330
1ED
100
AcDbEntity
  8
LAYER0016
  6
Continuous
 62
     9
100
AcDbLine
 10
-391.5159438197
 20
101.5410783261
 30
0.0
 11
-390.0159424159
 21
98.9429996832
 31
0.0
  0
ENDBLK
  5
1EF
330
1ED
100
AcDbEntity
  8
0
100
AcDbBlockEnd
  0
BLOCK
  5
1F4
330
1F3
100
AcDbEntity
  8
0
100
AcDbBlockBegin
  2
_OPEN30_16
 70
     0
 10
0.0
 20
0.0
 30
0.0
  3
_OPEN30_16
  1

  0
LINE
  5
1F6
330
1F3
100
AcDbEntity
  8
SLD-0
  6
Continuous
 62
     9
100
AcDbLine
 10
-6.3055680043
 20
-27.5963242858
 30
0.0
 11
-7.1094199524
 21
-24.5963235673
 31
0.0
  0
LINE
  5
1F7
330
1F3
100
AcDbEntity
  8
SLD-0
  6
Continuous
 62
     9
100
AcDbLine
 10
-7.1094199524
 20
-24.5963235673
 30
0.0
 11
-4.913269093
 21
-26.7924801345
 31
0.0
  0
LINE
  5
1F8
330
1F3
100
AcDbEntity
  8
SLD-0
  6
Continuous
 62
     9
100
AcDbLine
 10
-7.1094199524
 20
-24.5963235673
 30
0.0
 11
-5.6094185486
 21
-27.1944022101
 31
0.0
  0
ENDBLK
  5
1F5
330
1F3
100
AcDbEntity
  8
0
100
AcDbBlockEnd
  0
BLOCK
  5
1FA
330
1F9
100
AcDbEntity
  8
0
100
AcDbBlockBegin
  2
_OPEN30_24
 70
     0
 10
0.0
 20
0.0
 30
0.0
  3
_OPEN30_24
  1

  0
LINE
  5
1FC
330
1F9
100
AcDbEntity
  8
SLD-0
  6
Continuous
 62
     9
100
AcDbLine
 10
155.2523649934
 20
94.6036792403
 30
0.0
 11
154.4485208422
 21
91.6036764327
 31
0.0
  0
LINE
  5
1FD
330
1F9
100
AcDbEntity
  8
SLD-0
  6
Continuous
 62
     9
100
AcDbLine
 10
154.4485208422
 20
91.6036764327
 30
0.0
 11
153.6446766909
 21
94.6036792403
 31
0.0
  0
LINE
  5
1FE
330
1F9
100
AcDbEntity
  8
SLD-0
  6
Continuous
 62
     9
100
AcDbLine
 10
154.4485208422
 20
91.6036764327
 30
0.0
 11
154.4485208422
 21
94.6036792403
 31
0.0
  0
ENDBLK
  5
1FB
330
1F9
100
AcDbEntity
  8
0
100
AcDbBlockEnd
  0
BLOCK
  5
200
330
1FF
100
AcDbEntity
  8
0
100
AcDbBlockBegin
  2
_OPEN30_17
 70
     0
 10
0.0
 20
0.0
 30
0.0
  3
_OPEN30_17
  1

  0
LINE
  5
202
330
1FF
100
AcDbEntity
  8
SLD-0
  6
Continuous
 62
     9
100
AcDbLine
 10
-3.3747947566
 20
-25.8963242858
 30
0.0
 11
-4.1786467048
 21
-22.8963235673
 31
0.0
  0
LINE
  5
203
330
1FF
100
AcDbEntity
  8
SLD-0
  6
Continuous
 62
     9
100
AcDbLine
 10
-4.1786467048
 20
-22.8963235673
 30
0.0
 11
-1.9824958453
 21
-25.0924801345
 31
0.0
  0
LINE
  5
204
330
1FF
100
AcDbEntity
  8
SLD-0
  6
Continuous
 62
     9
100
AcDbLine
 10
-4.1786467048
 20
-22.8963235673
 30
0.0
 11
-2.678645301
 21
-25.4944022101
 31
0.0
  0
ENDBLK
  5
201
330
1FF
100
AcDbEntity
  8
0
100
AcDbBlockEnd
  0
BLOCK
  5
206
330
205
100
AcDbEntity
  8
0
100
AcDbBlockBegin
  2
_OPEN30_43
 70
     0
 10
0.0
 20
0.0
 30
0.0
  3
_OPEN30_43
  1

  0
LINE
  5
208
330
205
100
AcDbEntity
  8
SLD-0
  6
Continuous
 62
     9
100
AcDbLine
 10
57.4258696029
 20
-108.8963263749
 30
0.0
 11
58.2297137541
 21
-105.8963235673
 31
0.0
  0
LINE
  5
209
330
205
100
AcDbEntity
  8
SLD-0
  6
Continuous
 62
     9
100
AcDbLine
 10
58.2297137541
 20
-105.8963235673
 30
0.0
 11
59.0335579053
 21
-108.8963263749
 31
0.0
  0
LINE
  5
20A
330
205
100
AcDbEntity
  8
SLD-0
  6
Continuous
 62
     9
100
AcDbLine
 10
58.2297137541
 20
-105.8963235673
 30
0.0
 11
58.2297137541
 21
-108.8963263749
 31
0.0
  0
ENDBLK
  5
207
330
205
100
AcDbEntity
  8
0
100
AcDbBlockEnd
  0
BLOCK
  5
20C
330
20B
100
AcDbEntity
  8
0
100
AcDbBlockBegin
  2
_OPEN30_53
 70
     0
 10
0.0
 20
0.0
 30
0.0
  3
_OPEN30_53
  1

  0
LINE
  5
20E
330
20B
100
AcDbEntity
  8
SLD-0
  6
Continuous
 62
     9
100
AcDbLine
 10
-78.6969458913
 20
86.1036736251
 30
0.0
 11
-77.8931017401
 21
89.1036764327
 31
0.0
  0
LINE
  5
20F
330
20B
100
AcDbEntity
  8
SLD-0
  6
Continuous
 62
     9
100
AcDbLine
 10
-77.8931017401
 20
89.1036764327
 30
0.0
 11
-77.0892575889
 21
86.1036736251
 31
0.0
  0
LINE
  5
210
330
20B
100
AcDbEntity
  8
SLD-0
  6
Continuous
 62
     9
100
AcDbLine
 10
-77.8931017401
 20
89.1036764327
 30
0.0
 11
-77.8931017401
 21
86.1036736251
 31
0.0
  0
ENDBLK
  5
20D
330
20B
100
AcDbEntity
  8
0
100
AcDbBlockEnd
  0
BLOCK
  5
212
330
211
100
AcDbEntity
  8
0
100
AcDbBlockBegin
  2
_OPEN30_14
 70
     0
 10
0.0
 20
0.0
 30
0.0
  3
_OPEN30_14
  1

  0
LINE
  5
214
330
211
100
AcDbEntity
  8
SLD-0
  6
Continuous
 62
     9
100
AcDbLine
 10
-6.4594182072
 20
85.4036757142
 30
0.0
 11
-7.2632701553
 21
88.4036764327
 31
0.0
  0
LINE
  5
215
330
211
100
AcDbEntity
  8
SLD-0
  6
Continuous
 62
     9
100
AcDbLine
 10
-7.2632701553
 20
88.4036764327
 30
0.0
 11
-5.0671192959
 21
86.2075198655
 31
0.0
  0
LINE
  5
216
330
211
100
AcDbEntity
  8
SLD-0
  6
Continuous
 62
     9
100
AcDbLine
 10
-7.2632701553
 20
88.4036764327
 30
0.0
 11
-5.7632687515
 21
85.8055977899
 31
0.0
  0
ENDBLK
  5
213
330
211
100
AcDbEntity
  8
0
100
AcDbBlockEnd
  0
BLOCK
  5
218
330
217
100
AcDbEntity
  8
0
100
AcDbBlockBegin
  2
_OPEN30_50
 70
     0
 10
0.0
 20
0.0
 30
0.0
  3
_OPEN30_50
  1

  0
LINE
  5
21A
330
217
100
AcDbEntity
  8
SLD-0
  6
Continuous
 62
     9
100
AcDbLine
 10
-143.2018673768
 20
83.2255337829
 30
0.0
 11
-144.0057193249
 21
86.2255345013
 31
0.0
  0
LINE
  5
21B
330
217
100
AcDbEntity
  8
SLD-0
  6
Continuous
 62
     9
100
AcDbLine
 10
-144.0057193249
 20
86.2255345013
 30
0.0
 11
-141.8095684655
 21
84.0293779341
 31
0.0
  0
LINE
  5
21C
330
217
100
AcDbEntity
  8
SLD-0
  6
Continuous
 62
     9
100
AcDbLine
 10
-144.0057193249
 20
86.2255345013
 30
0.0
 11
-142.5057179211
 21
83.6274558585
 31
0.0
  0
ENDBLK
  5
219
330
217
100
AcDbEntity
  8
0
100
AcDbBlockEnd
  0
BLOCK
  5
21E
330
21D
100
AcDbEntity
  8
0
100
AcDbBlockBegin
  2
_OPEN30_42
 70
     0
 10
0.0
 20
0.0
 30
0.0
  3
_OPEN30_42
  1

  0
LINE
  5
220
330
21D
100
AcDbEntity
  8
SLD-0
  6
Continuous
 62
     9
100
AcDbLine
 10
59.0335579053
 20
-124.3963207597
 30
0.0
 11
58.2297137541
 21
-127.3963235673
 31
0.0
  0
LINE
  5
221
330
21D
100
AcDbEntity
  8
SLD-0
  6
Continuous
 62
     9
100
AcDbLine
 10
58.2297137541
 20
-127.3963235673
 30
0.0
 11
57.4258696029
 21
-124.3963207597
 31
0.0
  0
LINE
  5
222
330
21D
100
AcDbEntity
  8
SLD-0
  6
Continuous
 62
     9
100
AcDbLine
 10
58.2297137541
 20
-127.3963235673
 30
0.0
 11
58.2297137541
 21
-124.3963207597
 31
0.0
  0
ENDBLK
  5
21F
330
21D
100
AcDbEntity
  8
0
100
AcDbBlockEnd
  0
BLOCK
  5
224
330
223
100
AcDbEntity
  8
0
100
AcDbBlockBegin
  2
_OPEN30_45
 70
     0
 10
0.0
 20
0.0
 30
0.0
  3
_OPEN30_45
  1

  0
LINE
  5
226
330
223
100
AcDbEntity
  8
SLD-0
  6
Continuous
 62
     9
100
AcDbLine
 10
-3.3747947566
 20
-110.3963242858
 30
0.0
 11
-4.1786467048
 21
-107.3963235673
 31
0.0
  0
LINE
  5
227
330
223
100
AcDbEntity
  8
SLD-0
  6
Continuous
 62
     9
100
AcDbLine
 10
-4.1786467048
 20
-107.3963235673
 30
0.0
 11
-1.9824958453
 21
-109.5924801345
 31
0.0
  0
LINE
  5
228
330
223
100
AcDbEntity
  8
SLD-0
  6
Continuous
 62
     9
100
AcDbLine
 10
-4.1786467048
 20
-107.3963235673
 30
0.0
 11
-2.678645301
 21
-109.9944022101
 31
0.0
  0
ENDBLK
  5
225
330
223
100
AcDbEntity
  8
0
100
AcDbBlockEnd
  0
BLOCK
  5
22A
330
229
100
AcDbEntity
  8
0
100
AcDbBlockBegin
  2
_OPEN30_13
 70
     0
 10
0.0
 20
0.0
 30
0.0
  3
_OPEN30_13
  1

  0
LINE
  5
22C
330
229
100
AcDbEntity
  8
SLD-0
  6
Continuous
 62
     9
100
AcDbLine
 10
57.4258696029
 20
-24.3963263749
 30
0.0
 11
58.2297137541
 21
-21.3963235673
 31
0.0
  0
LINE
  5
22D
330
229
100
AcDbEntity
  8
SLD-0
  6
Continuous
 62
     9
100
AcDbLine
 10
58.2297137541
 20
-21.3963235673
 30
0.0
 11
59.0335579053
 21
-24.3963263749
 31
0.0
  0
LINE
  5
22E
330
229
100
AcDbEntity
  8
SLD-0
  6
Continuous
 62
     9
100
AcDbLine
 10
58.2297137541
 20
-21.3963235673
 30
0.0
 11
58.2297137541
 21
-24.3963263749
 31
0.0
  0
ENDBLK
  5
22B
330
229
100
AcDbEntity
  8
0
100
AcDbBlockEnd
  0
BLOCK
  5
230
330
22F
100
AcDbEntity
  8
0
100
AcDbBlockBegin
  2
_OPEN30_47
 70
     0
 10
0.0
 20
0.0
 30
0.0
  3
_OPEN30_47
  1

  0
LINE
  5
232
330
22F
100
AcDbEntity
  8
SLD-0
  6
Continuous
 62
     9
100
AcDbLine
 10
-193.3227146134
 20
100.1036736251
 30
0.0
 11
-192.5188704622
 21
103.1036764327
 31
0.0
  0
LINE
  5
233
330
22F
100
AcDbEntity
  8
SLD-0
  6
Continuous
 62
     9
100
AcDbLine
 10
-192.5188704622
 20
103.1036764327
 30
0.0
 11
-191.715026311
 21
100.1036736251
 31
0.0
  0
LINE
  5
234
330
22F
100
AcDbEntity
  8
SLD-0
  6
Continuous
 62
     9
100
AcDbLine
 10
-192.5188704622
 20
103.1036764327
 30
0.0
 11
-192.5188704622
 21
100.1036736251
 31
0.0
  0
ENDBLK
  5
231
330
22F
100
AcDbEntity
  8
0
100
AcDbBlockEnd
  0
BLOCK
  5
236
330
235
100
AcDbEntity
  8
0
100
AcDbBlockBegin
  2
_OPEN30_71
 70
     0
 10
0.0
 20
0.0
 30
0.0
  3
_OPEN30_71
  1

  0
LINE
  5
238
330
235
100
AcDbEntity
  8
LAYER0016
  6
Continuous
 62
     9
100
AcDbLine
 10
-442.5061615254
 20
111.5410755184
 30
0.0
 11
-441.7023173742
 21
114.5410783261
 31
0.0
  0
LINE
  5
239
330
235
100
AcDbEntity
  8
LAYER0016
  6
Continuous
 62
     9
100
AcDbLine
 10
-441.7023173742
 20
114.5410783261
 30
0.0
 11
-440.898473223
 21
111.5410755184
 31
0.0
  0
LINE
  5
23A
330
235
100
AcDbEntity
  8
LAYER0016
  6
Continuous
 62
     9
100
AcDbLine
 10
-441.7023173742
 20
114.5410783261
 30
0.0
 11
-441.7023173742
 21
111.5410755184
 31
0.0
  0
ENDBLK
  5
237
330
235
100
AcDbEntity
  8
0
100
AcDbBlockEnd
  0
BLOCK
  5
23C
330
23B
100
AcDbEntity
  8
0
100
AcDbBlockBegin
  2
_OPEN30_34
 70
     0
 10
0.0
 20
0.0
 30
0.0
  3
_OPEN30_34
  1

  0
LINE
  5
23E
330
23B
100
AcDbEntity
  8
SLD-0
  6
Continuous
 62
     9
100
AcDbLine
 10
133.6944319957
 20
-27.5963242858
 30
0.0
 11
132.8905800476
 21
-24.5963235673
 31
0.0
  0
LINE
  5
23F
330
23B
100
AcDbEntity
  8
SLD-0
  6
Continuous
 62
     9
100
AcDbLine
 10
132.8905800476
 20
-24.5963235673
 30
0.0
 11
135.086730907
 21
-26.7924801345
 31
0.0
  0
LINE
  5
240
330
23B
100
AcDbEntity
  8
SLD-0
  6
Continuous
 62
     9
100
AcDbLine
 10
132.8905800476
 20
-24.5963235673
 30
0.0
 11
134.3905814514
 21
-27.1944022101
 31
0.0
  0
ENDBLK
  5
23D
330
23B
100
AcDbEntity
  8
0
100
AcDbBlockEnd
  0
BLOCK
  5
242
330
241
100
AcDbEntity
  8
0
100
AcDbBlockBegin
  2
_OPEN30_77
 70
     0
 10
0.0
 20
0.0
 30
0.0
  3
_OPEN30_77
  1

  0
LINE
  5
244
330
241
100
AcDbEntity
  8
LAYER0016
  6
Continuous
 62
     9
100
AcDbLine
 10
-340.925571551
 20
70.9229512365
 30
0.0
 11
-337.9255687434
 21
70.1191070853
 31
0.0
  0
LINE
  5
245
330
241
100
AcDbEntity
  8
LAYER0016
  6
Continuous
 62
     9
100
AcDbLine
 10
-337.9255687434
 20
70.1191070853
 30
0.0
 11
-340.925571551
 21
69.3152629341
 31
0.0
  0
LINE
  5
246
330
241
100
AcDbEntity
  8
LAYER0016
  6
Continuous
 62
     9
100
AcDbLine
 10
-337.9255687434
 20
70.1191070853
 30
0.0
 11
-340.925571551
 21
70.1191070853
 31
0.0
  0
ENDBLK
  5
243
330
241
100
AcDbEntity
  8
0
100
AcDbBlockEnd
  0
BLOCK
  5
248
330
247
100
AcDbEntity
  8
0
100
AcDbBlockBegin
  2
_OPEN30_0
 70
     0
 10
0.0
 20
0.0
 30
0.0
  3
_OPEN30_0
  1

  0
LINE
  5
24A
330
247
100
AcDbEntity
  8
SLD-0
  6
Continuous
 62
     9
100
AcDbLine
 10
-52.983069397
 20
71.1036792403
 30
0.0
 11
-53.7869135483
 21
68.1036764327
 31
0.0
  0
LINE
  5
24B
330
247
100
AcDbEntity
  8
SLD-0
  6
Continuous
 62
     9
100
AcDbLine
 10
-53.7869135483
 20
68.1036764327
 30
0.0
 11
-54.5907576995
 21
71.1036792403
 31
0.0
  0
LINE
  5
24C
330
247
100
AcDbEntity
  8
SLD-0
  6
Continuous
 62
     9
100
AcDbLine
 10
-53.7869135483
 20
68.1036764327
 30
0.0
 11
-53.7869135483
 21
71.1036792403
 31
0.0
  0
ENDBLK
  5
249
330
247
100
AcDbEntity
  8
0
100
AcDbBlockEnd
  0
BLOCK
  5
24E
330
24D
100
AcDbEntity
  8
0
100
AcDbBlockBegin
  2
_OPEN30_19
 70
     0
 10
0.0
 20
0.0
 30
0.0
  3
_OPEN30_19
  1

  0
LINE
  5
250
330
24D
100
AcDbEntity
  8
SLD-0
  6
Continuous
 62
     9
100
AcDbLine
 10
85.4613993458
 20
100.1036736251
 30
0.0
 11
86.2652434971
 21
103.1036764327
 31
0.0
  0
LINE
  5
251
330
24D
100
AcDbEntity
  8
SLD-0
  6
Continuous
 62
     9
100
AcDbLine
 10
86.2652434971
 20
103.1036764327
 30
0.0
 11
87.0690876483
 21
100.1036736251
 31
0.0
  0
LINE
  5
252
330
24D
100
AcDbEntity
  8
SLD-0
  6
Continuous
 62
     9
100
AcDbLine
 10
86.2652434971
 20
103.1036764327
 30
0.0
 11
86.2652434971
 21
100.1036736251
 31
0.0
  0
ENDBLK
  5
24F
330
24D
100
AcDbEntity
  8
0
100
AcDbBlockEnd
  0
BLOCK
  5
254
330
253
100
AcDbEntity
  8
0
100
AcDbBlockBegin
  2
_OPEN30_31
 70
     0
 10
0.0
 20
0.0
 30
0.0
  3
_OPEN30_31
  1

  0
LINE
  5
256
330
253
100
AcDbEntity
  8
SLD-0
  6
Continuous
 62
     9
100
AcDbLine
 10
197.4258696029
 20
-24.3963263749
 30
0.0
 11
198.2297137541
 21
-21.3963235673
 31
0.0
  0
LINE
  5
257
330
253
100
AcDbEntity
  8
SLD-0
  6
Continuous
 62
     9
100
AcDbLine
 10
198.2297137541
 20
-21.3963235673
 30
0.0
 11
199.0335579053
 21
-24.3963263749
 31
0.0
  0
LINE
  5
258
330
253
100
AcDbEntity
  8
SLD-0
  6
Continuous
 62
     9
100
AcDbLine
 10
198.2297137541
 20
-21.3963235673
 30
0.0
 11
198.2297137541
 21
-24.3963263749
 31
0.0
  0
ENDBLK
  5
255
330
253
100
AcDbEntity
  8
0
100
AcDbBlockEnd
  0
BLOCK
  5
25A
330
259
100
AcDbEntity
  8
0
100
AcDbBlockBegin
  2
_OPEN30_38
 70
     0
 10
0.0
 20
0.0
 30
0.0
  3
_OPEN30_38
  1

  0
LINE
  5
25C
330
259
100
AcDbEntity
  8
SLD-0
  6
Continuous
 62
     9
100
AcDbLine
 10
-47.0313854633
 20
-124.3963207597
 30
0.0
 11
-47.8352296145
 21
-127.3963235673
 31
0.0
  0
LINE
  5
25D
330
259
100
AcDbEntity
  8
SLD-0
  6
Continuous
 62
     9
100
AcDbLine
 10
-47.8352296145
 20
-127.3963235673
 30
0.0
 11
-48.6390737658
 21
-124.3963207597
 31
0.0
  0
LINE
  5
25E
330
259
100
AcDbEntity
  8
SLD-0
  6
Continuous
 62
     9
100
AcDbLine
 10
-47.8352296145
 20
-127.3963235673
 30
0.0
 11
-47.8352296145
 21
-124.3963207597
 31
0.0
  0
ENDBLK
  5
25B
330
259
100
AcDbEntity
  8
0
100
AcDbBlockEnd
  0
BLOCK
  5
260
330
25F
100
AcDbEntity
  8
0
100
AcDbBlockBegin
  2
_OPEN30_59
 70
     0
 10
0.0
 20
0.0
 30
0.0
  3
_OPEN30_59
  1

  0
LINE
  5
262
330
25F
100
AcDbEntity
  8
SLD-0
  6
Continuous
 62
     9
100
AcDbLine
 10
35.2578753611
 20
-135.9417596644
 30
0.0
 11
38.2578781687
 21
-136.7456038156
 31
0.0
  0
LINE
  5
263
330
25F
100
AcDbEntity
  8
SLD-0
  6
Continuous
 62
     9
100
AcDbLine
 10
38.2578781687
 20
-136.7456038156
 30
0.0
 11
35.2578753611
 21
-137.5494479668
 31
0.0
  0
LINE
  5
264
330
25F
100
AcDbEntity
  8
SLD-0
  6
Continuous
 62
     9
100
AcDbLine
 10
38.2578781687
 20
-136.7456038156
 30
0.0
 11
35.2578753611
 21
-136.7456038156
 31
0.0
  0
ENDBLK
  5
261
330
25F
100
AcDbEntity
  8
0
100
AcDbBlockEnd
  0
BLOCK
  5
266
330
265
100
AcDbEntity
  8
0
100
AcDbBlockBegin
  2
_OPEN30_23
 70
     0
 10
0.0
 20
0.0
 30
0.0
  3
_OPEN30_23
  1

  0
LINE
  5
268
330
265
100
AcDbEntity
  8
SLD-0
  6
Continuous
 62
     9
100
AcDbLine
 10
146.2349763595
 20
-5.8963263749
 30
0.0
 11
147.0388205107
 21
-2.8963235673
 31
0.0
  0
LINE
  5
269
330
265
100
AcDbEntity
  8
SLD-0
  6
Continuous
 62
     9
100
AcDbLine
 10
147.0388205107
 20
-2.8963235673
 30
0.0
 11
147.8426646619
 21
-5.8963263749
 31
0.0
  0
LINE
  5
26A
330
265
100
AcDbEntity
  8
SLD-0
  6
Continuous
 62
     9
100
AcDbLine
 10
147.0388205107
 20
-2.8963235673
 30
0.0
 11
147.0388205107
 21
-5.8963263749
 31
0.0
  0
ENDBLK
  5
267
330
265
100
AcDbEntity
  8
0
100
AcDbBlockEnd
  0
BLOCK
  5
26C
330
26B
100
AcDbEntity
  8
0
100
AcDbBlockBegin
  2
_OPEN30_36
 70
     0
 10
0.0
 20
0.0
 30
0.0
  3
_OPEN30_36
  1

  0
LINE
  5
26E
330
26B
100
AcDbEntity
  8
SLD-0
  6
Continuous
 62
     9
100
AcDbLine
 10
186.6578809763
 20
-55.963195743
 30
0.0
 11
183.6578781687
 21
-55.1593515918
 31
0.0
  0
LINE
  5
26F
330
26B
100
AcDbEntity
  8
SLD-0
  6
Continuous
 62
     9
100
AcDbLine
 10
183.6578781687
 20
-55.1593515918
 30
0.0
 11
186.6578809763
 21
-54.3555074405
 31
0.0
  0
LINE
  5
270
330
26B
100
AcDbEntity
  8
SLD-0
  6
Continuous
 62
     9
100
AcDbLine
 10
183.6578781687
 20
-55.1593515918
 30
0.0
 11
186.6578809763
 21
-55.1593515918
 31
0.0
  0
ENDBLK
  5
26D
330
26B
100
AcDbEntity
  8
0
100
AcDbBlockEnd
  0
BLOCK
  5
272
330
271
100
AcDbEntity
  8
0
100
AcDbBlockBegin
  2
_OPEN30_75
 70
     0
 10
0.0
 20
0.0
 30
0.0
  3
_OPEN30_75
  1

  0
LINE
  5
274
330
271
100
AcDbEntity
  8
LAYER0016
  6
Continuous
 62
     9
100
AcDbLine
 10
-322.9294156097
 20
100.0410755184
 30
0.0
 11
-322.1255714585
 21
103.0410783261
 31
0.0
  0
LINE
  5
275
330
271
100
AcDbEntity
  8
LAYER0016
  6
Continuous
 62
     9
100
AcDbLine
 10
-322.1255714585
 20
103.0410783261
 30
0.0
 11
-321.3217273072
 21
100.0410755184
 31
0.0
  0
LINE
  5
276
330
271
100
AcDbEntity
  8
LAYER0016
  6
Continuous
 62
     9
100
AcDbLine
 10
-322.1255714585
 20
103.0410783261
 30
0.0
 11
-322.1255714585
 21
100.0410755184
 31
0.0
  0
ENDBLK
  5
273
330
271
100
AcDbEntity
  8
0
100
AcDbBlockEnd
  0
BLOCK
  5
278
330
277
100
AcDbEntity
  8
0
100
AcDbBlockBegin
  2
_OPEN30_22
 70
     0
 10
0.0
 20
0.0
 30
0.0
  3
_OPEN30_22
  1

  0
LINE
  5
27A
330
277
100
AcDbEntity
  8
SLD-0
  6
Continuous
 62
     9
100
AcDbLine
 10
147.8426646619
 20
-18.3963207597
 30
0.0
 11
147.0388205107
 21
-21.3963235673
 31
0.0
  0
LINE
  5
27B
330
277
100
AcDbEntity
  8
SLD-0
  6
Continuous
 62
     9
100
AcDbLine
 10
147.0388205107
 20
-21.3963235673
 30
0.0
 11
146.2349763595
 21
-18.3963207597
 31
0.0
  0
LINE
  5
27C
330
277
100
AcDbEntity
  8
SLD-0
  6
Continuous
 62
     9
100
AcDbLine
 10
147.0388205107
 20
-21.3963235673
 30
0.0
 11
147.0388205107
 21
-18.3963207597
 31
0.0
  0
ENDBLK
  5
279
330
277
100
AcDbEntity
  8
0
100
AcDbBlockEnd
  0
BLOCK
  5
27E
330
27D
100
AcDbEntity
  8
0
100
AcDbBlockBegin
  2
_OPEN30_70
 70
     0
 10
0.0
 20
0.0
 30
0.0
  3
_OPEN30_70
  1

  0
LINE
  5
280
330
27D
100
AcDbEntity
  8
LAYER0016
  6
Continuous
 62
     9
100
AcDbLine
 10
-440.898473223
 20
82.5410811337
 30
0.0
 11
-441.7023173742
 21
79.5410783261
 31
0.0
  0
LINE
  5
281
330
27D
100
AcDbEntity
  8
LAYER0016
  6
Continuous
 62
     9
100
AcDbLine
 10
-441.7023173742
 20
79.5410783261
 30
0.0
 11
-442.5061615254
 21
82.5410811337
 31
0.0
  0
LINE
  5
282
330
27D
100
AcDbEntity
  8
LAYER0016
  6
Continuous
 62
     9
100
AcDbLine
 10
-441.7023173742
 20
79.5410783261
 30
0.0
 11
-441.7023173742
 21
82.5410811337
 31
0.0
  0
ENDBLK
  5
27F
330
27D
100
AcDbEntity
  8
0
100
AcDbBlockEnd
  0
BLOCK
  5
284
330
283
100
AcDbEntity
  8
0
100
AcDbBlockBegin
  2
_OPEN30_56
 70
     0
 10
0.0
 20
0.0
 30
0.0
  3
_OPEN30_56
  1

  0
LINE
  5
286
330
283
100
AcDbEntity
  8
SLD-0
  6
Continuous
 62
     9
100
AcDbLine
 10
46.6578809763
 20
-55.963195743
 30
0.0
 11
43.6578781687
 21
-55.1593515918
 31
0.0
  0
LINE
  5
287
330
283
100
AcDbEntity
  8
SLD-0
  6
Continuous
 62
     9
100
AcDbLine
 10
43.6578781687
 20
-55.1593515918
 30
0.0
 11
46.6578809763
 21
-54.3555074405
 31
0.0
  0
LINE
  5
288
330
283
100
AcDbEntity
  8
SLD-0
  6
Continuous
 62
     9
100
AcDbLine
 10
43.6578781687
 20
-55.1593515918
 30
0.0
 11
46.6578809763
 21
-55.1593515918
 31
0.0
  0
ENDBLK
  5
285
330
283
100
AcDbEntity
  8
0
100
AcDbBlockEnd
  0
BLOCK
  5
28A
330
289
100
AcDbEntity
  8
0
100
AcDbBlockBegin
  2
_OPEN30_46
 70
     0
 10
0.0
 20
0.0
 30
0.0
  3
_OPEN30_46
  1

  0
LINE
  5
28C
330
289
100
AcDbEntity
  8
SLD-0
  6
Continuous
 62
     9
100
AcDbLine
 10
-191.715026311
 20
71.1036792403
 30
0.0
 11
-192.5188704622
 21
68.1036764327
 31
0.0
  0
LINE
  5
28D
330
289
100
AcDbEntity
  8
SLD-0
  6
Continuous
 62
     9
100
AcDbLine
 10
-192.5188704622
 20
68.1036764327
 30
0.0
 11
-193.3227146134
 21
71.1036792403
 31
0.0
  0
LINE
  5
28E
330
289
100
AcDbEntity
  8
SLD-0
  6
Continuous
 62
     9
100
AcDbLine
 10
-192.5188704622
 20
68.1036764327
 30
0.0
 11
-192.5188704622
 21
71.1036792403
 31
0.0
  0
ENDBLK
  5
28B
330
289
100
AcDbEntity
  8
0
100
AcDbBlockEnd
  0
BLOCK
  5
290
330
28F
100
AcDbEntity
  8
0
100
AcDbBlockBegin
  2
_OPEN30_41
 70
     0
 10
0.0
 20
0.0
 30
0.0
  3
_OPEN30_41
  1

  0
LINE
  5
292
330
28F
100
AcDbEntity
  8
SLD-0
  6
Continuous
 62
     9
100
AcDbLine
 10
6.2349763595
 20
-90.3963263749
 30
0.0
 11
7.0388205107
 21
-87.3963235673
 31
0.0
  0
LINE
  5
293
330
28F
100
AcDbEntity
  8
SLD-0
  6
Continuous
 62
     9
100
AcDbLine
 10
7.0388205107
 20
-87.3963235673
 30
0.0
 11
7.8426646619
 21
-90.3963263749
 31
0.0
  0
LINE
  5
294
330
28F
100
AcDbEntity
  8
SLD-0
  6
Continuous
 62
     9
100
AcDbLine
 10
7.0388205107
 20
-87.3963235673
 30
0.0
 11
7.0388205107
 21
-90.3963263749
 31
0.0
  0
ENDBLK
  5
291
330
28F
100
AcDbEntity
  8
0
100
AcDbBlockEnd
  0
BLOCK
  5
296
330
295
100
AcDbEntity
  8
0
100
AcDbBlockBegin
  2
_OPEN30_30
 70
     0
 10
0.0
 20
0.0
 30
0.0
  3
_OPEN30_30
  1

  0
LINE
  5
298
330
295
100
AcDbEntity
  8
SLD-0
  6
Continuous
 62
     9
100
AcDbLine
 10
199.0335579053
 20
-39.8963207597
 30
0.0
 11
198.2297137541
 21
-42.8963235673
 31
0.0
  0
LINE
  5
299
330
295
100
AcDbEntity
  8
SLD-0
  6
Continuous
 62
     9
100
AcDbLine
 10
198.2297137541
 20
-42.8963235673
 30
0.0
 11
197.4258696029
 21
-39.8963207597
 31
0.0
  0
LINE
  5
29A
330
295
100
AcDbEntity
  8
SLD-0
  6
Continuous
 62
     9
100
AcDbLine
 10
198.2297137541
 20
-42.8963235673
 30
0.0
 11
198.2297137541
 21
-39.8963207597
 31
0.0
  0
ENDBLK
  5
297
330
295
100
AcDbEntity
  8
0
100
AcDbBlockEnd
  0
BLOCK
  5
29C
330
29B
100
AcDbEntity
  8
0
100
AcDbBlockBegin
  2
_OPEN30_51
 70
     0
 10
0.0
 20
0.0
 30
0.0
  3
_OPEN30_51
  1

  0
LINE
  5
29E
330
29B
100
AcDbEntity
  8
SLD-0
  6
Continuous
 62
     9
100
AcDbLine
 10
-140.0852692866
 20
84.6036757142
 30
0.0
 11
-140.8891212347
 21
87.6036764327
 31
0.0
  0
LINE
  5
29F
330
29B
100
AcDbEntity
  8
SLD-0
  6
Continuous
 62
     9
100
AcDbLine
 10
-140.8891212347
 20
87.6036764327
 30
0.0
 11
-138.6929703753
 21
85.4075198655
 31
0.0
  0
LINE
  5
2A0
330
29B
100
AcDbEntity
  8
SLD-0
  6
Continuous
 62
     9
100
AcDbLine
 10
-140.8891212347
 20
87.6036764327
 30
0.0
 11
-139.3891198309
 21
85.0055977899
 31
0.0
  0
ENDBLK
  5
29D
330
29B
100
AcDbEntity
  8
0
100
AcDbBlockEnd
  0
BLOCK
  5
2A2
330
2A1
100
AcDbEntity
  8
0
100
AcDbBlockBegin
  2
_OPEN30_72
 70
     0
 10
0.0
 20
0.0
 30
0.0
  3
_OPEN30_72
  1

  0
LINE
  5
2A4
330
2A1
100
AcDbEntity
  8
LAYER0016
  6
Continuous
 62
     9
100
AcDbLine
 10
-371.9310819186
 20
106.0410811337
 30
0.0
 11
-372.7349260699
 21
103.0410783261
 31
0.0
  0
LINE
  5
2A5
330
2A1
100
AcDbEntity
  8
LAYER0016
  6
Continuous
 62
     9
100
AcDbLine
 10
-372.7349260699
 20
103.0410783261
 30
0.0
 11
-373.5387702211
 21
106.0410811337
 31
0.0
  0
LINE
  5
2A6
330
2A1
100
AcDbEntity
  8
LAYER0016
  6
Continuous
 62
     9
100
AcDbLine
 10
-372.7349260699
 20
103.0410783261
 30
0.0
 11
-372.7349260699
 21
106.0410811337
 31
0.0
  0
ENDBLK
  5
2A3
330
2A1
100
AcDbEntity
  8
0
100
AcDbBlockEnd
  0
BLOCK
  5
2A8
330
2A7
100
AcDbEntity
  8
0
100
AcDbBlockBegin
  2
_OPEN30_27
 70
     0
 10
0.0
 20
0.0
 30
0.0
  3
_OPEN30_27
  1

  0
LINE
  5
2AA
330
2A7
100
AcDbEntity
  8
SLD-0
  6
Continuous
 62
     9
100
AcDbLine
 10
199.2540313023
 20
88.6036736251
 30
0.0
 11
200.0578754536
 21
91.6036764327
 31
0.0
  0
LINE
  5
2AB
330
2A7
100
AcDbEntity
  8
SLD-0
  6
Continuous
 62
     9
100
AcDbLine
 10
200.0578754536
 20
91.6036764327
 30
0.0
 11
200.8617196048
 21
88.6036736251
 31
0.0
  0
LINE
  5
2AC
330
2A7
100
AcDbEntity
  8
SLD-0
  6
Continuous
 62
     9
100
AcDbLine
 10
200.0578754536
 20
91.6036764327
 30
0.0
 11
200.0578754536
 21
88.6036736251
 31
0.0
  0
ENDBLK
  5
2A9
330
2A7
100
AcDbEntity
  8
0
100
AcDbBlockEnd
  0
BLOCK
  5
2AE
330
2AD
100
AcDbEntity
  8
0
100
AcDbBlockBegin
  2
_OPEN30_4
 70
     0
 10
0.0
 20
0.0
 30
0.0
  3
_OPEN30_4
  1

  0
LINE
  5
2B0
330
2AD
100
AcDbEntity
  8
SLD-0
  6
Continuous
 62
     9
100
AcDbLine
 10
7.8426646619
 20
-18.3963207597
 30
0.0
 11
7.0388205107
 21
-21.3963235673
 31
0.0
  0
LINE
  5
2B1
330
2AD
100
AcDbEntity
  8
SLD-0
  6
Continuous
 62
     9
100
AcDbLine
 10
7.0388205107
 20
-21.3963235673
 30
0.0
 11
6.2349763595
 21
-18.3963207597
 31
0.0
  0
LINE
  5
2B2
330
2AD
100
AcDbEntity
  8
SLD-0
  6
Continuous
 62
     9
100
AcDbLine
 10
7.0388205107
 20
-21.3963235673
 30
0.0
 11
7.0388205107
 21
-18.3963207597
 31
0.0
  0
ENDBLK
  5
2AF
330
2AD
100
AcDbEntity
  8
0
100
AcDbBlockEnd
  0
BLOCK
  5
2B4
330
2B3
100
AcDbEntity
  8
0
100
AcDbBlockBegin
  2
_OPEN30_3
 70
     0
 10
0.0
 20
0.0
 30
0.0
  3
_OPEN30_3
  1

  0
LINE
  5
2B6
330
2B3
100
AcDbEntity
  8
SLD-0
  6
Continuous
 62
     9
100
AcDbLine
 10
-47.1367628571
 20
0.1036743953
 30
0.0
 11
-46.3329187058
 21
3.1036772029
 31
0.0
  0
LINE
  5
2B7
330
2B3
100
AcDbEntity
  8
SLD-0
  6
Continuous
 62
     9
100
AcDbLine
 10
-46.3329187058
 20
3.1036772029
 30
0.0
 11
-45.5290745546
 21
0.1036743953
 31
0.0
  0
LINE
  5
2B8
330
2B3
100
AcDbEntity
  8
SLD-0
  6
Continuous
 62
     9
100
AcDbLine
 10
-46.3329187058
 20
3.1036772029
 30
0.0
 11
-46.3329187058
 21
0.1036743953
 31
0.0
  0
ENDBLK
  5
2B5
330
2B3
100
AcDbEntity
  8
0
100
AcDbBlockEnd
  0
BLOCK
  5
2BA
330
2B9
100
AcDbEntity
  8
0
100
AcDbBlockBegin
  2
_OPEN30_11
 70
     0
 10
0.0
 20
0.0
 30
0.0
  3
_OPEN30_11
  1

  0
LINE
  5
2BC
330
2B9
100
AcDbEntity
  8
SLD-0
  6
Continuous
 62
     9
100
AcDbLine
 10
41.2578753611
 20
59.4855493432
 30
0.0
 11
44.2578781687
 21
58.6817051919
 31
0.0
  0
LINE
  5
2BD
330
2B9
100
AcDbEntity
  8
SLD-0
  6
Continuous
 62
     9
100
AcDbLine
 10
44.2578781687
 20
58.6817051919
 30
0.0
 11
41.2578753611
 21
57.8778610407
 31
0.0
  0
LINE
  5
2BE
330
2B9
100
AcDbEntity
  8
SLD-0
  6
Continuous
 62
     9
100
AcDbLine
 10
44.2578781687
 20
58.6817051919
 30
0.0
 11
41.2578753611
 21
58.6817051919
 31
0.0
  0
ENDBLK
  5
2BB
330
2B9
100
AcDbEntity
  8
0
100
AcDbBlockEnd
  0
BLOCK
  5
2C0
330
2BF
100
AcDbEntity
  8
0
100
AcDbBlockBegin
  2
_OPEN30_26
 70
     0
 10
0.0
 20
0.0
 30
0.0
  3
_OPEN30_26
  1

  0
LINE
  5
2C2
330
2BF
100
AcDbEntity
  8
SLD-0
  6
Continuous
 62
     9
100
AcDbLine
 10
200.8617196048
 20
71.1036792403
 30
0.0
 11
200.0578754536
 21
68.1036764327
 31
0.0
  0
LINE
  5
2C3
330
2BF
100
AcDbEntity
  8
SLD-0
  6
Continuous
 62
     9
100
AcDbLine
 10
200.0578754536
 20
68.1036764327
 30
0.0
 11
199.2540313023
 21
71.1036792403
 31
0.0
  0
LINE
  5
2C4
330
2BF
100
AcDbEntity
  8
SLD-0
  6
Continuous
 62
     9
100
AcDbLine
 10
200.0578754536
 20
68.1036764327
 30
0.0
 11
200.0578754536
 21
71.1036792403
 31
0.0
  0
ENDBLK
  5
2C1
330
2BF
100
AcDbEntity
  8
0
100
AcDbBlockEnd
  0
BLOCK
  5
2C6
330
2C5
100
AcDbEntity
  8
0
100
AcDbBlockBegin
  2
_OPEN30_74
 70
     0
 10
0.0
 20
0.0
 30
0.0
  3
_OPEN30_74
  1

  0
LINE
  5
2C8
330
2C5
100
AcDbEntity
  8
LAYER0016
  6
Continuous
 62
     9
100
AcDbLine
 10
-321.3217273072
 20
82.5410811337
 30
0.0
 11
-322.1255714585
 21
79.5410783261
 31
0.0
  0
LINE
  5
2C9
330
2C5
100
AcDbEntity
  8
LAYER0016
  6
Continuous
 62
     9
100
AcDbLine
 10
-322.1255714585
 20
79.5410783261
 30
0.0
 11
-322.9294156097
 21
82.5410811337
 31
0.0
  0
LINE
  5
2CA
330
2C5
100
AcDbEntity
  8
LAYER0016
  6
Continuous
 62
     9
100
AcDbLine
 10
-322.1255714585
 20
79.5410783261
 30
0.0
 11
-322.1255714585
 21
82.5410811337
 31
0.0
  0
ENDBLK
  5
2C7
330
2C5
100
AcDbEntity
  8
0
100
AcDbBlockEnd
  0
BLOCK
  5
2CC
330
2CB
100
AcDbEntity
  8
0
100
AcDbBlockBegin
  2
_OPEN30_76
 70
     0
 10
0.0
 20
0.0
 30
0.0
  3
_OPEN30_76
  1

  0
LINE
  5
2CE
330
2CB
100
AcDbEntity
  8
LAYER0016
  6
Continuous
 62
     9
100
AcDbLine
 10
-340.9255659357
 20
69.3152629341
 30
0.0
 11
-343.9255687434
 21
70.1191070853
 31
0.0
  0
LINE
  5
2CF
330
2CB
100
AcDbEntity
  8
LAYER0016
  6
Continuous
 62
     9
100
AcDbLine
 10
-343.9255687434
 20
70.1191070853
 30
0.0
 11
-340.9255659357
 21
70.9229512365
 31
0.0
  0
LINE
  5
2D0
330
2CB
100
AcDbEntity
  8
LAYER0016
  6
Continuous
 62
     9
100
AcDbLine
 10
-343.9255687434
 20
70.1191070853
 30
0.0
 11
-340.9255659357
 21
70.1191070853
 31
0.0
  0
ENDBLK
  5
2CD
330
2CB
100
AcDbEntity
  8
0
100
AcDbBlockEnd
  0
BLOCK
  5
2D2
330
2D1
100
AcDbEntity
  8
0
100
AcDbBlockBegin
  2
_OPEN30_2
 70
     0
 10
0.0
 20
0.0
 30
0.0
  3
_OPEN30_2
  1

  0
LINE
  5
2D4
330
2D1
100
AcDbEntity
  8
SLD-0
  6
Continuous
 62
     9
100
AcDbLine
 10
-45.5290745546
 20
-39.8963207597
 30
0.0
 11
-46.3329187058
 21
-42.8963235673
 31
0.0
  0
LINE
  5
2D5
330
2D1
100
AcDbEntity
  8
SLD-0
  6
Continuous
 62
     9
100
AcDbLine
 10
-46.3329187058
 20
-42.8963235673
 30
0.0
 11
-47.1367628571
 21
-39.8963207597
 31
0.0
  0
LINE
  5
2D6
330
2D1
100
AcDbEntity
  8
SLD-0
  6
Continuous
 62
     9
100
AcDbLine
 10
-46.3329187058
 20
-42.8963235673
 30
0.0
 11
-46.3329187058
 21
-39.8963207597
 31
0.0
  0
ENDBLK
  5
2D3
330
2D1
100
AcDbEntity
  8
0
100
AcDbBlockEnd
  0
BLOCK
  5
2D8
330
2D7
100
AcDbEntity
  8
0
100
AcDbBlockBegin
  2
_OPEN30_39
 70
     0
 10
0.0
 20
0.0
 30
0.0
  3
_OPEN30_39
  1

  0
LINE
  5
2DA
330
2D7
100
AcDbEntity
  8
SLD-0
  6
Continuous
 62
     9
100
AcDbLine
 10
-48.6390737658
 20
-84.3963256047
 30
0.0
 11
-47.8352296145
 21
-81.3963227971
 31
0.0
  0
LINE
  5
2DB
330
2D7
100
AcDbEntity
  8
SLD-0
  6
Continuous
 62
     9
100
AcDbLine
 10
-47.8352296145
 20
-81.3963227971
 30
0.0
 11
-47.0313854633
 21
-84.3963256047
 31
0.0
  0
LINE
  5
2DC
330
2D7
100
AcDbEntity
  8
SLD-0
  6
Continuous
 62
     9
100
AcDbLine
 10
-47.8352296145
 20
-81.3963227971
 30
0.0
 11
-47.8352296145
 21
-84.3963256047
 31
0.0
  0
ENDBLK
  5
2D9
330
2D7
100
AcDbEntity
  8
0
100
AcDbBlockEnd
  0
BLOCK
  5
2DE
330
2DD
100
AcDbEntity
  8
0
100
AcDbBlockBegin
  2
_OPEN30_20
 70
     0
 10
0.0
 20
0.0
 30
0.0
  3
_OPEN30_20
  1

  0
LINE
  5
2E0
330
2DD
100
AcDbEntity
  8
SLD-0
  6
Continuous
 62
     9
100
AcDbLine
 10
92.9686145367
 20
-39.8963207597
 30
0.0
 11
92.1647703855
 21
-42.8963235673
 31
0.0
  0
LINE
  5
2E1
330
2DD
100
AcDbEntity
  8
SLD-0
  6
Continuous
 62
     9
100
AcDbLine
 10
92.1647703855
 20
-42.8963235673
 30
0.0
 11
91.3609262342
 21
-39.8963207597
 31
0.0
  0
LINE
  5
2E2
330
2DD
100
AcDbEntity
  8
SLD-0
  6
Continuous
 62
     9
100
AcDbLine
 10
92.1647703855
 20
-42.8963235673
 30
0.0
 11
92.1647703855
 21
-39.8963207597
 31
0.0
  0
ENDBLK
  5
2DF
330
2DD
100
AcDbEntity
  8
0
100
AcDbBlockEnd
  0
ENDSEC
  0
SECTION
  2
ENTITIES
  0
VIEWPORT
  5
2ED
330
1B
100
AcDbEntity
 67
     1
  8
0
100
AcDbViewport
 10
22.0
 20
17.0
 30
0.0
 40
46.552
 41
35.972
 68
     1
 69
     1
 12
22.0
 22
17.0
 13
0.0
 23
0.0
 14
0.5
 24
0.5
 15
0.5
 25
0.5
 16
0.0
 26
0.0
 36
1.0
 17
0.0
 27
0.0
 37
0.0
 42
50.0
 43
0.0
 44
0.0
 45
35.972
 50
0.0
 51
0.0
 72
   100
 90
   557152
  1

281
     0
 71
     1
 74
     0
110
0.0
120
0.0
130
0.0
111
1.0
121
0.0
131
0.0
112
0.0
122
1.0
132
0.0
 79
     0
146
0.0
  0
LINE
  5
2EE
330
1B
100
AcDbEntity
 67
     1
  8
SLD-0
  6
CENTER
 62
   179
100
AcDbLine
 10
35.8606945885
 20
16.6151192909
 30
0.0
 11
35.8606945885
 21
14.5104175513
 31
0.0
  0
LINE
  5
2EF
330
1B
100
AcDbEntity
 67
     1
  8
SLD-0
  6
CENTER
 62
   179
100
AcDbLine
 10
15.0727339485
 20
8.2220759567
 30
0.0
 11
15.0727339485
 21
31.6568585654
 31
0.0
  0
LINE
  5
2F0
330
1B
100
AcDbEntity
 67
     1
  8
SLD-0
  6
CENTER
 62
   179
100
AcDbLine
 10
39.0354393744
 20
22.5351192909
 30
0.0
 11
10.0613071128
 21
22.5351192909
 31
0.0
  0
LINE
  5
2F1
330
1B
100
AcDbEntity
 67
     1
  8
SLD-0
  6
CENTER
 62
   179
100
AcDbLine
 10
35.8606945885
 20
16.6151192909
 30
0.0
 11
7.0518807336
 21
16.6151192909
 31
0.0
  0
LINE
  5
2F2
330
1B
100
AcDbEntity
 67
     1
  8
SLD-0
  6
Continuous
 62
   179
100
AcDbLine
 10
1.4101735745
 20
32.9019428324
 30
0.0
 11
43.0101735745
 21
32.9019428324
 31
0.0
  0
LINE
  5
2F3
330
1B
100
AcDbEntity
 67
     1
  8
SLD-0
  6
Continuous
 62
   179
100
AcDbLine
 10
1.4101735745
 20
32.9019428324
 30
0.0
 11
1.4101735745
 21
0.9019428324
 31
0.0
  0
LINE
  5
2F4
330
1B
100
AcDbEntity
 67
     1
  8
SLD-0
  6
Continuous
 62
   179
100
AcDbLine
 10
43.0101735745
 20
32.9019428324
 30
0.0
 11
43.0101735745
 21
0.9019428324
 31
0.0
  0
LINE
  5
2F5
330
1B
100
AcDbEntity
 67
     1
  8
SLD-0
  6
Continuous
 62
   179
100
AcDbLine
 10
1.4101735745
 20
0.9019428324
 30
0.0
 11
37.600447288
 21
0.9019428324
 31
0.0
  0
LINE
  5
2F6
330
1B
100
AcDbEntity
 67
     1
  8
SLD-0
  6
Continuous
 62
   179
100
AcDbLine
 10
37.600447288
 20
0.9019428324
 30
0.0
 11
43.0101735745
 21
0.9019428324
 31
0.0
  0
LINE
  5
2F7
330
1B
100
AcDbEntity
 67
     1
  8
SLD-0
  6
Continuous
 62
     4
100
AcDbLine
 10
34.1326945885
 20
20.9351192909
 30
0.0
 11
34.1326945885
 21
9.7351192909
 31
0.0
  0
LINE
  5
2F8
330
1B
100
AcDbEntity
 67
     1
  8
SLD-0
  6
Continuous
 62
     4
100
AcDbLine
 10
34.1326945885
 20
9.7351192909
 30
0.0
 11
34.6446945885
 21
9.7351192909
 31
0.0
  0
LINE
  5
2F9
330
1B
100
AcDbEntity
 67
     1
  8
SLD-0
  6
Continuous
 62
     4
100
AcDbLine
 10
37.4926945885
 20
24.4551192909
 30
0.0
 11
37.4926945885
 21
13.0631192909
 31
0.0
  0
LINE
  5
2FA
330
1B
100
AcDbEntity
 67
     1
  8
SLD-0
  6
Continuous
 62
     4
100
AcDbLine
 10
34.6446945885
 20
24.4551192909
 30
0.0
 11
37.4926945885
 21
24.4551192909
 31
0.0
  0
LINE
  5
2FB
330
1B
100
AcDbEntity
 67
     1
  8
SLD-0
  6
Continuous
 62
     4
100
AcDbLine
 10
36.5326945885
 20
12.1031192909
 30
0.0
 11
34.6446945885
 21
12.1031192909
 31
0.0
  0
LINE
  5
2FC
330
1B
100
AcDbEntity
 67
     1
  8
SLD-0
  6
Continuous
 62
     4
100
AcDbLine
 10
17.6891733841
 20
24.4551192909
 30
0.0
 11
18.5043518685
 21
24.4551192909
 31
0.0
  0
LINE
  5
2FD
330
1B
100
AcDbEntity
 67
     1
  8
SLD-0
  6
Continuous
 62
     4
100
AcDbLine
 10
11.6411163485
 20
24.4551192909
 30
0.0
 11
12.4562945128
 21
24.4551192909
 31
0.0
  0
LINE
  5
2FE
330
1B
100
AcDbEntity
 67
     1
  8
SLD-0
  6
Continuous
 62
     4
100
AcDbLine
 10
18.1927339781
 20
24.0267766517
 30
0.0
 11
18.5043518685
 21
24.4551192909
 31
0.0
  0
LINE
  5
2FF
330
1B
100
AcDbEntity
 67
     1
  8
SLD-0
  6
Continuous
 62
     4
100
AcDbLine
 10
11.9527339485
 20
24.0267765709
 30
0.0
 11
11.6411163485
 21
24.4551192909
 31
0.0
  0
LINE
  5
300
330
1B
100
AcDbEntity
 67
     1
  8
SLD-0
  6
Continuous
 62
     4
100
AcDbLine
 10
11.7447339485
 20
12.6151192909
 30
0.0
 11
18.4007338591
 21
12.6151192909
 31
0.0
  0
LINE
  5
301
330
1B
100
AcDbEntity
 67
     1
  8
SLD-0
  6
Continuous
 62
     4
100
AcDbLine
 10
19.0407339485
 20
20.9351192909
 30
0.0
 11
19.5527339485
 21
20.9351192909
 31
0.0
  0
LINE
  5
302
330
1B
100
AcDbEntity
 67
     1
  8
SLD-0
  6
Continuous
 62
     4
100
AcDbLine
 10
10.5927339485
 20
20.9351192909
 30
0.0
 11
11.1047339485
 21
20.9351192909
 31
0.0
  0
LINE
  5
303
330
1B
100
AcDbEntity
 67
     1
  8
SLD-0
  6
Continuous
 62
     4
100
AcDbLine
 10
10.5927339485
 20
21.5751192909
 30
0.0
 11
10.5927339485
 21
10.3751193467
 31
0.0
  0
LINE
  5
304
330
1B
100
AcDbEntity
 67
     1
  8
SLD-0
  6
Continuous
 62
     4
100
AcDbLine
 10
19.5527339485
 20
21.5751192909
 30
0.0
 11
19.5527339485
 21
10.3751192909
 31
0.0
  0
LINE
  5
305
330
1B
100
AcDbEntity
 67
     1
  8
SLD-0
  6
Continuous
 62
     4
100
AcDbLine
 10
11.2327339485
 20
9.7351192909
 30
0.0
 11
18.9127339485
 21
9.7351192909
 31
0.0
  0
LINE
  5
306
330
1B
100
AcDbEntity
 67
     1
  8
SLD-0
  6
Continuous
 62
     4
100
AcDbLine
 10
11.1047339485
 20
21.5751192909
 30
0.0
 11
11.1047339485
 21
13.2551193467
 31
0.0
  0
LINE
  5
307
330
1B
100
AcDbEntity
 67
     1
  8
SLD-0
  6
Continuous
 62
     4
100
AcDbLine
 10
19.0407339485
 20
21.5751192909
 30
0.0
 11
19.0407339485
 21
17.0951192909
 31
0.0
  0
LINE
  5
308
330
1B
100
AcDbEntity
 67
     1
  8
SLD-0
  6
Continuous
 62
     4
100
AcDbLine
 10
19.0407339485
 20
16.1351192909
 30
0.0
 11
19.0407339485
 21
13.2551192909
 31
0.0
  0
LINE
  5
309
330
1B
100
AcDbEntity
 67
     1
  8
SLD-0
  6
Continuous
 62
   150
100
AcDbLine
 10
34.2286945885
 20
21.6391192909
 30
0.0
 11
34.2926945885
 21
21.5751192909
 31
0.0
  0
LINE
  5
30A
330
1B
100
AcDbEntity
 67
     1
  8
SLD-0
  6
Continuous
 62
   150
100
AcDbLine
 10
34.2286945885
 20
21.6391192909
 30
0.0
 11
34.2286945885
 21
23.4311192909
 31
0.0
  0
LINE
  5
30B
330
1B
100
AcDbEntity
 67
     1
  8
SLD-0
  6
Continuous
 62
   150
100
AcDbLine
 10
34.2286945885
 20
23.4311192909
 30
0.0
 11
34.2926945885
 21
23.4951192909
 31
0.0
  0
LINE
  5
30C
330
1B
100
AcDbEntity
 67
     1
  8
SLD-0
  6
Continuous
 62
   150
100
AcDbLine
 10
34.2926945885
 20
21.5751192909
 30
0.0
 11
34.4206945885
 21
21.5751192909
 31
0.0
  0
LINE
  5
30D
330
1B
100
AcDbEntity
 67
     1
  8
SLD-0
  6
Continuous
 62
   150
100
AcDbLine
 10
34.2926945885
 20
23.4951192909
 30
0.0
 11
34.4206945885
 21
23.4951192909
 31
0.0
  0
LINE
  5
30E
330
1B
100
AcDbEntity
 67
     1
  8
SLD-0
  6
Continuous
 62
     3
100
AcDbLine
 10
33.3646945885
 20
15.8151192909
 30
0.0
 11
29.4606945885
 21
15.8151192909
 31
0.0
  0
LINE
  5
30F
330
1B
100
AcDbEntity
 67
     1
  8
SLD-0
  6
Continuous
 62
     3
100
AcDbLine
 10
36.9806945885
 20
25.4151192909
 30
0.0
 11
36.9806945885
 21
24.4551192909
 31
0.0
  0
LINE
  5
310
330
1B
100
AcDbEntity
 67
     1
  8
SLD-0
  6
Continuous
 62
     3
100
AcDbLine
 10
36.6361405085
 20
25.4151192909
 30
0.0
 11
36.9806945885
 21
25.4151192909
 31
0.0
  0
LINE
  5
311
330
1B
100
AcDbEntity
 67
     1
  8
SLD-0
  6
Continuous
 62
     3
100
AcDbLine
 10
34.7406945885
 20
29.8951192909
 30
0.0
 11
34.4206945885
 21
29.8951192909
 31
0.0
  0
LINE
  5
312
330
1B
100
AcDbEntity
 67
     1
  8
SLD-0
  6
Continuous
 62
     3
100
AcDbLine
 10
34.4206945885
 20
25.4151192909
 30
0.0
 11
34.5986491708
 21
25.4151192909
 31
0.0
  0
LINE
  5
313
330
1B
100
AcDbEntity
 67
     1
  8
SLD-0
  6
Continuous
 62
     3
100
AcDbLine
 10
28.9806945885
 20
15.3351192909
 30
0.0
 11
28.9806945885
 21
14.3751192909
 31
0.0
  0
LINE
  5
314
330
1B
100
AcDbEntity
 67
     1
  8
SLD-0
  6
Continuous
 62
     3
100
AcDbLine
 10
34.4206945885
 20
29.8951192909
 30
0.0
 11
34.4206945885
 21
20.9351192909
 31
0.0
  0
LINE
  5
315
330
1B
100
AcDbEntity
 67
     1
  8
SLD-0
  6
Continuous
 62
     3
100
AcDbLine
 10
34.1326945885
 20
13.8951192909
 30
0.0
 11
29.4606945885
 21
13.8951192909
 31
0.0
  0
LINE
  5
316
330
1B
100
AcDbEntity
 67
     1
  8
SLD-0
  6
Continuous
 62
     1
100
AcDbLine
 10
14.9197461176
 20
26.0517931062
 30
0.0
 11
14.7528502839
 21
29.8881645404
 31
0.0
  0
LINE
  5
317
330
1B
100
AcDbEntity
 67
     1
  8
SLD-0
  6
Continuous
 62
     1
100
AcDbLine
 10
14.6139564675
 20
25.7181874998
 30
0.0
 11
14.6278644536
 21
25.3984898803
 31
0.0
  0
LINE
  5
318
330
1B
100
AcDbEntity
 67
     1
  8
SLD-0
  6
Continuous
 62
     1
100
AcDbLine
 10
17.286927948
 20
18.7817631181
 30
0.0
 11
17.6600111933
 21
19.4981745853
 31
0.0
  0
LINE
  5
319
330
1B
100
AcDbEntity
 67
     1
  8
SLD-0
  6
Continuous
 62
     1
100
AcDbLine
 10
15.5246504672
 20
15.8284232742
 30
0.0
 11
16.8369369229
 21
15.7018563387
 31
0.0
  0
LINE
  5
31A
330
1B
100
AcDbEntity
 67
     1
  8
SLD-0
  6
Continuous
 62
     1
100
AcDbLine
 10
15.5225735724
 20
15.5080302554
 30
0.0
 11
15.5385584534
 21
15.5087256547
 31
0.0
  0
LINE
  5
31B
330
1B
100
AcDbEntity
 67
     1
  8
SLD-0
  6
Continuous
 62
     1
100
AcDbLine
 10
15.578205517
 20
14.2292397773
 30
0.0
 11
15.594190398
 21
14.2299351766
 31
0.0
  0
LINE
  5
31C
330
1B
100
AcDbEntity
 67
     1
  8
SLD-0
  6
Continuous
 62
     1
100
AcDbLine
 10
15.4308366824
 20
15.4079485737
 30
0.0
 11
15.4781238353
 21
14.3209766673
 31
0.0
  0
LINE
  5
31D
330
1B
100
AcDbEntity
 67
     1
  8
SLD-0
  6
Continuous
 62
     1
100
AcDbLine
 10
15.6080983841
 20
13.9102375571
 30
0.0
 11
16.9044357272
 21
14.1502887966
 31
0.0
  0
LINE
  5
31E
330
1B
100
AcDbEntity
 67
     1
  8
SLD-0
  6
Continuous
 62
     1
100
AcDbLine
 10
14.1483179797
 20
25.3776278992
 30
0.0
 11
12.5241265579
 21
25.3069697822
 31
0.0
  0
LINE
  5
31F
330
1B
100
AcDbEntity
 67
     1
  8
SLD-0
  6
Continuous
 62
     1
100
AcDbLine
 10
12.4595210478
 20
23.7026458798
 30
0.0
 11
12.5151529924
 21
22.4238554017
 31
0.0
  0
LINE
  5
320
330
1B
100
AcDbEntity
 67
     1
  8
SLD-0
  6
Continuous
 62
     1
100
AcDbLine
 10
14.2781986701
 20
29.7547869014
 30
0.0
 11
14.4541076577
 21
25.7112335068
 31
0.0
  0
LINE
  5
321
330
1B
100
AcDbEntity
 67
     1
  8
SLD-0
  6
Continuous
 62
     1
100
AcDbLine
 10
14.3639785548
 20
29.8712472339
 30
0.0
 11
14.7528502839
 21
29.8881645404
 31
0.0
  0
LINE
  5
322
330
1B
100
AcDbEntity
 67
     1
  8
SLD-0
  6
Continuous
 62
     1
100
AcDbLine
 10
17.6303141266
 20
22.6464009023
 30
0.0
 11
17.7068202345
 21
20.8880645251
 31
0.0
  0
LINE
  5
323
330
1B
100
AcDbEntity
 67
     1
  8
SLD-0
  6
Continuous
 62
     1
100
AcDbLine
 10
17.7068202345
 20
20.8880645251
 30
0.0
 11
17.7497043684
 21
19.90246044
 31
0.0
  0
LINE
  5
324
330
1B
100
AcDbEntity
 67
     1
  8
SLD-0
  6
Continuous
 62
     1
100
AcDbLine
 10
17.1789428118
 20
18.2965500672
 30
0.0
 11
17.324710555
 21
14.9458420618
 31
0.0
  0
LINE
  5
325
330
1B
100
AcDbEntity
 67
     1
  8
SLD-0
  6
Continuous
 62
     1
100
AcDbLine
 10
15.3508006404
 20
19.8246435181
 30
0.0
 11
15.6080983841
 21
13.9102375571
 31
0.0
  0
LINE
  5
326
330
1B
100
AcDbEntity
 67
     1
  8
SLD-0
  6
Continuous
 62
     3
100
AcDbLine
 10
14.6228943245
 20
15.5080302554
 30
0.0
 11
14.6069094435
 21
15.5087256547
 31
0.0
  0
LINE
  5
327
330
1B
100
AcDbEntity
 67
     1
  8
SLD-0
  6
Continuous
 62
     3
100
AcDbLine
 10
14.5672623799
 20
14.2292397773
 30
0.0
 11
14.551277499
 21
14.2299351766
 31
0.0
  0
LINE
  5
328
330
1B
100
AcDbEntity
 67
     1
  8
SLD-0
  6
Continuous
 62
     3
100
AcDbLine
 10
14.7146312145
 20
15.4079485737
 30
0.0
 11
14.6673440616
 21
14.3209766673
 31
0.0
  0
LINE
  5
329
330
1B
100
AcDbEntity
 67
     1
  8
SLD-0
  6
Continuous
 62
     3
100
AcDbLine
 10
15.5315114294
 20
25.7181874998
 30
0.0
 11
15.5176034433
 21
25.3984898803
 31
0.0
  0
LINE
  5
32A
330
1B
100
AcDbEntity
 67
     1
  8
SLD-0
  6
Continuous
 62
     3
100
AcDbLine
 10
14.6208174297
 20
15.8284232742
 30
0.0
 11
13.3085308878
 21
15.7018563131
 31
0.0
  0
LINE
  5
32B
330
1B
100
AcDbEntity
 67
     1
  8
SLD-0
  6
Continuous
 62
     3
100
AcDbLine
 10
15.8672692268
 20
29.7547869014
 30
0.0
 11
15.6913602404
 21
25.7112335347
 31
0.0
  0
LINE
  5
32C
330
1B
100
AcDbEntity
 67
     1
  8
SLD-0
  6
Continuous
 62
     3
100
AcDbLine
 10
15.9971498725
 20
25.3776279011
 30
0.0
 11
17.621341339
 21
25.3069697822
 31
0.0
  0
LINE
  5
32D
330
1B
100
AcDbEntity
 67
     1
  8
SLD-0
  6
Continuous
 62
     3
100
AcDbLine
 10
15.7814893422
 20
29.8712472339
 30
0.0
 11
15.3926176298
 21
29.8881645396
 31
0.0
  0
LINE
  5
32E
330
1B
100
AcDbEntity
 67
     1
  8
SLD-0
  6
Continuous
 62
     3
100
AcDbLine
 10
12.858540706
 20
18.7817808411
 30
0.0
 11
12.4854574607
 21
19.4981923083
 31
0.0
  0
LINE
  5
32F
330
1B
100
AcDbEntity
 67
     1
  8
SLD-0
  6
Continuous
 62
     3
100
AcDbLine
 10
12.6054515177
 20
21.0409581861
 30
0.0
 11
12.7256886614
 21
21.035726607
 31
0.0
  0
LINE
  5
330
330
1B
100
AcDbEntity
 67
     1
  8
SLD-0
  6
Continuous
 62
     3
100
AcDbLine
 10
12.4386484194
 20
20.8880822483
 30
0.0
 11
12.3959993884
 21
19.9078815209
 31
0.0
  0
LINE
  5
331
330
1B
100
AcDbEntity
 67
     1
  8
SLD-0
  6
Continuous
 62
     3
100
AcDbLine
 10
12.4386484194
 20
20.8880822483
 30
0.0
 11
12.3957642856
 21
19.9024781631
 31
0.0
  0
LINE
  5
332
330
1B
100
AcDbEntity
 67
     1
  8
SLD-0
  6
Continuous
 62
     3
100
AcDbLine
 10
12.9665285114
 20
18.2966289869
 30
0.0
 11
12.8190130449
 21
14.9057467262
 31
0.0
  0
LINE
  5
333
330
1B
100
AcDbEntity
 67
     1
  8
SLD-0
  6
Continuous
 62
     3
100
AcDbLine
 10
14.5373695128
 20
13.9102375571
 30
0.0
 11
13.24103231
 21
14.1502887531
 31
0.0
  0
LINE
  5
334
330
1B
100
AcDbEntity
 67
     1
  8
SLD-0
  6
Continuous
 62
     3
100
AcDbLine
 10
14.7946672565
 20
19.8246435181
 30
0.0
 11
14.5373695128
 21
13.9102375571
 31
0.0
  0
LINE
  5
335
330
1B
100
AcDbEntity
 67
     1
  8
SLD-0
  6
Continuous
 62
     3
100
AcDbLine
 10
15.2257218128
 20
26.0517931048
 30
0.0
 11
15.3926176298
 21
29.8881645396
 31
0.0
  0
LINE
  5
336
330
1B
100
AcDbEntity
 67
     1
  8
SLD-0
  6
Continuous
 62
     3
100
AcDbLine
 10
12.5103122267
 20
22.5351282507
 30
0.0
 11
12.3957642856
 21
19.9024781631
 31
0.0
  0
LINE
  5
337
330
1B
100
AcDbEntity
 67
     1
  8
SLD-0
  6
Continuous
 62
     3
100
AcDbLine
 10
17.6859468491
 20
23.7026458798
 30
0.0
 11
17.6351556631
 21
22.5351280891
 31
0.0
  0
LINE
  5
338
330
1B
100
AcDbEntity
 67
     1
  8
SLD-0
  6
Continuous
 62
    60
100
AcDbLine
 10
14.1213055486
 20
22.6631192909
 30
0.0
 11
14.7006976147
 21
22.6631192909
 31
0.0
  0
LINE
  5
339
330
1B
100
AcDbEntity
 67
     1
  8
SLD-0
  6
Continuous
 62
    60
100
AcDbLine
 10
14.1213055486
 20
22.4071192909
 30
0.0
 11
14.7006976147
 21
22.4071192909
 31
0.0
  0
LINE
  5
33A
330
1B
100
AcDbEntity
 67
     1
  8
SLD-0
  6
Continuous
 62
    60
100
AcDbLine
 10
15.4447702822
 20
22.6631192909
 30
0.0
 11
16.0241623483
 21
22.6631192909
 31
0.0
  0
LINE
  5
33B
330
1B
100
AcDbEntity
 67
     1
  8
SLD-0
  6
Continuous
 62
    60
100
AcDbLine
 10
15.4447702822
 20
22.4071192909
 30
0.0
 11
16.0241623483
 21
22.4071192909
 31
0.0
  0
LINE
  5
33C
330
1B
100
AcDbEntity
 67
     1
  8
SLD-0
  6
Continuous
 62
     4
100
AcDbLine
 10
34.6446945885
 20
24.4551192909
 30
0.0
 11
34.6446945885
 21
20.9351192909
 31
0.0
  0
LINE
  5
33D
330
1B
100
AcDbEntity
 67
     1
  8
SLD-0
  6
Continuous
 62
     4
100
AcDbLine
 10
34.1326945885
 20
20.9351192909
 30
0.0
 11
34.6446945885
 21
20.9351192909
 31
0.0
  0
LINE
  5
33E
330
1B
100
AcDbEntity
 67
     1
  8
SLD-0
  6
Continuous
 62
     4
100
AcDbLine
 10
34.1326945885
 20
20.9351192909
 30
0.0
 11
34.6446945885
 21
20.9351192909
 31
0.0
  0
LINE
  5
33F
330
1B
100
AcDbEntity
 67
     1
  8
SLD-0
  6
Continuous
 62
     4
100
AcDbLine
 10
34.6446945885
 20
9.7351192909
 30
0.0
 11
34.6446945885
 21
12.1031192909
 31
0.0
  0
LINE
  5
340
330
1B
100
AcDbEntity
 67
     1
  8
SLD-0
  6
Continuous
 62
    32
100
AcDbLine
 10
10.5927339485
 20
15.5911192909
 30
0.0
 11
9.9263475958
 21
15.5911192909
 31
0.0
  0
LINE
  5
341
330
1B
100
AcDbEntity
 67
     1
  8
SLD-0
  6
Continuous
 62
    32
100
AcDbLine
 10
9.9263475958
 20
16.0991875278
 30
0.0
 11
10.5927339485
 21
16.0991875278
 31
0.0
  0
LINE
  5
342
330
1B
100
AcDbEntity
 67
     1
  8
SLD-0
  6
Continuous
 62
    32
100
AcDbLine
 10
9.8247339485
 20
15.8451534093
 30
0.0
 11
9.8247339485
 21
17.3850851724
 31
0.0
  0
LINE
  5
343
330
1B
100
AcDbEntity
 67
     1
  8
SLD-0
  6
Continuous
 62
    32
100
AcDbLine
 10
10.5927339485
 20
17.6391192909
 30
0.0
 11
9.9263475958
 21
17.6391192909
 31
0.0
  0
LINE
  5
344
330
1B
100
AcDbEntity
 67
     1
  8
SLD-0
  6
Continuous
 62
    32
100
AcDbLine
 10
10.5927339485
 20
17.131051054
 30
0.0
 11
9.9263475958
 21
17.131051054
 31
0.0
  0
LINE
  5
345
330
1B
100
AcDbEntity
 67
     1
  8
LAYER0016
  6
CENTER
 62
   179
100
AcDbLine
 10
763.3955087127
 20
535.7910783261
 30
0.0
 11
676.8155406786
 21
535.7910783261
 31
0.0
  0
LINE
  5
346
330
1B
100
AcDbEntity
 67
     1
  8
LAYER0016
  6
CENTER
 62
   179
100
AcDbLine
 10
754.0744312566
 20
517.2910783261
 30
0.0
 11
662.4715956693
 21
517.2910783261
 31
0.0
  0
LINE
  5
347
330
1B
100
AcDbEntity
 67
     1
  8
LAYER0016
  6
CENTER
 62
   179
100
AcDbLine
 10
754.0744312566
 20
517.2910783261
 30
0.0
 11
754.0744312566
 21
509.1008613849
 31
0.0
  0
LINE
  5
348
330
1B
100
AcDbEntity
 67
     1
  8
LAYER0016
  6
CENTER
 62
   179
100
AcDbLine
 10
683.5120542566
 20
491.0628179066
 30
0.0
 11
683.5120542566
 21
564.2965135588
 31
0.0
  0
LINE
  5
349
330
1B
100
AcDbEntity
 67
     1
  8
LAYER0016
  6
Continuous
 62
     4
100
AcDbLine
 10
673.0120541014
 20
539.9910784307
 30
0.0
 11
675.3569536865
 21
539.9910784307
 31
0.0
  0
LINE
  5
34A
330
1B
100
AcDbEntity
 67
     1
  8
LAYER0016
  6
Continuous
 62
     4
100
AcDbLine
 10
691.6672313447
 20
539.9910783261
 30
0.0
 11
694.0120542566
 21
539.9910783261
 31
0.0
  0
LINE
  5
34B
330
1B
100
AcDbEntity
 67
     1
  8
LAYER0016
  6
Continuous
 62
     4
100
AcDbLine
 10
673.0120541014
 20
539.9910784307
 30
0.0
 11
673.4620541014
 21
538.8786484307
 31
0.0
  0
LINE
  5
34C
330
1B
100
AcDbEntity
 67
     1
  8
LAYER0016
  6
Continuous
 62
     4
100
AcDbLine
 10
694.0120542566
 20
539.9910783261
 30
0.0
 11
693.5620542567
 21
538.8786483261
 31
0.0
  0
LINE
  5
34D
330
1B
100
AcDbEntity
 67
     1
  8
LAYER0016
  6
Continuous
 62
     4
100
AcDbLine
 10
689.5120542566
 20
499.1910783261
 30
0.0
 11
677.5120542566
 21
499.1910783261
 31
0.0
  0
LINE
  5
34E
330
1B
100
AcDbEntity
 67
     1
  8
LAYER0016
  6
Continuous
 62
     4
100
AcDbLine
 10
677.5120542566
 20
497.9910783261
 30
0.0
 11
689.5120542566
 21
497.9910783261
 31
0.0
  0
LINE
  5
34F
330
1B
100
AcDbEntity
 67
     1
  8
LAYER0016
  6
Continuous
 62
     4
100
AcDbLine
 10
706.0120542566
 20
524.7910783261
 30
0.0
 11
706.0120542566
 21
497.7910783261
 31
0.0
  0
LINE
  5
350
330
1B
100
AcDbEntity
 67
     1
  8
LAYER0016
  6
Continuous
 62
     4
100
AcDbLine
 10
661.0120542566
 20
524.7910783261
 30
0.0
 11
661.0120542566
 21
497.7910783261
 31
0.0
  0
LINE
  5
351
330
1B
100
AcDbEntity
 67
     1
  8
LAYER0016
  6
Continuous
 62
     4
100
AcDbLine
 10
665.0120544661
 20
528.7910783261
 30
0.0
 11
670.5120542566
 21
528.7910783261
 31
0.0
  0
LINE
  5
352
330
1B
100
AcDbEntity
 67
     1
  8
LAYER0016
  6
Continuous
 62
     4
100
AcDbLine
 10
696.5120542566
 20
528.7910783261
 30
0.0
 11
702.0120544661
 21
528.7910783261
 31
0.0
  0
LINE
  5
353
330
1B
100
AcDbEntity
 67
     1
  8
LAYER0016
  6
Continuous
 62
     4
100
AcDbLine
 10
696.5120541014
 20
536.2829792214
 30
0.0
 11
696.5120541014
 21
504.9910782214
 31
0.0
  0
LINE
  5
354
330
1B
100
AcDbEntity
 67
     1
  8
LAYER0016
  6
Continuous
 62
     4
100
AcDbLine
 10
670.5120542566
 20
536.2829796751
 30
0.0
 11
670.5120542566
 21
504.9910783261
 31
0.0
  0
LINE
  5
355
330
1B
100
AcDbEntity
 67
     1
  8
LAYER0016
  6
Continuous
 62
     4
100
AcDbLine
 10
665.0120542566
 20
493.7910783261
 30
0.0
 11
702.0120542566
 21
493.7910783261
 31
0.0
  0
LINE
  5
356
330
1B
100
AcDbEntity
 67
     1
  8
LAYER0016
  6
Continuous
 62
     4
100
AcDbLine
 10
759.0744312566
 20
539.9910783261
 30
0.0
 11
757.5744312566
 21
539.9910783261
 31
0.0
  0
LINE
  5
357
330
1B
100
AcDbEntity
 67
     1
  8
LAYER0016
  6
Continuous
 62
     4
100
AcDbLine
 10
759.0744312566
 20
539.9910783261
 30
0.0
 11
759.0744312566
 21
499.9910783261
 31
0.0
  0
LINE
  5
358
330
1B
100
AcDbEntity
 67
     1
  8
LAYER0016
  6
Continuous
 62
     4
100
AcDbLine
 10
757.5744312566
 20
528.7910783261
 30
0.0
 11
748.0744312566
 21
528.7910783261
 31
0.0
  0
LINE
  5
359
330
1B
100
AcDbEntity
 67
     1
  8
LAYER0016
  6
Continuous
 62
     4
100
AcDbLine
 10
748.0744312566
 20
528.7910783261
 30
0.0
 11
748.0744312566
 21
493.7910783261
 31
0.0
  0
LINE
  5
35A
330
1B
100
AcDbEntity
 67
     1
  8
LAYER0016
  6
Continuous
 62
     4
100
AcDbLine
 10
749.5744312566
 20
493.7910783261
 30
0.0
 11
748.0744312566
 21
493.7910783261
 31
0.0
  0
LINE
  5
35B
330
1B
100
AcDbEntity
 67
     1
  8
LAYER0016
  6
Continuous
 62
     4
100
AcDbLine
 10
749.5744312566
 20
528.7910783261
 30
0.0
 11
749.5744312566
 21
493.7910783261
 31
0.0
  0
LINE
  5
35C
330
1B
100
AcDbEntity
 67
     1
  8
LAYER0016
  6
Continuous
 62
     4
100
AcDbLine
 10
757.0744315359
 20
497.9910783261
 30
0.0
 11
749.5744312566
 21
497.9910783261
 31
0.0
  0
LINE
  5
35D
330
1B
100
AcDbEntity
 67
     1
  8
LAYER0016
  6
Continuous
 62
     4
100
AcDbLine
 10
671.7120542566
 20
504.9910783261
 30
0.0
 11
671.7120542566
 21
516.0610783261
 31
0.0
  0
LINE
  5
35E
330
1B
100
AcDbEntity
 67
     1
  8
LAYER0016
  6
Continuous
 62
     4
100
AcDbLine
 10
671.7120541438
 20
518.5210783261
 30
0.0
 11
671.7120541438
 21
536.2829795704
 31
0.0
  0
LINE
  5
35F
330
1B
100
AcDbEntity
 67
     1
  8
LAYER0016
  6
Continuous
 62
     4
100
AcDbLine
 10
695.3120542143
 20
536.2829792214
 30
0.0
 11
695.3120542143
 21
518.5210782214
 31
0.0
  0
LINE
  5
360
330
1B
100
AcDbEntity
 67
     1
  8
LAYER0016
  6
Continuous
 62
     4
100
AcDbLine
 10
695.3120541014
 20
516.0610782214
 30
0.0
 11
695.3120541014
 21
504.9910782214
 31
0.0
  0
LINE
  5
361
330
1B
100
AcDbEntity
 67
     1
  8
LAYER0016
  6
Continuous
 62
   150
100
AcDbLine
 10
748.9744312566
 20
532.9910783261
 30
0.0
 11
749.1744312566
 21
532.7910783261
 31
0.0
  0
LINE
  5
362
330
1B
100
AcDbEntity
 67
     1
  8
LAYER0016
  6
Continuous
 62
   150
100
AcDbLine
 10
748.9744312566
 20
532.9910783261
 30
0.0
 11
748.9744312566
 21
538.5910783261
 31
0.0
  0
LINE
  5
363
330
1B
100
AcDbEntity
 67
     1
  8
LAYER0016
  6
Continuous
 62
   150
100
AcDbLine
 10
748.9744312566
 20
538.5910783261
 30
0.0
 11
749.1744312566
 21
538.7910783261
 31
0.0
  0
LINE
  5
364
330
1B
100
AcDbEntity
 67
     1
  8
LAYER0016
  6
Continuous
 62
   150
100
AcDbLine
 10
749.1744312566
 20
532.7910783261
 30
0.0
 11
749.5744312566
 21
532.7910783261
 31
0.0
  0
LINE
  5
365
330
1B
100
AcDbEntity
 67
     1
  8
LAYER0016
  6
Continuous
 62
   150
100
AcDbLine
 10
749.1744312566
 20
538.7910783261
 30
0.0
 11
749.5744312566
 21
538.7910783261
 31
0.0
  0
LINE
  5
366
330
1B
100
AcDbEntity
 67
     1
  8
LAYER0016
  6
Continuous
 62
     3
100
AcDbLine
 10
749.5744312566
 20
544.7910783261
 30
0.0
 11
750.1507323265
 21
544.7910783261
 31
0.0
  0
LINE
  5
367
330
1B
100
AcDbEntity
 67
     1
  8
LAYER0016
  6
Continuous
 62
     3
100
AcDbLine
 10
747.5244312566
 20
514.7910783261
 30
0.0
 11
734.0744312566
 21
514.7910783261
 31
0.0
  0
LINE
  5
368
330
1B
100
AcDbEntity
 67
     1
  8
LAYER0016
  6
Continuous
 62
     3
100
AcDbLine
 10
732.5744312566
 20
513.2910783261
 30
0.0
 11
732.5744312566
 21
510.2910783261
 31
0.0
  0
LINE
  5
369
330
1B
100
AcDbEntity
 67
     1
  8
LAYER0016
  6
Continuous
 62
     3
100
AcDbLine
 10
757.0168122566
 20
544.7910783261
 30
0.0
 11
757.5744312566
 21
544.7910783261
 31
0.0
  0
LINE
  5
36A
330
1B
100
AcDbEntity
 67
     1
  8
LAYER0016
  6
Continuous
 62
     3
100
AcDbLine
 10
749.5744312566
 20
563.7910783261
 30
0.0
 11
750.5744312566
 21
563.7910783261
 31
0.0
  0
LINE
  5
36B
330
1B
100
AcDbEntity
 67
     1
  8
LAYER0016
  6
Continuous
 62
     3
100
AcDbLine
 10
757.5744312566
 20
544.7910783261
 30
0.0
 11
757.5744312566
 21
528.7910783261
 31
0.0
  0
LINE
  5
36C
330
1B
100
AcDbEntity
 67
     1
  8
LAYER0016
  6
Continuous
 62
     3
100
AcDbLine
 10
748.1744312566
 20
508.7910783261
 30
0.0
 11
734.0744314661
 21
508.7910783261
 31
0.0
  0
LINE
  5
36D
330
1B
100
AcDbEntity
 67
     1
  8
LAYER0016
  6
Continuous
 62
     3
100
AcDbLine
 10
749.5744312566
 20
563.7910783261
 30
0.0
 11
749.5744312566
 21
528.7910783261
 31
0.0
  0
LINE
  5
36E
330
1B
100
AcDbEntity
 67
     1
  8
LAYER0016
  6
Continuous
 62
     3
100
AcDbLine
 10
677.2117392194
 20
527.4934398377
 30
0.0
 11
675.7156389196
 21
533.997780648
 31
0.0
  0
LINE
  5
36F
330
1B
100
AcDbEntity
 67
     1
  8
LAYER0016
  6
Continuous
 62
     3
100
AcDbLine
 10
684.8685024117
 20
545.748992184
 30
0.0
 11
684.8327938207
 21
544.7496299391
 31
0.0
  0
LINE
  5
370
330
1B
100
AcDbEntity
 67
     1
  8
LAYER0016
  6
Continuous
 62
     3
100
AcDbLine
 10
682.7088501121
 20
527.3143535835
 30
0.0
 11
682.0482411767
 21
508.8261520093
 31
0.0
  0
LINE
  5
371
330
1B
100
AcDbEntity
 67
     1
  8
LAYER0016
  6
Continuous
 62
     3
100
AcDbLine
 10
682.0482411767
 20
508.8261520093
 30
0.0
 11
677.9914877724
 21
509.5448533129
 31
0.0
  0
LINE
  5
372
330
1B
100
AcDbEntity
 67
     1
  8
LAYER0016
  6
Continuous
 62
     3
100
AcDbLine
 10
682.2838222167
 20
509.818372536
 30
0.0
 11
682.0839497677
 21
509.8255142542
 31
0.0
  0
LINE
  5
373
330
1B
100
AcDbEntity
 67
     1
  8
LAYER0016
  6
Continuous
 62
     3
100
AcDbLine
 10
682.4266565808
 20
513.8158215156
 30
0.0
 11
682.2267841318
 21
513.8229632338
 31
0.0
  0
LINE
  5
374
330
1B
100
AcDbEntity
 67
     1
  8
LAYER0016
  6
Continuous
 62
     3
100
AcDbLine
 10
686.3318371881
 20
544.6960670526
 30
0.0
 11
691.828329535
 21
544.499669802
 31
0.0
  0
LINE
  5
375
330
1B
100
AcDbEntity
 67
     1
  8
LAYER0016
  6
Continuous
 62
     3
100
AcDbLine
 10
691.828329535
 20
544.499669802
 30
0.0
 11
691.5171595534
 21
535.7910783261
 31
0.0
  0
LINE
  5
376
330
1B
100
AcDbEntity
 67
     1
  8
LAYER0016
  6
Continuous
 62
     3
100
AcDbLine
 10
684.5118948052
 20
563.7732211832
 30
0.0
 11
685.7274930564
 21
563.7297861815
 31
0.0
  0
LINE
  5
377
330
1B
100
AcDbEntity
 67
     1
  8
LAYER0016
  6
Continuous
 62
     3
100
AcDbLine
 10
677.2117392194
 20
527.4934398377
 30
0.0
 11
676.6588746028
 21
512.0206359946
 31
0.0
  0
LINE
  5
378
330
1B
100
AcDbEntity
 67
     1
  8
LAYER0016
  6
Continuous
 62
     3
100
AcDbLine
 10
683.9048488102
 20
546.7840630181
 30
0.0
 11
684.5118948052
 21
563.7732211832
 31
0.0
  0
LINE
  5
379
330
1B
100
AcDbEntity
 67
     1
  8
LAYER0016
  6
Continuous
 62
     3
100
AcDbLine
 10
682.2624927228
 20
514.8223254787
 30
0.0
 11
678.1647899919
 21
514.3949941369
 31
0.0
  0
LINE
  5
37A
330
1B
100
AcDbEntity
 67
     1
  8
LAYER0016
  6
Continuous
 62
     8
100
AcDbLine
 10
754.1244312566
 20
514.1663563261
 30
0.0
 11
754.1244312566
 21
513.4158003261
 31
0.0
  0
LINE
  5
37B
330
1B
100
AcDbEntity
 67
     1
  8
LAYER0016
  6
Continuous
 62
     1
100
AcDbLine
 10
684.3324633819
 20
526.8285485465
 30
0.0
 11
684.9754070077
 21
508.8261270239
 31
0.0
  0
LINE
  5
37C
330
1B
100
AcDbEntity
 67
     1
  8
LAYER0016
  6
Continuous
 62
     1
100
AcDbLine
 10
680.6924233462
 20
544.6961151889
 30
0.0
 11
675.1959276473
 21
544.4998117711
 31
0.0
  0
LINE
  5
37D
330
1B
100
AcDbEntity
 67
     1
  8
LAYER0016
  6
Continuous
 62
     1
100
AcDbLine
 10
675.1959276473
 20
544.4998117711
 30
0.0
 11
675.517151397
 21
535.5055467796
 31
0.0
  0
LINE
  5
37E
330
1B
100
AcDbEntity
 67
     1
  8
LAYER0016
  6
Continuous
 62
     1
100
AcDbLine
 10
682.5126914023
 20
563.7732382478
 30
0.0
 11
681.2970934091
 21
563.7298240337
 31
0.0
  0
LINE
  5
37F
330
1B
100
AcDbEntity
 67
     1
  8
LAYER0016
  6
Continuous
 62
     1
100
AcDbLine
 10
684.9754070077
 20
508.8261270239
 30
0.0
 11
689.0321726806
 21
509.544759073
 31
0.0
  0
LINE
  5
380
330
1B
100
AcDbEntity
 67
     1
  8
LAYER0016
  6
Continuous
 62
     1
100
AcDbLine
 10
689.8122275088
 20
527.4933323142
 30
0.0
 11
690.364827983
 21
512.0205190352
 31
0.0
  0
LINE
  5
381
330
1B
100
AcDbEntity
 67
     1
  8
LAYER0016
  6
Continuous
 62
     1
100
AcDbLine
 10
689.8122275088
 20
527.4933323142
 30
0.0
 11
691.3084384838
 21
533.9976472151
 31
0.0
  0
LINE
  5
382
330
1B
100
AcDbEntity
 67
     1
  8
LAYER0016
  6
Continuous
 62
     1
100
AcDbLine
 10
682.1557760941
 20
545.7490154262
 30
0.0
 11
682.1914676277
 21
544.7496524847
 31
0.0
  0
LINE
  5
383
330
1B
100
AcDbEntity
 67
     1
  8
LAYER0016
  6
Continuous
 62
     1
100
AcDbLine
 10
682.5126914023
 20
563.7732382478
 30
0.0
 11
683.1194474733
 21
546.7840697257
 31
0.0
  0
LINE
  5
384
330
1B
100
AcDbEntity
 67
     1
  8
LAYER0016
  6
Continuous
 62
     1
100
AcDbLine
 10
684.5970767842
 20
513.8158029896
 30
0.0
 11
684.7969493551
 21
513.8229412957
 31
0.0
  0
LINE
  5
385
330
1B
100
AcDbEntity
 67
     1
  8
LAYER0016
  6
Continuous
 62
     1
100
AcDbLine
 10
684.7398429063
 20
509.8183515722
 30
0.0
 11
684.9397154771
 21
509.8254898783
 31
0.0
  0
LINE
  5
386
330
1B
100
AcDbEntity
 67
     1
  8
LAYER0016
  6
Continuous
 62
     1
100
AcDbLine
 10
684.7612578246
 20
514.82230415
 30
0.0
 11
688.8589532598
 21
514.3949028548
 31
0.0
  0
LINE
  5
387
330
1B
100
AcDbEntity
 67
     1
  8
LAYER0016
  6
Continuous
 62
     1
100
AcDbLine
 10
684.3079753871
 20
513.5052866741
 30
0.0
 11
684.4293265908
 21
510.1074529693
 31
0.0
  0
LINE
  5
388
330
1B
100
AcDbEntity
 67
     1
  8
LAYER0016
  6
Continuous
 62
     1
100
AcDbLine
 10
681.0262085337
 20
563.3679813905
 30
0.0
 11
681.65609467
 21
545.7311695738
 31
0.0
  0
LINE
  5
389
330
1B
100
AcDbEntity
 67
     1
  8
LAYER0016
  6
Continuous
 62
     3
100
AcDbLine
 10
682.7157526769
 20
513.5053002648
 30
0.0
 11
682.5943434675
 21
510.1074686322
 31
0.0
  0
LINE
  5
38A
330
1B
100
AcDbEntity
 67
     1
  8
LAYER0016
  6
Continuous
 62
     3
100
AcDbLine
 10
685.3681835342
 20
545.7311378885
 30
0.0
 11
685.9983707553
 21
563.3679389496
 31
0.0
  0
LINE
  5
38B
330
1B
100
AcDbEntity
 67
     1
  8
LAYER0016
  6
Continuous
 62
    60
100
AcDbLine
 10
684.6746677995
 20
536.1910783261
 30
0.0
 11
686.4852680061
 21
536.1910783261
 31
0.0
  0
LINE
  5
38C
330
1B
100
AcDbEntity
 67
     1
  8
LAYER0016
  6
Continuous
 62
    60
100
AcDbLine
 10
684.6746677995
 20
535.3910783261
 30
0.0
 11
686.4852680061
 21
535.3910783261
 31
0.0
  0
LINE
  5
38D
330
1B
100
AcDbEntity
 67
     1
  8
LAYER0016
  6
Continuous
 62
    60
100
AcDbLine
 10
680.5388405072
 20
536.1910783261
 30
0.0
 11
682.3494407138
 21
536.1910783261
 31
0.0
  0
LINE
  5
38E
330
1B
100
AcDbEntity
 67
     1
  8
LAYER0016
  6
Continuous
 62
    60
100
AcDbLine
 10
680.5388405072
 20
535.3910783261
 30
0.0
 11
682.3494407138
 21
535.3910783261
 31
0.0
  0
CIRCLE
  5
38F
330
1B
100
AcDbEntity
 67
     1
  8
SLD-0
  6
Continuous
 62
   179
100
AcDbCircle
 10
35.8606945885
 20
16.6151192909
 30
0.0
 40
0.4800000000000043
  0
ARC
  5
390
330
1B
100
AcDbEntity
 67
     1
  8
SLD-0
  6
Continuous
 62
     4
100
AcDbCircle
 10
36.5326945885
 20
13.0631192909
 30
0.0
 40
0.9600000000000013
100
AcDbArc
 50
270.000008
 51
0.0
  0
ARC
  5
391
330
1B
100
AcDbEntity
 67
     1
  8
SLD-0
  6
Continuous
 62
     4
100
AcDbCircle
 10
15.0727339485
 20
21.5751192909
 30
0.0
 40
4.479999999999989
100
AcDbArc
 50
0.0
 51
40.0052
  0
ARC
  5
392
330
1B
100
AcDbEntity
 67
     1
  8
SLD-0
  6
Continuous
 62
     4
100
AcDbCircle
 10
15.0727339485
 20
21.5751192909
 30
0.0
 40
3.967999999999992
100
AcDbArc
 50
0.0
 51
38.159824
  0
ARC
  5
393
330
1B
100
AcDbEntity
 67
     1
  8
SLD-0
  6
Continuous
 62
     4
100
AcDbCircle
 10
15.0727339485
 20
21.5751192909
 30
0.0
 40
4.480000000000026
100
AcDbArc
 50
139.994795
 51
179.999995
  0
ARC
  5
394
330
1B
100
AcDbEntity
 67
     1
  8
SLD-0
  6
Continuous
 62
     4
100
AcDbCircle
 10
15.0727339485
 20
21.5751192909
 30
0.0
 40
3.968000000000025
100
AcDbArc
 50
141.840171
 51
179.999995
  0
ARC
  5
395
330
1B
100
AcDbEntity
 67
     1
  8
SLD-0
  6
Continuous
 62
     4
100
AcDbCircle
 10
11.2327339485
 20
10.3751192909
 30
0.0
 40
0.6399999999999888
100
AcDbArc
 50
179.9999949999
 51
270.0
  0
ARC
  5
396
330
1B
100
AcDbEntity
 67
     1
  8
SLD-0
  6
Continuous
 62
     4
100
AcDbCircle
 10
11.7447339485
 20
13.2551192909
 30
0.0
 40
0.6400000000000343
100
AcDbArc
 50
179.9999949999
 51
270.0
  0
ARC
  5
397
330
1B
100
AcDbEntity
 67
     1
  8
SLD-0
  6
Continuous
 62
     4
100
AcDbCircle
 10
18.4007339485
 20
13.2551192909
 30
0.0
 40
0.6400000000000148
100
AcDbArc
 50
269.999992
 51
0.0
  0
CIRCLE
  5
398
330
1B
100
AcDbEntity
 67
     1
  8
SLD-0
  6
Continuous
 62
     4
100
AcDbCircle
 10
18.2727339485
 20
10.6951192909
 30
0.0
 40
0.7200000000000031
  0
CIRCLE
  5
399
330
1B
100
AcDbEntity
 67
     1
  8
SLD-0
  6
Continuous
 62
     4
100
AcDbCircle
 10
11.8727339485
 20
10.6951192909
 30
0.0
 40
0.7200000000000031
  0
CIRCLE
  5
39A
330
1B
100
AcDbEntity
 67
     1
  8
SLD-0
  6
Continuous
 62
     4
100
AcDbCircle
 10
18.2727339485
 20
19.3351192909
 30
0.0
 40
0.5920000000000124
  0
CIRCLE
  5
39B
330
1B
100
AcDbEntity
 67
     1
  8
SLD-0
  6
Continuous
 62
     4
100
AcDbCircle
 10
11.8727339485
 20
19.3351192909
 30
0.0
 40
0.5920000000000107
  0
ARC
  5
39C
330
1B
100
AcDbEntity
 67
     1
  8
SLD-0
  6
Continuous
 62
     4
100
AcDbCircle
 10
18.9127339485
 20
10.3751192909
 30
0.0
 40
0.6400000000000059
100
AcDbArc
 50
270.0
 51
0.0
  0
ARC
  5
39D
330
1B
100
AcDbEntity
 67
     1
  8
SLD-0
  6
Continuous
 62
     3
100
AcDbCircle
 10
29.9410982685
 20
25.6614594509
 30
0.0
 40
6.399999999999958
100
AcDbArc
 50
0.628053
 51
41.41509
  0
ARC
  5
39E
330
1B
100
AcDbEntity
 67
     1
  8
SLD-0
  6
Continuous
 62
     3
100
AcDbCircle
 10
36.6606945885
 20
25.7351192909
 30
0.0
 40
0.3200000000000294
100
AcDbArc
 50
180.6280580001
 51
270.000008
  0
ARC
  5
39F
330
1B
100
AcDbEntity
 67
     1
  8
SLD-0
  6
Continuous
 62
     3
100
AcDbCircle
 10
34.5986491485
 20
25.5751192909
 30
0.0
 40
0.1600000000000163
100
AcDbArc
 50
270.000008
 51
1.6838619999
  0
ARC
  5
3A0
330
1B
100
AcDbEntity
 67
     1
  8
SLD-0
  6
Continuous
 62
     3
100
AcDbCircle
 10
-6.7101455715
 20
24.3607514509
 30
0.0
 40
41.48664047999997
100
AcDbArc
 50
1.683862
 51
7.509272
  0
ARC
  5
3A1
330
1B
100
AcDbEntity
 67
     1
  8
SLD-0
  6
Continuous
 62
     3
100
AcDbCircle
 10
29.4606945885
 20
14.3751192909
 30
0.0
 40
0.480000000000004
100
AcDbArc
 50
180.0
 51
270.0
  0
ARC
  5
3A2
330
1B
100
AcDbEntity
 67
     1
  8
SLD-0
  6
Continuous
 62
     3
100
AcDbCircle
 10
29.4606945885
 20
15.3351192909
 30
0.0
 40
0.480000000000004
100
AcDbArc
 50
90.0
 51
180.0
  0
ARC
  5
3A3
330
1B
100
AcDbEntity
 67
     1
  8
SLD-0
  6
Continuous
 62
     3
100
AcDbCircle
 10
33.3646945885
 20
16.7751192909
 30
0.0
 40
0.9600000000000143
100
AcDbArc
 50
270.000008
 51
323.1301023541
  0
ARC
  5
3A4
330
1B
100
AcDbEntity
 67
     1
  8
SLD-0
  6
Continuous
 62
     1
100
AcDbCircle
 10
14.1344100382
 20
25.6973255206
 30
0.0
 40
0.3199999999999884
100
AcDbArc
 50
272.490992
 51
2.491
  0
ARC
  5
3A5
330
1B
100
AcDbEntity
 67
     1
  8
SLD-0
  6
Continuous
 62
     1
100
AcDbCircle
 10
16.9504605606
 20
19.8676849364
 30
0.0
 40
0.7999999999999988
100
AcDbArc
 50
332.491
 51
2.4913970245
  0
ARC
  5
3A6
330
1B
100
AcDbEntity
 67
     1
  8
SLD-0
  6
Continuous
 62
     1
100
AcDbCircle
 10
18.1383887073
 20
18.3383506967
 30
0.0
 40
0.9600000000000081
100
AcDbArc
 50
152.491
 51
182.4957146121
  0
ARC
  5
3A7
330
1B
100
AcDbEntity
 67
     1
  8
SLD-0
  6
Continuous
 62
     1
100
AcDbCircle
 10
15.7262232024
 20
14.8762843676
 30
0.0
 40
1.600000000000025
100
AcDbArc
 50
346.891061
 51
18.090929
  0
ARC
  5
3A8
330
1B
100
AcDbEntity
 67
     1
  8
SLD-0
  6
Continuous
 62
     1
100
AcDbCircle
 10
16.7908558814
 20
15.2240733672
 30
0.0
 40
0.4800000315168615
100
AcDbArc
 50
18.0909346237
 51
84.4909968018
  0
ARC
  5
3A9
330
1B
100
AcDbEntity
 67
     1
  8
SLD-0
  6
Continuous
 62
     1
100
AcDbCircle
 10
16.8170366785
 20
14.6222648054
 30
0.0
 40
0.4800000100035027
100
AcDbArc
 50
280.490992
 51
346.891050438
  0
ARC
  5
3AA
330
1B
100
AcDbEntity
 67
     1
  8
SLD-0
  6
Continuous
 62
     1
100
AcDbCircle
 10
15.5740331211
 20
14.3251490632
 30
0.0
 40
0.0959999999999717
100
AcDbArc
 50
182.491
 51
272.491
  0
ARC
  5
3AB
330
1B
100
AcDbEntity
 67
     1
  8
SLD-0
  6
Continuous
 62
     1
100
AcDbCircle
 10
15.5267459682
 20
15.4121209695
 30
0.0
 40
0.0959999999997707
100
AcDbArc
 50
92.491
 51
182.491
  0
CIRCLE
  5
3AC
330
1B
100
AcDbEntity
 67
     1
  8
SLD-0
  6
Continuous
 62
     1
100
AcDbCircle
 10
15.0727339485
 20
22.5351192909
 30
0.0
 40
1.920000000000004
  0
ARC
  5
3AD
330
1B
100
AcDbEntity
 67
     1
  8
SLD-0
  6
Continuous
 62
     1
100
AcDbCircle
 10
15.0727331705
 20
22.5351370132
 30
0.0
 40
2.559999999999997
100
AcDbArc
 50
197.4986078147
 51
272.4910001565
  0
ARC
  5
3AE
330
1B
100
AcDbEntity
 67
     1
  8
SLD-0
  6
Continuous
 62
     1
100
AcDbCircle
 10
22.0504496331
 20
24.1198854641
 30
0.0
 40
9.599999999999994
100
AcDbArc
 50
143.194516
 51
182.490995
  0
ARC
  5
3AF
330
1B
100
AcDbEntity
 67
     1
  8
SLD-0
  6
Continuous
 62
     1
100
AcDbCircle
 10
15.0727331705
 20
22.5351370132
 30
0.0
 40
2.559999999999997
100
AcDbArc
 50
182.490995
 51
197.4986078147
  0
ARC
  5
3B0
330
1B
100
AcDbEntity
 67
     1
  8
SLD-0
  6
Continuous
 62
     1
100
AcDbCircle
 10
14.9475620732
 20
25.4123978665
 30
0.0
 40
0.3200000000000241
100
AcDbArc
 50
182.491
 51
272.490992
  0
ARC
  5
3B1
330
1B
100
AcDbEntity
 67
     1
  8
SLD-0
  6
Continuous
 62
     1
100
AcDbCircle
 10
14.933654087
 20
25.732095486
 30
0.0
 40
0.3200000000000102
100
AcDbArc
 50
92.4909969999
 51
182.491
  0
ARC
  5
3B2
330
1B
100
AcDbEntity
 67
     1
  8
SLD-0
  6
Continuous
 62
     1
100
AcDbCircle
 10
15.0727339485
 20
22.5351192909
 30
0.0
 40
2.559999999999959
100
AcDbArc
 50
2.4871804276
 51
92.490997
  0
ARC
  5
3B3
330
1B
100
AcDbEntity
 67
     1
  8
SLD-0
  6
Continuous
 62
     1
100
AcDbCircle
 10
15.1909518307
 20
19.817689525
 30
0.0
 40
0.1600000000000132
100
AcDbArc
 50
2.491
 51
92.4909970001
  0
ARC
  5
3B4
330
1B
100
AcDbEntity
 67
     1
  8
SLD-0
  6
Continuous
 62
     3
100
AcDbCircle
 10
16.0110578587
 20
25.6973255206
 30
0.0
 40
0.3199999999999817
100
AcDbArc
 50
177.5089949999
 51
267.509
  0
ARC
  5
3B5
330
1B
100
AcDbEntity
 67
     1
  8
SLD-0
  6
Continuous
 62
     3
100
AcDbCircle
 10
15.1979058237
 20
25.4123978665
 30
0.0
 40
0.3199999999999938
100
AcDbArc
 50
267.508992
 51
357.509
  0
ARC
  5
3B6
330
1B
100
AcDbEntity
 67
     1
  8
SLD-0
  6
Continuous
 62
     3
100
AcDbCircle
 10
15.2118138099
 20
25.732095486
 30
0.0
 40
0.3200000000000273
100
AcDbArc
 50
357.509
 51
87.5089969999
  0
ARC
  5
3B7
330
1B
100
AcDbEntity
 67
     1
  8
SLD-0
  6
Continuous
 62
     3
100
AcDbCircle
 10
14.5714347758
 20
14.3251490632
 30
0.0
 40
0.0959999999997708
100
AcDbArc
 50
267.509
 51
357.509
  0
ARC
  5
3B8
330
1B
100
AcDbEntity
 67
     1
  8
SLD-0
  6
Continuous
 62
     3
100
AcDbCircle
 10
14.6187219287
 20
15.4121209695
 30
0.0
 40
0.0960000000004484
100
AcDbArc
 50
357.509
 51
87.509
  0
ARC
  5
3B9
330
1B
100
AcDbEntity
 67
     1
  8
SLD-0
  6
Continuous
 62
     3
100
AcDbCircle
 10
14.9545160662
 20
19.817689525
 30
0.0
 40
0.159999999999994
100
AcDbArc
 50
87.5089970001
 51
177.509
  0
ARC
  5
3BA
330
1B
100
AcDbEntity
 67
     1
  8
SLD-0
  6
Continuous
 62
     3
100
AcDbCircle
 10
14.4192446615
 20
14.8762844087
 30
0.0
 40
1.599999999999973
100
AcDbArc
 50
161.909066
 51
193.108924
  0
ARC
  5
3BB
330
1B
100
AcDbEntity
 67
     1
  8
SLD-0
  6
Continuous
 62
     3
100
AcDbCircle
 10
13.3546120125
 20
15.2240733985
 30
0.0
 40
0.4800000000000217
100
AcDbArc
 50
95.5089969999
 51
161.909066
  0
ARC
  5
3BC
330
1B
100
AcDbEntity
 67
     1
  8
SLD-0
  6
Continuous
 62
     3
100
AcDbCircle
 10
13.3284311951
 20
14.6222648488
 30
0.0
 40
0.4800000000000137
100
AcDbArc
 50
193.108924
 51
259.5090036876
  0
ARC
  5
3BD
330
1B
100
AcDbEntity
 67
     1
  8
SLD-0
  6
Continuous
 62
     3
100
AcDbCircle
 10
8.0950182638
 20
24.1198854641
 30
0.0
 40
9.600000000000023
100
AcDbArc
 50
357.509
 51
36.805479
  0
ARC
  5
3BE
330
1B
100
AcDbEntity
 67
     1
  8
SLD-0
  6
Continuous
 62
     3
100
AcDbCircle
 10
17.5933161677
 20
23.7907152273
 30
0.0
 40
0.0959999999999775
100
AcDbArc
 50
206.4796010001
 51
358.0151689999
  0
ARC
  5
3BF
330
1B
100
AcDbEntity
 67
     1
  8
SLD-0
  6
Continuous
 62
     3
100
AcDbCircle
 10
15.0727339485
 20
22.5351192909
 30
0.0
 40
2.719999978601284
100
AcDbArc
 50
26.4796063384
 51
81.83355
  0
ARC
  5
3C0
330
1B
100
AcDbEntity
 67
     1
  8
SLD-0
  6
Continuous
 62
     3
100
AcDbCircle
 10
13.1950080934
 20
19.8677026594
 30
0.0
 40
0.8000000000000084
100
AcDbArc
 50
177.5086029755
 51
207.509
  0
ARC
  5
3C1
330
1B
100
AcDbEntity
 67
     1
  8
SLD-0
  6
Continuous
 62
     3
100
AcDbCircle
 10
12.598496417
 20
20.8811094245
 30
0.0
 40
0.1600000000000078
100
AcDbArc
 50
87.5086029755
 51
177.5086029755
  0
ARC
  5
3C2
330
1B
100
AcDbEntity
 67
     1
  8
SLD-0
  6
Continuous
 62
     3
100
AcDbCircle
 10
12.7187335607
 20
20.8758778454
 30
0.0
 40
0.1599999999999913
100
AcDbArc
 50
35.1784899398
 51
87.5086029755
  0
ARC
  5
3C3
330
1B
100
AcDbEntity
 67
     1
  8
SLD-0
  6
Continuous
 62
     3
100
AcDbCircle
 10
12.0070799467
 20
18.3383684198
 30
0.0
 40
0.959999999999977
100
AcDbArc
 50
357.5042853879
 51
27.509
  0
ARC
  5
3C4
330
1B
100
AcDbEntity
 67
     1
  8
SLD-0
  6
Continuous
 62
     3
100
AcDbCircle
 10
15.0727339485
 20
22.5351192909
 30
0.0
 40
2.720000000003214
100
AcDbArc
 50
215.1784899398
 51
264.1414264931
  0
CIRCLE
  5
3C5
330
1B
100
AcDbEntity
 67
     1
  8
SLD-0
  6
Continuous
 62
   150
100
AcDbCircle
 10
15.0727339485
 20
22.5351192909
 30
0.0
 40
0.9599999999999991
  0
ARC
  5
3C6
330
1B
100
AcDbEntity
 67
     1
  8
SLD-0
  6
Continuous
 62
    32
100
AcDbCircle
 10
10.1930834202
 20
15.8451534093
 30
0.0
 40
0.3683494717429839
100
AcDbArc
 50
136.3971810273
 51
223.6028189727
  0
ARC
  5
3C7
330
1B
100
AcDbEntity
 67
     1
  8
SLD-0
  6
Continuous
 62
    32
100
AcDbCircle
 10
10.1930834202
 20
17.3850851724
 30
0.0
 40
0.3683494717429852
100
AcDbArc
 50
136.3971810273
 51
223.6028189727
  0
ARC
  5
3C8
330
1B
100
AcDbEntity
 67
     1
  8
SLD-0
  6
Continuous
 62
    32
100
AcDbCircle
 10
11.1853332609
 20
16.6151192909
 30
0.0
 40
1.360599312489223
100
AcDbArc
 50
157.7162035264
 51
202.2837964736
  0
ARC
  5
3C9
330
1B
100
AcDbEntity
 67
     1
  8
LAYER0016
  6
Continuous
 62
     4
100
AcDbCircle
 10
674.5120541438
 20
536.2829793261
 30
0.0
 40
2.800000000000079
100
AcDbArc
 50
112.02431
 51
179.999995
  0
ARC
  5
3CA
330
1B
100
AcDbEntity
 67
     1
  8
LAYER0016
  6
Continuous
 62
     4
100
AcDbCircle
 10
677.5120542566
 20
504.9910783261
 30
0.0
 40
5.800000000000011
100
AcDbArc
 50
179.999995
 51
269.999992
  0
ARC
  5
3CB
330
1B
100
AcDbEntity
 67
     1
  8
LAYER0016
  6
Continuous
 62
     4
100
AcDbCircle
 10
689.5120541014
 20
504.9910782214
 30
0.0
 40
5.799999999999897
100
AcDbArc
 50
269.999992
 51
0.0
  0
ARC
  5
3CC
330
1B
100
AcDbEntity
 67
     1
  8
LAYER0016
  6
Continuous
 62
     4
100
AcDbCircle
 10
692.5120542143
 20
536.2829792214
 30
0.0
 40
2.79999999999999
100
AcDbArc
 50
0.0
 51
67.975685
  0
ARC
  5
3CD
330
1B
100
AcDbEntity
 67
     1
  8
LAYER0016
  6
Continuous
 62
     4
100
AcDbCircle
 10
702.0120542566
 20
497.7910783261
 30
0.0
 40
4.0
100
AcDbArc
 50
269.999992
 51
0.0
  0
ARC
  5
3CE
330
1B
100
AcDbEntity
 67
     1
  8
LAYER0016
  6
Continuous
 62
     4
100
AcDbCircle
 10
689.5120541014
 20
504.9910782214
 30
0.0
 40
6.999999999999955
100
AcDbArc
 50
269.999992
 51
0.0
  0
ARC
  5
3CF
330
1B
100
AcDbEntity
 67
     1
  8
LAYER0016
  6
Continuous
 62
     4
100
AcDbCircle
 10
677.5120542566
 20
504.9910783261
 30
0.0
 40
7.000000000000027
100
AcDbArc
 50
179.999995
 51
269.999992
  0
CIRCLE
  5
3D0
330
1B
100
AcDbEntity
 67
     1
  8
LAYER0016
  6
Continuous
 62
     4
100
AcDbCircle
 10
701.5120542566
 20
498.2910783261
 30
0.0
 40
2.25
  0
CIRCLE
  5
3D1
330
1B
100
AcDbEntity
 67
     1
  8
LAYER0016
  6
Continuous
 62
     4
100
AcDbCircle
 10
665.5120542566
 20
498.2910783261
 30
0.0
 40
2.25
  0
CIRCLE
  5
3D2
330
1B
100
AcDbEntity
 67
     1
  8
LAYER0016
  6
Continuous
 62
     4
100
AcDbCircle
 10
665.5120542566
 20
524.2910783261
 30
0.0
 40
2.25
  0
CIRCLE
  5
3D3
330
1B
100
AcDbEntity
 67
     1
  8
LAYER0016
  6
Continuous
 62
     4
100
AcDbCircle
 10
701.5120542566
 20
524.2910783261
 30
0.0
 40
2.25
  0
ARC
  5
3D4
330
1B
100
AcDbEntity
 67
     1
  8
LAYER0016
  6
Continuous
 62
     4
100
AcDbCircle
 10
702.0120542566
 20
524.7910783261
 30
0.0
 40
4.000000000000005
100
AcDbArc
 50
0.0
 51
89.999997
  0
ARC
  5
3D5
330
1B
100
AcDbEntity
 67
     1
  8
LAYER0016
  6
Continuous
 62
     4
100
AcDbCircle
 10
665.0120542566
 20
524.7910783261
 30
0.0
 40
4.000000000000114
100
AcDbArc
 50
89.999997
 51
180.0
  0
ARC
  5
3D6
330
1B
100
AcDbEntity
 67
     1
  8
LAYER0016
  6
Continuous
 62
     4
100
AcDbCircle
 10
692.5120542143
 20
536.2829792214
 30
0.0
 40
3.999999887113972
100
AcDbArc
 50
0.0
 51
67.9756858548
  0
ARC
  5
3D7
330
1B
100
AcDbEntity
 67
     1
  8
LAYER0016
  6
Continuous
 62
     4
100
AcDbCircle
 10
674.5120541438
 20
536.2829793261
 30
0.0
 40
3.999999887114086
100
AcDbArc
 50
112.0243141452
 51
179.999995
  0
ARC
  5
3D8
330
1B
100
AcDbEntity
 67
     1
  8
LAYER0016
  6
Continuous
 62
     4
100
AcDbCircle
 10
665.0120542566
 20
497.7910783261
 30
0.0
 40
4.000000000000114
100
AcDbArc
 50
180.0
 51
269.999992
  0
ARC
  5
3D9
330
1B
100
AcDbEntity
 67
     1
  8
LAYER0016
  6
Continuous
 62
     4
100
AcDbCircle
 10
757.0744312566
 20
499.9910783261
 30
0.0
 40
2.0
100
AcDbArc
 50
270.000008
 51
0.0
  0
ARC
  5
3DA
330
1B
100
AcDbEntity
 67
     1
  8
LAYER0016
  6
Continuous
 62
     3
100
AcDbCircle
 10
750.1507322566
 20
545.2910783261
 30
0.0
 40
0.5000000000000049
100
AcDbArc
 50
270.0000079999
 51
359.3787519998
  0
ARC
  5
3DB
330
1B
100
AcDbEntity
 67
     1
  8
LAYER0016
  6
Continuous
 62
     3
100
AcDbCircle
 10
734.0744312566
 20
513.2910783261
 30
0.0
 40
1.5
100
AcDbArc
 50
90.0
 51
180.0
  0
ARC
  5
3DC
330
1B
100
AcDbEntity
 67
     1
  8
LAYER0016
  6
Continuous
 62
     3
100
AcDbCircle
 10
734.0744312566
 20
510.2910783261
 30
0.0
 40
1.5
100
AcDbArc
 50
180.0
 51
270.000008
  0
ARC
  5
3DD
330
1B
100
AcDbEntity
 67
     1
  8
LAYER0016
  6
Continuous
 62
     3
100
AcDbCircle
 10
616.1060062566
 20
546.7445693261
 30
0.0
 40
134.5526060000001
100
AcDbArc
 50
359.378752
 51
7.278383
  0
ARC
  5
3DE
330
1B
100
AcDbEntity
 67
     1
  8
LAYER0016
  6
Continuous
 62
     3
100
AcDbCircle
 10
722.4938942566
 20
546.4126243261
 30
0.0
 40
33.02313100000005
100
AcDbArc
 50
359.798282
 51
31.752498
  0
ARC
  5
3DF
330
1B
100
AcDbEntity
 67
     1
  8
LAYER0016
  6
Continuous
 62
     3
100
AcDbCircle
 10
757.0168122566
 20
546.2910783261
 30
0.0
 40
1.5
100
AcDbArc
 50
179.798277
 51
270.0
  0
ARC
  5
3E0
330
1B
100
AcDbEntity
 67
     1
  8
LAYER0016
  6
Continuous
 62
     3
100
AcDbCircle
 10
747.5244312566
 20
516.5410783261
 30
0.0
 40
1.75
100
AcDbArc
 50
270.0
 51
291.8037479894
  0
ARC
  5
3E1
330
1B
100
AcDbEntity
 67
     1
  8
LAYER0016
  6
Continuous
 62
     3
100
AcDbCircle
 10
681.6556859231
 20
511.8420930626
 30
0.0
 40
5.000000000000126
100
AcDbArc
 50
177.9536083926
 51
193.5535373926
  0
ARC
  5
3E2
330
1B
100
AcDbEntity
 67
     1
  8
LAYER0016
  6
Continuous
 62
     3
100
AcDbCircle
 10
676.9629985317
 20
529.9131642088
 30
0.0
 40
0.3000000000000175
100
AcDbArc
 50
41.9086363926
 51
192.9536083926
  0
ARC
  5
3E3
330
1B
100
AcDbEntity
 67
     1
  8
LAYER0016
  6
Continuous
 62
     3
100
AcDbCircle
 10
683.5120542566
 20
535.7910783261
 30
0.0
 40
8.500000000000076
100
AcDbArc
 50
221.9086313926
 51
264.5813193926
  0
ARC
  5
3E4
330
1B
100
AcDbEntity
 67
     1
  8
LAYER0016
  6
Continuous
 62
     3
100
AcDbCircle
 10
691.3581887229
 20
539.7758212094
 30
0.0
 40
0.300000000000242
100
AcDbArc
 50
206.9242143926
 51
358.4597823926
  0
ARC
  5
3E5
330
1B
100
AcDbEntity
 67
     1
  8
LAYER0016
  6
Continuous
 62
     3
100
AcDbCircle
 10
683.5120542566
 20
535.7910783261
 30
0.0
 40
8.500000000000076
100
AcDbArc
 50
26.9242193926
 51
82.2781633926
  0
ARC
  5
3E6
330
1B
100
AcDbEntity
 67
     1
  8
LAYER0016
  6
Continuous
 62
     3
100
AcDbCircle
 10
683.208531233
 20
527.2964992444
 30
0.0
 40
0.5000000000000568
100
AcDbArc
 50
87.9536103926
 51
177.9536083926
  0
ARC
  5
3E7
330
1B
100
AcDbEntity
 67
     1
  8
LAYER0016
  6
Continuous
 62
     3
100
AcDbCircle
 10
683.8691401668
 20
545.784700775
 30
0.0
 40
0.9999999999999936
100
AcDbArc
 50
357.9536133926
 51
87.9536103926
  0
ARC
  5
3E8
330
1B
100
AcDbEntity
 67
     1
  8
LAYER0016
  6
Continuous
 62
     3
100
AcDbCircle
 10
683.8334315758
 20
544.7853385301
 30
0.0
 40
1.000000000000013
100
AcDbArc
 50
267.9536053926
 51
357.9536133926
  0
ARC
  5
3E9
330
1B
100
AcDbEntity
 67
     1
  8
LAYER0016
  6
Continuous
 62
     3
100
AcDbCircle
 10
678.2531562829
 20
511.0218544641
 30
0.0
 40
1.500000098491036
100
AcDbArc
 50
193.5535313497
 51
259.9536063926
  0
ARC
  5
3EA
330
1B
100
AcDbEntity
 67
     1
  8
LAYER0016
  6
Continuous
 62
     3
100
AcDbCircle
 10
682.294534794
 20
510.1181812095
 30
0.0
 40
0.3000000000000582
100
AcDbArc
 50
267.9536133926
 51
357.9536133926
  0
ARC
  5
3EB
330
1B
100
AcDbEntity
 67
     1
  8
LAYER0016
  6
Continuous
 62
     3
100
AcDbCircle
 10
682.4159440035
 20
513.5160128421
 30
0.0
 40
0.3000000000000561
100
AcDbArc
 50
357.9536133926
 51
87.9536133926
  0
ARC
  5
3EC
330
1B
100
AcDbEntity
 67
     1
  8
LAYER0016
  6
Continuous
 62
     3
100
AcDbCircle
 10
661.8474621881
 20
545.5709275325
 30
0.0
 40
30.0
100
AcDbArc
 50
357.9536133926
 51
37.2500923926
  0
ARC
  5
3ED
330
1B
100
AcDbEntity
 67
     1
  8
LAYER0016
  6
Continuous
 62
     3
100
AcDbCircle
 10
686.3675457791
 20
545.6954292975
 30
0.0
 40
1.000000000000107
100
AcDbArc
 50
177.9536133926
 51
267.9536133926
  0
ARC
  5
3EE
330
1B
100
AcDbEntity
 67
     1
  8
LAYER0016
  6
Continuous
 62
     3
100
AcDbCircle
 10
678.3203752059
 20
512.9030839348
 30
0.0
 40
1.500000000000122
100
AcDbArc
 50
95.9536053926
 51
162.3536743926
  0
ARC
  5
3EF
330
1B
100
AcDbEntity
 67
     1
  8
LAYER0016
  6
Continuous
 62
     3
100
AcDbCircle
 10
683.5120542566
 20
535.7910783261
 30
0.0
 40
8.0
100
AcDbArc
 50
268.8606624889
 51
270.0
  0
CIRCLE
  5
3F0
330
1B
100
AcDbEntity
 67
     1
  8
LAYER0016
  6
Continuous
 62
   150
100
AcDbCircle
 10
683.5120542566
 20
535.7910783261
 30
0.0
 40
3.0
  0
ARC
  5
3F1
330
1B
100
AcDbEntity
 67
     1
  8
LAYER0016
  6
Continuous
 62
     1
100
AcDbCircle
 10
683.3331005275
 20
526.792857016
 30
0.0
 40
1.000000000000044
100
AcDbArc
 50
2.0454084889
 51
88.8606674889
  0
ARC
  5
3F2
330
1B
100
AcDbEntity
 67
     1
  8
LAYER0016
  6
Continuous
 62
     1
100
AcDbCircle
 10
683.5120542566
 20
535.7910783261
 30
0.0
 40
8.000000000000092
100
AcDbArc
 50
182.0454034889
 51
268.8606624889
  0
ARC
  5
3F3
330
1B
100
AcDbEntity
 67
     1
  8
LAYER0016
  6
Continuous
 62
     1
100
AcDbCircle
 10
683.1551389515
 20
545.7847068695
 30
0.0
 40
1.000000000000081
100
AcDbArc
 50
92.0454054889
 51
182.0454034889
  0
ARC
  5
3F4
330
1B
100
AcDbEntity
 67
     1
  8
LAYER0016
  6
Continuous
 62
     1
100
AcDbCircle
 10
685.3680137113
 20
511.8420613826
 30
0.0
 40
4.999999999999919
100
AcDbArc
 50
346.4454694889
 51
2.0454084889
  0
ARC
  5
3F5
330
1B
100
AcDbEntity
 67
     1
  8
LAYER0016
  6
Continuous
 62
     1
100
AcDbCircle
 10
688.7705293846
 20
511.021764691
 30
0.0
 40
1.500000000000027
100
AcDbArc
 50
280.0454004889
 51
346.4454694889
  0
ARC
  5
3F6
330
1B
100
AcDbEntity
 67
     1
  8
LAYER0016
  6
Continuous
 62
     1
100
AcDbCircle
 10
683.190830482
 20
544.7853440152
 30
0.0
 40
0.9999999999999636
100
AcDbArc
 50
182.0454084889
 51
272.0454004889
  0
ARC
  5
3F7
330
1B
100
AcDbEntity
 67
     1
  8
LAYER0016
  6
Continuous
 62
     1
100
AcDbCircle
 10
683.5120542566
 20
535.7910783261
 30
0.0
 40
8.000000135460406
100
AcDbArc
 50
347.0454016392
 51
92.0454054889
  0
CIRCLE
  5
3F8
330
1B
100
AcDbEntity
 67
     1
  8
LAYER0016
  6
Continuous
 62
     1
100
AcDbCircle
 10
683.5120542566
 20
535.7910783261
 30
0.0
 40
6.056186000000025
  0
ARC
  5
3F9
330
1B
100
AcDbEntity
 67
     1
  8
LAYER0016
  6
Continuous
 62
     1
100
AcDbCircle
 10
705.1768132777
 20
545.5705576865
 30
0.0
 40
29.99999999999993
100
AcDbArc
 50
142.7489244889
 51
182.0454034889
  0
ARC
  5
3FA
330
1B
100
AcDbEntity
 67
     1
  8
LAYER0016
  6
Continuous
 62
     1
100
AcDbCircle
 10
684.6077842434
 20
513.5159941333
 30
0.0
 40
0.3000000000001031
100
AcDbArc
 50
92.0454084889
 51
182.0454084889
  0
ARC
  5
3FB
330
1B
100
AcDbEntity
 67
     1
  8
LAYER0016
  6
Continuous
 62
     1
100
AcDbCircle
 10
684.7291354471
 20
510.1181604285
 30
0.0
 40
0.3000000000000991
100
AcDbArc
 50
182.0454084889
 51
272.0454084889
  0
ARC
  5
3FC
330
1B
100
AcDbEntity
 67
     1
  8
LAYER0016
  6
Continuous
 62
     1
100
AcDbCircle
 10
680.6567318157
 20
545.6954780433
 30
0.0
 40
1.000000000000073
100
AcDbArc
 50
272.0454084889
 51
2.0454084889
  0
ARC
  5
3FD
330
1B
100
AcDbEntity
 67
     1
  8
LAYER0016
  6
Continuous
 62
     1
100
AcDbCircle
 10
688.7033425768
 20
512.9029953089
 30
0.0
 40
1.499999999999918
100
AcDbArc
 50
17.6453474889
 51
84.0454164889
  0
INSERT
  5
3FE
330
1B
100
AcDbEntity
 67
     1
  8
0
  6
Continuous
 62
     7
100
AcDbBlockReference
  2
DC_GROUP_81
 10
66.0501735745
 20
23.4619428324
 30
0.0
 41
0.32
 42
0.32
 43
0.32
  0
INSERT
  5
3FF
330
1B
100
AcDbEntity
 67
     1
  8
0
  6
Continuous
 62
     7
100
AcDbBlockReference
  2
DC_GROUP_78
 10
66.0501735745
 20
23.4619428324
 30
0.0
 41
0.32
 42
0.32
 43
0.32
  0
INSERT
  5
400
330
1B
100
AcDbEntity
 67
     1
  8
0
  6
Continuous
 62
     7
100
AcDbBlockReference
  2
DC_GROUP_80
 10
66.0501735745
 20
23.4619428324
 30
0.0
 41
0.32
 42
0.32
 43
0.32
  0
INSERT
  5
401
330
1B
100
AcDbEntity
 67
     1
  8
0
  6
Continuous
 62
     7
100
AcDbBlockReference
  2
DC_GROUP_79
 10
66.0501735745
 20
23.4619428324
 30
0.0
 41
0.32
 42
0.32
 43
0.32
  0
INSERT
  5
402
330
1B
100
AcDbEntity
 67
     1
  8
0
  6
Continuous
 62
     7
100
AcDbBlockReference
  2
DC_GROUP_75
 10
66.0501735745
 20
23.4619428324
 30
0.0
 41
0.32
 42
0.32
 43
0.32
  0
INSERT
  5
403
330
1B
100
AcDbEntity
 67
     1
  8
0
  6
Continuous
 62
     7
100
AcDbBlockReference
  2
DA_IMAGEDIMGROUP_29
 10
66.0501735745
 20
23.4619428324
 30
0.0
 41
0.32
 42
0.32
 43
0.32
  0
INSERT
  5
404
330
1B
100
AcDbEntity
 67
     1
  8
0
  6
Continuous
 62
     7
100
AcDbBlockReference
  2
DC_GROUP_77
 10
66.0501735745
 20
23.4619428324
 30
0.0
 41
0.32
 42
0.32
 43
0.32
  0
INSERT
  5
405
330
1B
100
AcDbEntity
 67
     1
  8
0
  6
Continuous
 62
     7
100
AcDbBlockReference
  2
DC_GROUP_74
 10
66.0501735745
 20
23.4619428324
 30
0.0
 41
0.32
 42
0.32
 43
0.32
  0
INSERT
  5
406
330
1B
100
AcDbEntity
 67
     1
  8
0
  6
Continuous
 62
     7
100
AcDbBlockReference
  2
DC_GROUP_82
 10
66.0501735745
 20
23.4619428324
 30
0.0
 41
0.32
 42
0.32
 43
0.32
  0
INSERT
  5
407
330
1B
100
AcDbEntity
 67
     1
  8
0
  6
Continuous
 62
     7
100
AcDbBlockReference
  2
DC_GROUP_83
 10
66.0501735745
 20
23.4619428324
 30
0.0
 41
0.32
 42
0.32
 43
0.32
  0
INSERT
  5
408
330
1B
100
AcDbEntity
 67
     1
  8
0
  6
Continuous
 62
     7
100
AcDbBlockReference
  2
DC_GROUP_84
 10
66.0501735745
 20
23.4619428324
 30
0.0
 41
0.32
 42
0.32
 43
0.32
  0
INSERT
  5
409
330
1B
100
AcDbEntity
 67
     1
  8
0
  6
Continuous
 62
     7
100
AcDbBlockReference
  2
DA_IMAGEDIMGROUP_30
 10
66.0501735745
 20
23.4619428324
 30
0.0
 41
0.32
 42
0.32
 43
0.32
  0
INSERT
  5
40A
330
1B
100
AcDbEntity
 67
     1
  8
0
  6
Continuous
 62
     7
100
AcDbBlockReference
  2
DC_GROUP_76
 10
66.0501735745
 20
23.4619428324
 30
0.0
 41
0.32
 42
0.32
 43
0.32
  0
INSERT
  5
40B
330
1B
100
AcDbEntity
 67
     1
  8
0
  6
Continuous
 62
     7
100
AcDbBlockReference
  2
DA_IMAGEDIMGROUP_31
 10
66.0501735745
 20
23.4619428324
 30
0.0
 41
0.32
 42
0.32
 43
0.32
  0
INSERT
  5
40C
330
1B
100
AcDbEntity
 67
     1
  8
0
  6
Continuous
 62
     7
100
AcDbBlockReference
  2
DA_IMAGEDIMGROUP_32
 10
66.0501735745
 20
23.4619428324
 30
0.0
 41
0.32
 42
0.32
 43
0.32
  0
MTEXT
  5
40E
330
1B
100
AcDbEntity
 67
     1
  8
LAYER0016
 62
     9
100
AcDbMText
 10
710.4280883548
 20
503.0826131524
 30
0.0
 40
3.5
 41
0.0
 71
     1
 72
     1
  1
六角穴付き止めねじ
  7
SLDTEXTSTYLE6
 73
     1
 44
1.0
  0
MTEXT
  5
40F
330
1B
100
AcDbEntity
 67
     1
  8
SLD-0
100
AcDbMText
 10
23.7350969248
 20
12.0684104287
 30
0.0
 40
1.12
 41
0.0
 71
     1
 72
     1
  1
六角穴付き止めねじ
  7
SLDTEXTSTYLE6
 73
     1
 44
1.0
  0
ENDSEC
  0
SECTION
  2
OBJECTS
  0
DICTIONARY
  5
C
330
0
100
AcDbDictionary
281
     1
  3
ACAD_GROUP
350
D
  3
ACAD_LAYOUT
350
1A
  3
ACAD_MLINESTYLE
350
17
  3
ACAD_PLOTSETTINGS
350
19
  3
ACAD_PLOTSTYLENAME
350
E
  0
DICTIONARY
  5
D
102
{ACAD_REACTORS
330
C
102
}
330
C
100
AcDbDictionary
281
     1
  0
DICTIONARY
  5
1A
102
{ACAD_REACTORS
330
C
102
}
330
C
100
AcDbDictionary
281
     1
  3
Layout1
350
26
  3
Model
350
22
  3
SW_Model_1
350
1E
  0
DICTIONARY
  5
17
102
{ACAD_REACTORS
330
C
102
}
330
C
100
AcDbDictionary
281
     1
  3
Standard
350
18
  0
DICTIONARY
  5
19
102
{ACAD_REACTORS
330
C
102
}
330
C
100
AcDbDictionary
281
     1
  0
ACDBDICTIONARYWDFLT
  5
E
102
{ACAD_REACTORS
330
C
102
}
330
C
100
AcDbDictionary
281
     1
  3
Normal
350
F
100
AcDbDictionaryWithDefault
340
F
  0
LAYOUT
  5
26
102
{ACAD_REACTORS
330
1A
102
}
330
1A
100
AcDbPlotSettings
  1

  2
none_device
  4
ANSI_E_(44.00_x_34.00_Inches)
  6

 40
6.35
 41
19.05
 42
6.3499746
 43
19.0499873
 44
1117.6
 45
863.6
 46
0.0
 47
0.0
 48
0.0
 49
0.0
140
0.0
141
0.0
142
1.0
143
1.0
 70
  4832
 72
     0
 73
     0
 74
     1
  7

 75
    16
147
1.0
148
0.0
149
0.0
100
AcDbLayout
  1
Layout1
 70
     1
 71
     2
 10
0.0
 20
0.0
 11
44.0
 21
34.0
 12
0.0
 22
0.0
 32
0.0
 14
0.0
 24
0.0
 34
0.0
 15
44.0
 25
34.0
 35
0.0
146
0.0
 13
0.0
 23
0.0
 33
0.0
 16
1.0
 26
0.0
 36
0.0
 17
0.0
 27
1.0
 37
0.0
 76
     0
330
23
  0
LAYOUT
  5
22
102
{ACAD_REACTORS
330
1A
102
}
330
1A
100
AcDbPlotSettings
  1

  2
none_device
  4

  6

 40
0.0
 41
0.0
 42
0.0
 43
0.0
 44
0.0
 45
0.0
 46
0.0
 47
0.0
 48
0.0
 49
0.0
140
0.0
141
0.0
142
1.0
143
1.0
 70
  1712
 72
     0
 73
     0
 74
     0
  7

 75
     0
147
1.0
148
0.0
149
0.0
100
AcDbLayout
  1
Model
 70
     1
 71
     0
 10
0.0
 20
0.0
 11
44.0
 21
34.0
 12
0.0
 22
0.0
 32
0.0
 14
0.0
 24
0.0
 34
0.0
 15
44.0
 25
34.0
 35
0.0
146
0.0
 13
0.0
 23
0.0
 33
0.0
 16
1.0
 26
0.0
 36
0.0
 17
0.0
 27
1.0
 37
0.0
 76
     0
330
1F
331
29
  0
LAYOUT
  5
1E
102
{ACAD_REACTORS
330
1A
102
}
330
1A
100
AcDbPlotSettings
  1

  2
none_device
  4
ANSI_E_(44.00_x_34.00_Inches)
  6

 40
6.35
 41
19.05
 42
6.3499746
 43
19.0499873
 44
1117.6
 45
863.6
 46
0.0
 47
0.0
 48
0.0
 49
0.0
140
0.0
141
0.0
142
1.0
143
1.0
 70
  4832
 72
     0
 73
     0
 74
     1
  7

 75
     0
147
1.0
148
0.0
149
0.0
100
AcDbLayout
  1
SW_Model_1
 70
     1
 71
     1
 10
0.0
 20
0.0
 11
44.0
 21
34.0
 12
0.0
 22
0.0
 32
0.0
 14
0.0
 24
0.0
 34
0.0
 15
44.0
 25
34.0
 35
0.0
146
0.0
 13
0.0
 23
0.0
 33
0.0
 16
1.0
 26
0.0
 36
0.0
 17
0.0
 27
1.0
 37
0.0
 76
     0
330
1B
331
2ED
  0
MLINESTYLE
  5
18
102
{ACAD_REACTORS
330
17
102
}
330
17
100
AcDbMlineStyle
  2
Standard
 70
     0
  3

 62
   256
 51
90.0
 52
90.0
 71
     2
 49
0.5
 62
   256
  6
BYLAYER
 49
-0.5
 62
   256
  6
BYLAYER
  0
ACDBPLACEHOLDER
  5
F
102
{ACAD_REACTORS
330
E
102
}
330
E
  0
ENDSEC
  0
EOF
