  0
SECTION
  2
HEADER
  9
$ACADVER
  1
AC1015
  9
$ACADMAINTVER
 70
     6
  9
$DWGCODEPAGE
  3
DOS932
  9
$INSBASE
 10
0.0
 20
0.0
 30
0.0
  9
$EXTMIN
 10
0.0
 20
0.0
 30
0.0
  9
$EXTMAX
 10
420.0
 20
297.0
 30
0.0
  9
$LIMMIN
 10
0.0
 20
0.0
  9
$LIMMAX
 10
0.0
 20
0.0
  9
$ORTHOMODE
 70
     0
  9
$REGENMODE
 70
     1
  9
$FILLMODE
 70
     1
  9
$QTEXTMODE
 70
     0
  9
$MIRRTEXT
 70
     1
  9
$LTSCALE
 40
1.0
  9
$ATTMODE
 70
     1
  9
$TEXTSIZE
 40
3.5
  9
$TRACEWID
 40
1.0
  9
$TEXTSTYLE
  7
Standard
  9
$CLAYER
  8
0
  9
$CELTYPE
  6
ByLayer
  9
$CECOLOR
 62
   256
  9
$CELTSCALE
 40
1.0
  9
$DISPSILH
 70
     0
  9
$DIMSCALE
 40
1.0
  9
$DIMASZ
 40
3.0
  9
$DIMEXO
 40
1.0
  9
$DIMDLI
 40
3.75
  9
$DIMRND
 40
0.0
  9
$DIMDLE
 40
0.0
  9
$DIMEXE
 40
1.0
  9
$DIMTP
 40
0.0
  9
$DIMTM
 40
0.0
  9
$DIMTXT
 40
3.2
  9
$DIMCEN
 40
2.5
  9
$DIMTSZ
 40
0.0
  9
$DIMTOL
 70
     0
  9
$DIMLIM
 70
     0
  9
$DIMTIH
 70
     1
  9
$DIMTOH
 70
     1
  9
$DIMSE1
 70
     0
  9
$DIMSE2
 70
     0
  9
$DIMTAD
 70
     1
  9
$DIMZIN
 70
     1
  9
$DIMBLK
  1

  9
$DIMASO
 70
     1
  9
$DIMSHO
 70
     1
  9
$DIMPOST
  1

  9
$DIMAPOST
  1

  9
$DIMALT
 70
     0
  9
$DIMALTD
 70
     3
  9
$DIMALTF
 40
0.0393700787
  9
$DIMLFAC
 40
1.0
  9
$DIMTOFL
 70
     1
  9
$DIMTVP
 40
0.0
  9
$DIMTIX
 70
     0
  9
$DIMSOXD
 70
     0
  9
$DIMSAH
 70
     0
  9
$DIMBLK1
  1

  9
$DIMBLK2
  1

  9
$DIMSTYLE
  2
ISO-25
  9
$DIMCLRD
 70
     0
  9
$DIMCLRE
 70
     0
  9
$DIMCLRT
 70
     0
  9
$DIMTFAC
 40
1.0
  9
$DIMGAP
 40
1.524
  9
$DIMJUST
 70
     0
  9
$DIMSD1
 70
     0
  9
$DIMSD2
 70
     0
  9
$DIMTOLJ
 70
     0
  9
$DIMTZIN
 70
     1
  9
$DIMALTZ
 70
     0
  9
$DIMALTTZ
 70
     0
  9
$DIMUPT
 70
     0
  9
$DIMDEC
 70
     2
  9
$DIMTDEC
 70
     2
  9
$DIMALTU
 70
     2
  9
$DIMALTTD
 70
     3
  9
$DIMTXSTY
  7
Standard
  9
$DIMAUNIT
 70
     0
  9
$DIMADEC
 70
     0
  9
$DIMALTRND
 40
0.0
  9
$DIMAZIN
 70
     0
  9
$DIMDSEP
 70
    44
  9
$DIMATFIT
 70
     3
  9
$DIMFRAC
 70
     0
  9
$DIMLDRBLK
  1

  9
$DIMLUNIT
 70
     2
  9
$DIMLWD
 70
    -2
  9
$DIMLWE
 70
    -2
  9
$DIMTMOVE
 70
     0
  9
$LUNITS
 70
     2
  9
$LUPREC
 70
     4
  9
$SKETCHINC
 40
1.0
  9
$FILLETRAD
 40
10.0
  9
$AUNITS
 70
     0
  9
$AUPREC
 70
     0
  9
$MENU
  1
.
  9
$ELEVATION
 40
0.0
  9
$PELEVATION
 40
0.0
  9
$THICKNESS
 40
0.0
  9
$LIMCHECK
 70
     0
  9
$CHAMFERA
 40
10.0
  9
$CHAMFERB
 40
10.0
  9
$CHAMFERC
 40
20.0
  9
$CHAMFERD
 40
0.0
  9
$SKPOLY
 70
     0
  9
$TDCREATE
 40
2454307.47985875
  9
$TDUCREATE
 40
2454307.10485875
  9
$TDUPDATE
 40
2454307.479858762
  9
$TDUUPDATE
 40
2454307.104858762
  9
$TDINDWG
 40
0.0000000116
  9
$TDUSRTIMER
 40
0.0000000116
  9
$USRTIMER
 70
     1
  9
$ANGBASE
 50
0.0
  9
$ANGDIR
 70
     0
  9
$PDMODE
 70
     0
  9
$PDSIZE
 40
-1.0
  9
$PLINEWID
 40
0.0
  9
$SPLFRAME
 70
     0
  9
$SPLINETYPE
 70
     6
  9
$SPLINESEGS
 70
     8
  9
$HANDSEED
  5
19A
  9
$SURFTAB1
 70
     6
  9
$SURFTAB2
 70
     6
  9
$SURFTYPE
 70
     6
  9
$SURFU
 70
     6
  9
$SURFV
 70
     6
  9
$UCSBASE
  2

  9
$UCSNAME
  2

  9
$UCSORG
 10
0.0
 20
0.0
 30
0.0
  9
$UCSXDIR
 10
1.0
 20
0.0
 30
0.0
  9
$UCSYDIR
 10
0.0
 20
1.0
 30
0.0
  9
$UCSORTHOREF
  2

  9
$UCSORTHOVIEW
 70
     0
  9
$UCSORGTOP
 10
0.0
 20
0.0
 30
0.0
  9
$UCSORGBOTTOM
 10
0.0
 20
0.0
 30
0.0
  9
$UCSORGLEFT
 10
0.0
 20
0.0
 30
0.0
  9
$UCSORGRIGHT
 10
0.0
 20
0.0
 30
0.0
  9
$UCSORGFRONT
 10
0.0
 20
0.0
 30
0.0
  9
$UCSORGBACK
 10
0.0
 20
0.0
 30
0.0
  9
$PUCSBASE
  2

  9
$PUCSNAME
  2

  9
$PUCSORG
 10
0.0
 20
0.0
 30
0.0
  9
$PUCSXDIR
 10
1.0
 20
0.0
 30
0.0
  9
$PUCSYDIR
 10
0.0
 20
1.0
 30
0.0
  9
$PUCSORTHOREF
  2

  9
$PUCSORTHOVIEW
 70
     0
  9
$PUCSORGTOP
 10
0.0
 20
0.0
 30
0.0
  9
$PUCSORGBOTTOM
 10
0.0
 20
0.0
 30
0.0
  9
$PUCSORGLEFT
 10
0.0
 20
0.0
 30
0.0
  9
$PUCSORGRIGHT
 10
0.0
 20
0.0
 30
0.0
  9
$PUCSORGFRONT
 10
0.0
 20
0.0
 30
0.0
  9
$PUCSORGBACK
 10
0.0
 20
0.0
 30
0.0
  9
$USERI1
 70
     0
  9
$USERI2
 70
     0
  9
$USERI3
 70
     0
  9
$USERI4
 70
     0
  9
$USERI5
 70
     0
  9
$USERR1
 40
0.0
  9
$USERR2
 40
0.0
  9
$USERR3
 40
0.0
  9
$USERR4
 40
0.0
  9
$USERR5
 40
0.0
  9
$WORLDVIEW
 70
     1
  9
$SHADEDGE
 70
     3
  9
$SHADEDIF
 70
    70
  9
$TILEMODE
 70
     1
  9
$MAXACTVP
 70
    64
  9
$PINSBASE
 10
0.0
 20
0.0
 30
0.0
  9
$PLIMCHECK
 70
     0
  9
$PEXTMIN
 10
1.0000000000E+20
 20
1.0000000000E+20
 30
1.0000000000E+20
  9
$PEXTMAX
 10
-1.0000000000E+20
 20
-1.0000000000E+20
 30
-1.0000000000E+20
  9
$PLIMMIN
 10
0.0
 20
0.0
  9
$PLIMMAX
 10
420.0
 20
297.0
  9
$UNITMODE
 70
     0
  9
$VISRETAIN
 70
     1
  9
$PLINEGEN
 70
     0
  9
$PSLTSCALE
 70
     1
  9
$TREEDEPTH
 70
  3020
  9
$CMLSTYLE
  2
Standard
  9
$CMLJUST
 70
     0
  9
$CMLSCALE
 40
20.0
  9
$PROXYGRAPHICS
 70
     1
  9
$MEASUREMENT
 70
     1
  9
$CELWEIGHT
370
    -1
  9
$ENDCAPS
280
     0
  9
$JOINSTYLE
280
     0
  9
$LWDISPLAY
290
     1
  9
$INSUNITS
 70
     4
  9
$HYPERLINKBASE
  1

  9
$STYLESHEET
  1

  9
$XEDIT
290
     1
  9
$CEPSNTYPE
380
     0
  9
$PSTYLEMODE
290
     1
  9
$FINGERPRINTGUID
  2
{3AA90D5F-0ADC-42E5-B30C-31DCC22F84D1}
  9
$VERSIONGUID
  2
{FAEB1C32-E019-11D5-929B-00C0DF256EC4}
  9
$EXTNAMES
290
     1
  9
$PSVPSCALE
 40
0.0
  9
$OLESTARTUP
290
     0
  0
ENDSEC
  0
SECTION
  2
CLASSES
  0
CLASS
  1
ACDBDICTIONARYWDFLT
  2
AcDbDictionaryWithDefault
  3
ObjectDBX Classes
 90
        0
280
     0
281
     0
  0
CLASS
  1
ACDBPLACEHOLDER
  2
AcDbPlaceHolder
  3
ObjectDBX Classes
 90
        0
280
     0
281
     0
  0
CLASS
  1
LAYOUT
  2
AcDbLayout
  3
ObjectDBX Classes
 90
        0
280
     0
281
     0
  0
ENDSEC
  0
SECTION
  2
TABLES
  0
TABLE
  2
VPORT
  5
8
330
0
100
AcDbSymbolTable
 70
     1
  0
VPORT
  5
29
330
8
100
AcDbSymbolTableRecord
100
AcDbViewportTableRecord
  2
*Active
 70
     0
 10
0.0
 20
0.0
 11
1.0
 21
1.0
 12
210.0
 22
148.5
 13
0.0
 23
0.0
 14
10.0
 24
10.0
 15
10.0
 25
10.0
 16
0.0
 26
0.0
 36
1.0
 17
0.0
 27
0.0
 37
0.0
 40
297.0
 41
1.9729729729
 42
50.0
 43
0.0
 44
0.0
 50
0.0
 51
0.0
 71
     0
 72
  2000
 73
     1
 74
     3
 75
     0
 76
     0
 77
     0
 78
     0
281
     0
 65
     1
110
0.0
120
0.0
130
0.0
111
1.0
121
0.0
131
0.0
112
0.0
122
1.0
132
0.0
 79
     0
146
0.0
  0
ENDTAB
  0
TABLE
  2
LTYPE
  5
5
330
0
100
AcDbSymbolTable
 70
     6
  0
LTYPE
  5
14
330
5
100
AcDbSymbolTableRecord
100
AcDbLinetypeTableRecord
  2
ByBlock
 70
     0
  3

 72
    65
 73
     0
 40
0.0
  0
LTYPE
  5
15
330
5
100
AcDbSymbolTableRecord
100
AcDbLinetypeTableRecord
  2
ByLayer
 70
     0
  3

 72
    65
 73
     0
 40
0.0
  0
LTYPE
  5
16
330
5
100
AcDbSymbolTableRecord
100
AcDbLinetypeTableRecord
  2
Continuous
 70
     0
  3
Solid line
 72
    65
 73
     0
 40
0.0
  0
LTYPE
  5
2A
330
5
100
AcDbSymbolTableRecord
100
AcDbLinetypeTableRecord
  2
HIDDEN
 70
     0
  3
Hidden __ __ __ __ __ __ __ __ __ __ __ __ __ __
 72
    65
 73
     2
 40
1.905
 49
1.27
 74
     0
 49
-0.635
 74
     0
  0
LTYPE
  5
2B
330
5
100
AcDbSymbolTableRecord
100
AcDbLinetypeTableRecord
  2
PHANTOM
 70
     0
  3
Phantom ______  __  __  ______  __  __  ______
 72
    65
 73
     6
 40
12.7
 49
6.35
 74
     0
 49
-1.27
 74
     0
 49
1.27
 74
     0
 49
-1.27
 74
     0
 49
1.27
 74
     0
 49
-1.27
 74
     0
  0
LTYPE
  5
2C
330
5
100
AcDbSymbolTableRecord
100
AcDbLinetypeTableRecord
  2
CENTER
 70
     0
  3
Center ____ _ ____ _ ____ _ ____ _ ____ _ ____
 72
    65
 73
     4
 40
10.16
 49
6.35
 74
     0
 49
-1.27
 74
     0
 49
1.27
 74
     0
 49
-1.27
 74
     0
  0
LTYPE
  5
2D
330
5
100
AcDbSymbolTableRecord
100
AcDbLinetypeTableRecord
  2
CENTERX2
 70
     0
  3
Center (2x) ________  __  ________  __  _____
 72
    65
 73
     4
 40
20.32
 49
12.7
 74
     0
 49
-2.54
 74
     0
 49
2.54
 74
     0
 49
-2.54
 74
     0
  0
LTYPE
  5
2E
330
5
100
AcDbSymbolTableRecord
100
AcDbLinetypeTableRecord
  2
DOT2
 70
     0
  3
Dot (.5x) ........................................
 72
    65
 73
     2
 40
0.635
 49
0.0
 74
     0
 49
-0.635
 74
     0
  0
ENDTAB
  0
TABLE
  2
LAYER
  5
2
330
0
100
AcDbSymbolTable
 70
     2
  0
LAYER
  5
10
330
2
100
AcDbSymbolTableRecord
100
AcDbLayerTableRecord
  2
0
 70
     0
 62
     7
  6
Continuous
370
    -3
390
F
  0
LAYER
  5
2F
330
2
100
AcDbSymbolTableRecord
100
AcDbLayerTableRecord
  2
SLD-0
 70
     0
 62
   179
  6
Continuous
370
     0
390
F
  0
ENDTAB
  0
TABLE
  2
STYLE
  5
3
330
0
100
AcDbSymbolTable
 70
     6
  0
STYLE
  5
11
330
3
100
AcDbSymbolTableRecord
100
AcDbTextStyleTableRecord
  2
Standard
 70
     0
 40
0.0
 41
1.0
 50
0.0
 71
     0
 42
2.5
  3
txt
  4
bigfont
  0
STYLE
  5
38
330
3
100
AcDbSymbolTableRecord
100
AcDbTextStyleTableRecord
  2
SLDTEXTSTYLE0
 70
     0
 40
0.0
 41
0.6215272
 50
0.0
 71
     0
 42
0.2
  3
TXT
  4
bigfont
  0
STYLE
  5
3A
330
3
100
AcDbSymbolTableRecord
100
AcDbTextStyleTableRecord
  2
SLDTEXTSTYLE1
 70
     0
 40
0.0
 41
0.6255252021
 50
0.0
 71
     0
 42
0.2
  3
TXT
  4
bigfont
  0
STYLE
  5
44
330
3
100
AcDbSymbolTableRecord
100
AcDbTextStyleTableRecord
  2
SLDTEXTSTYLE2
 70
     0
 40
0.0
 41
0.6236261537
 50
0.0
 71
     0
 42
0.2
  3
TXT
  4
bigfont
  0
STYLE
  5
192
330
3
100
AcDbSymbolTableRecord
100
AcDbTextStyleTableRecord
  2
SLDTEXTSTYLE3
 70
     0
 40
0.0
 41
0.6244080758
 50
0.0
 71
     0
 42
0.2
  3
TXT
  4
bigfont
  0
STYLE
  5
194
330
3
100
AcDbSymbolTableRecord
100
AcDbTextStyleTableRecord
  2
SLDTEXTSTYLE4
 70
     0
 40
0.0
 41
0.6236261168
 50
0.0
 71
     0
 42
0.2
  3
TXT
  4
bigfont
  0
ENDTAB
  0
TABLE
  2
VIEW
  5
6
330
0
100
AcDbSymbolTable
 70
     0
  0
ENDTAB
  0
TABLE
  2
UCS
  5
7
330
0
100
AcDbSymbolTable
 70
     0
  0
ENDTAB
  0
TABLE
  2
APPID
  5
9
330
0
100
AcDbSymbolTable
 70
     1
  0
APPID
  5
12
330
9
100
AcDbSymbolTableRecord
100
AcDbRegAppTableRecord
  2
ACAD
 70
     0
  0
ENDTAB
  0
TABLE
  2
DIMSTYLE
  5
A
330
0
100
AcDbSymbolTable
 70
     1
100
AcDbDimStyleTable
  0
DIMSTYLE
105
27
330
A
100
AcDbSymbolTableRecord
100
AcDbDimStyleTableRecord
  2
ISO-25
 70
     0
 41
2.5
 42
0.625
 43
3.75
 44
1.25
 73
     0
 74
     0
 77
     1
 78
     8
140
2.5
141
2.5
143
0.0393700787
147
0.625
171
     3
172
     1
271
     2
272
     2
274
     3
278
    44
283
     0
284
     8
340
11
  0
ENDTAB
  0
TABLE
  2
BLOCK_RECORD
  5
1
330
0
100
AcDbSymbolTable
 70
     4
  0
BLOCK_RECORD
  5
1F
330
1
100
AcDbSymbolTableRecord
100
AcDbBlockTableRecord
  2
*Model_Space
340
22
  0
BLOCK_RECORD
  5
1B
330
1
100
AcDbSymbolTableRecord
100
AcDbBlockTableRecord
  2
*Paper_Space
340
1E
  0
BLOCK_RECORD
  5
23
330
1
100
AcDbSymbolTableRecord
100
AcDbBlockTableRecord
  2
*Paper_Space0
340
26
  0
BLOCK_RECORD
  5
30
330
1
100
AcDbSymbolTableRecord
100
AcDbBlockTableRecord
  2
KOZU0001
340
0
102
{BLKREFS
331
197
102
}
  0
BLOCK_RECORD
  5
3C
330
1
100
AcDbSymbolTableRecord
100
AcDbBlockTableRecord
  2
KOZU0002
340
0
102
{BLKREFS
331
198
102
}
  0
BLOCK_RECORD
  5
46
330
1
100
AcDbSymbolTableRecord
100
AcDbBlockTableRecord
  2
KOZU0003
340
0
102
{BLKREFS
331
199
102
}
  0
ENDTAB
  0
ENDSEC
  0
SECTION
  2
BLOCKS
  0
BLOCK
  5
20
330
1F
100
AcDbEntity
  8
0
100
AcDbBlockBegin
  2
*Model_Space
 70
     0
 71
     0
 10
0.0
 20
0.0
 30
0.0
  3
*Model_Space
  1

  0
ENDBLK
  5
21
330
1F
100
AcDbEntity
  8
0
100
AcDbBlockEnd
  0
BLOCK
  5
1C
330
1B
100
AcDbEntity
 67
     1
  8
0
100
AcDbBlockBegin
  2
*Paper_Space
 70
     0
 71
     0
 10
0.0
 20
0.0
 30
0.0
  3
*Paper_Space
  1

  0
ENDBLK
  5
1D
330
1B
100
AcDbEntity
 67
     1
  8
0
100
AcDbBlockEnd
  0
BLOCK
  5
24
330
23
100
AcDbEntity
  8
0
100
AcDbBlockBegin
  2
*Paper_Space0
 70
     0
 71
     0
 10
0.0
 20
0.0
 30
0.0
  3
*Paper_Space0
  1

  0
ENDBLK
  5
25
330
23
100
AcDbEntity
  8
0
100
AcDbBlockEnd
  0
BLOCK
  5
31
330
30
100
AcDbEntity
  8
0
100
AcDbBlockBegin
  2
KOZU0001
 70
     0
 71
     0
 10
0.0
 20
0.0
 30
0.0
  3
KOZU0001
  1

  0
LINE
  5
33
330
30
100
AcDbEntity
  8
SLD-0
  6
Continuous
 62
   179
100
AcDbLine
 10
0.0
 20
0.0
 30
0.0
 11
7.8319136
 21
-23.288026
 31
0.0
  0
LINE
  5
34
330
30
100
AcDbEntity
  8
SLD-0
  6
Continuous
 62
   179
100
AcDbLine
 10
0.0
 20
0.0
 30
0.0
 11
1.9041231
 21
-2.5247406
 31
0.0
  0
LINE
  5
35
330
30
100
AcDbEntity
  8
SLD-0
  6
Continuous
 62
   179
100
AcDbLine
 10
0.0
 20
0.0
 30
0.0
 11
0.0084541141
 21
-3.1622663
 31
0.0
  0
LINE
  5
36
330
30
100
AcDbEntity
  8
SLD-0
  6
Continuous
 62
   179
100
AcDbLine
 10
0.0
 20
0.0
 30
0.0
 11
7.8319136
 21
-23.288026
 31
0.0
  0
LINE
  5
37
330
30
100
AcDbEntity
  8
SLD-0
  6
Continuous
 62
   179
100
AcDbLine
 10
7.8319136
 20
-23.288026
 30
0.0
 11
55.54569
 21
-23.288027
 31
0.0
  0
MTEXT
  5
39
330
30
100
AcDbEntity
  8
SLD-0
100
AcDbMText
 10
13.031696
 20
-19.8333074631
 30
0.0
 40
3.2
 41
0.0
 71
     1
 72
     1
  1
六角穴付テーパーネジプラグ
  7
SLDTEXTSTYLE0
 73
     1
 44
1.0
  0
MTEXT
  5
3B
330
30
100
AcDbEntity
  8
SLD-0
100
AcDbMText
 10
13.031696
 20
-25.4493074631
 30
0.0
 40
3.2
 41
0.0
 71
     1
 72
     1
  1
ＰＴ１／８
  7
SLDTEXTSTYLE1
 73
     1
 44
1.0
  0
ENDBLK
  5
32
330
30
100
AcDbEntity
  8
0
100
AcDbBlockEnd
  0
BLOCK
  5
3D
330
3C
100
AcDbEntity
  8
0
100
AcDbBlockBegin
  2
KOZU0002
 70
     0
 71
     0
 10
0.0
 20
0.0
 30
0.0
  3
KOZU0002
  1

  0
LINE
  5
3F
330
3C
100
AcDbEntity
  8
SLD-0
  6
Continuous
 62
   179
100
AcDbLine
 10
0.0
 20
0.0
 30
0.0
 11
-9.0045861
 21
17.962414
 31
0.0
  0
LINE
  5
40
330
3C
100
AcDbEntity
  8
SLD-0
  6
Continuous
 62
   179
100
AcDbLine
 10
0.0
 20
0.0
 30
0.0
 11
-2.2383938
 21
2.2337396
 31
0.0
  0
LINE
  5
41
330
3C
100
AcDbEntity
  8
SLD-0
  6
Continuous
 62
   179
100
AcDbLine
 10
0.0
 20
0.0
 30
0.0
 11
-0.45047126
 21
3.130028
 31
0.0
  0
LINE
  5
42
330
3C
100
AcDbEntity
  8
SLD-0
  6
Continuous
 62
   179
100
AcDbLine
 10
0.0
 20
0.0
 30
0.0
 11
-9.0045861
 21
17.962414
 31
0.0
  0
LINE
  5
43
330
3C
100
AcDbEntity
  8
SLD-0
  6
Continuous
 62
   179
100
AcDbLine
 10
-9.0045861
 20
17.962414
 30
0.0
 11
-35.485242
 21
17.962408
 31
0.0
  0
MTEXT
  5
45
330
3C
100
AcDbEntity
  8
SLD-0
100
AcDbMText
 10
-33.657245
 20
21.4171275369
 30
0.0
 40
3.2
 41
0.0
 71
     1
 72
     1
  1
２－Ｍ５深１２
  7
SLDTEXTSTYLE2
 73
     1
 44
1.0
  0
ENDBLK
  5
3E
330
3C
100
AcDbEntity
  8
0
100
AcDbBlockEnd
  0
BLOCK
  5
47
330
46
100
AcDbEntity
  8
0
100
AcDbBlockBegin
  2
KOZU0003
 70
     0
 71
     0
 10
0.0
 20
0.0
 30
0.0
  3
KOZU0003
  1

  0
LINE
  5
49
330
46
100
AcDbEntity
  8
SLD-0
  6
Continuous
 62
   179
100
AcDbLine
 10
0.0
 20
0.0
 30
0.0
 11
10.371207
 21
-27.573333
 31
0.0
  0
LINE
  5
4A
330
46
100
AcDbEntity
  8
SLD-0
  6
Continuous
 62
   179
100
AcDbLine
 10
0.0
 20
0.0
 30
0.0
 11
1.9921364
 21
-2.4558893
 31
0.0
  0
LINE
  5
4B
330
46
100
AcDbEntity
  8
SLD-0
  6
Continuous
 62
   179
100
AcDbLine
 10
0.0
 20
0.0
 30
0.0
 11
0.12017548
 21
-3.1599933
 31
0.0
  0
LINE
  5
4C
330
46
100
AcDbEntity
  8
SLD-0
  6
Continuous
 62
   179
100
AcDbLine
 10
0.0
 20
0.0
 30
0.0
 11
10.371207
 21
-27.573333
 31
0.0
  0
LINE
  5
4D
330
46
100
AcDbEntity
  8
SLD-0
  6
Continuous
 62
   179
100
AcDbLine
 10
10.371207
 20
-27.573333
 30
0.0
 11
31.56175
 21
-27.573328
 31
0.0
  0
MTEXT
  5
4E
330
46
100
AcDbEntity
  8
SLD-0
100
AcDbMText
 10
14.647751
 20
-24.1186084631
 30
0.0
 40
3.2
 41
0.0
 71
     1
 72
     1
  1
ＰＴ１／８
  7
SLDTEXTSTYLE1
 73
     1
 44
1.0
  0
ENDBLK
  5
48
330
46
100
AcDbEntity
  8
0
100
AcDbBlockEnd
  0
ENDSEC
  0
SECTION
  2
ENTITIES
  0
LINE
  5
4F
330
1F
100
AcDbEntity
  8
SLD-0
  6
Continuous
 62
   179
100
AcDbLine
 10
266.18304
 20
90.054138
 30
0.0
 11
266.18304
 21
132.05414
 31
0.0
  0
LINE
  5
50
330
1F
100
AcDbEntity
  8
SLD-0
  6
Continuous
 62
   179
100
AcDbLine
 10
137.18304
 20
104.908241
 30
0.0
 11
137.18304
 21
117.20005
 31
0.0
  0
LINE
  5
51
330
1F
100
AcDbEntity
  8
SLD-0
  6
Continuous
 62
   179
100
AcDbLine
 10
166.18306
 20
88.554138
 30
0.0
 11
264.68304
 21
88.554138
 31
0.0
  0
LINE
  5
52
330
1F
100
AcDbEntity
  8
SLD-0
  6
Continuous
 62
   179
100
AcDbLine
 10
166.18306
 20
133.55414
 30
0.0
 11
264.68304
 21
133.55414
 31
0.0
  0
LINE
  5
53
330
1F
100
AcDbEntity
  8
SLD-0
  6
Continuous
 62
   179
100
AcDbLine
 10
246.18304
 20
88.554138
 30
0.0
 11
246.18304
 21
133.55414
 31
0.0
  0
LINE
  5
54
330
1F
100
AcDbEntity
  8
SLD-0
  6
Continuous
 62
   179
100
AcDbLine
 10
264.68304
 20
88.554154
 30
0.0
 11
266.18305
 21
90.054165
 31
0.0
  0
LINE
  5
55
330
1F
100
AcDbEntity
  8
SLD-0
  6
Continuous
 62
   179
100
AcDbLine
 10
264.68304
 20
133.55414
 30
0.0
 11
266.18304
 21
132.05414
 31
0.0
  0
LINE
  5
56
330
1F
100
AcDbEntity
  8
SLD-0
  6
Continuous
 62
   179
100
AcDbLine
 10
264.68304
 20
88.554138
 30
0.0
 11
264.68304
 21
88.780281
 31
0.0
  0
LINE
  5
57
330
1F
100
AcDbEntity
  8
SLD-0
  6
Continuous
 62
   179
100
AcDbLine
 10
166.18306
 20
88.554138
 30
0.0
 11
166.18306
 21
133.55414
 31
0.0
  0
LINE
  5
58
330
1F
100
AcDbEntity
  8
SLD-0
  6
CENTER
 62
   179
100
AcDbLine
 10
128.15204
 20
111.054138
 30
0.0
 11
274.28828
 21
111.054138
 31
0.0
  0
LINE
  5
59
330
1F
100
AcDbEntity
  8
SLD-0
  6
Continuous
 62
   179
100
AcDbLine
 10
156.18306
 20
92.554138
 30
0.0
 11
156.18306
 21
93.554138
 31
0.0
  0
LINE
  5
5A
330
1F
100
AcDbEntity
  8
SLD-0
  6
CENTER
 62
   179
100
AcDbLine
 10
79.71497
 20
83.554138
 30
0.0
 11
79.71497
 21
138.55414
 31
0.0
  0
LINE
  5
5B
330
1F
100
AcDbEntity
  8
SLD-0
  6
Continuous
 62
   179
100
AcDbLine
 10
91.21497
 20
101.191559
 30
0.0
 11
91.21497
 21
120.91672
 31
0.0
  0
LINE
  5
5C
330
1F
100
AcDbEntity
  8
SLD-0
  6
Continuous
 62
   179
100
AcDbLine
 10
73.71497
 20
93.554138
 30
0.0
 11
73.71497
 21
128.55414
 31
0.0
  0
LINE
  5
5D
330
1F
100
AcDbEntity
  8
SLD-0
  6
Continuous
 62
   179
100
AcDbLine
 10
85.71497
 20
93.554138
 30
0.0
 11
85.71497
 21
128.55414
 31
0.0
  0
LINE
  5
5E
330
1F
100
AcDbEntity
  8
SLD-0
  6
Continuous
 62
   179
100
AcDbLine
 10
156.18304
 20
92.554118
 30
0.0
 11
166.18304
 21
88.55412
 31
0.0
  0
LINE
  5
5F
330
1F
100
AcDbEntity
  8
SLD-0
  6
Continuous
 62
   179
100
AcDbLine
 10
138.84141
 20
102.225002
 30
0.0
 11
156.18306
 21
93.554179
 31
0.0
  0
LINE
  5
60
330
1F
100
AcDbEntity
  8
SLD-0
  6
Continuous
 62
   179
100
AcDbLine
 10
156.18306
 20
129.55414
 30
0.0
 11
156.18306
 21
128.55414
 31
0.0
  0
LINE
  5
61
330
1F
100
AcDbEntity
  8
SLD-0
  6
Continuous
 62
   179
100
AcDbLine
 10
156.18305
 20
129.55416
 30
0.0
 11
166.18306
 21
133.55416
 31
0.0
  0
LINE
  5
62
330
1F
100
AcDbEntity
  8
SLD-0
  6
Continuous
 62
   179
100
AcDbLine
 10
138.8414051996
 20
119.8833367865
 30
0.0
 11
156.1830551996
 21
128.5541567865
 31
0.0
  0
LINE
  5
63
330
1F
100
AcDbEntity
  8
SLD-0
  6
CENTER
 62
   179
100
AcDbLine
 10
146.18304
 20
104.908241
 30
0.0
 11
146.18304
 21
117.20005
 31
0.0
  0
LINE
  5
64
330
1F
100
AcDbEntity
  8
SLD-0
  6
Continuous
 62
   179
100
AcDbLine
 10
148.2038
 20
107.554134
 30
0.0
 11
150.22452
 21
111.054126
 31
0.0
  0
LINE
  5
65
330
1F
100
AcDbEntity
  8
SLD-0
  6
Continuous
 62
   179
100
AcDbLine
 10
150.2245
 20
111.05413
 30
0.0
 11
148.20377
 21
114.55414
 31
0.0
  0
LINE
  5
66
330
1F
100
AcDbEntity
  8
SLD-0
  6
Continuous
 62
   179
100
AcDbLine
 10
144.16235
 20
114.55411
 30
0.0
 11
148.2038
 21
114.55411
 31
0.0
  0
LINE
  5
67
330
1F
100
AcDbEntity
  8
SLD-0
  6
Continuous
 62
   179
100
AcDbLine
 10
142.14162
 20
111.054138
 30
0.0
 11
144.16234
 21
114.55414
 31
0.0
  0
LINE
  5
68
330
1F
100
AcDbEntity
  8
SLD-0
  6
Continuous
 62
   179
100
AcDbLine
 10
144.16232
 20
107.554132
 30
0.0
 11
142.14159
 21
111.054138
 31
0.0
  0
LINE
  5
69
330
1F
100
AcDbEntity
  8
SLD-0
  6
Continuous
 62
   179
100
AcDbLine
 10
148.2038
 20
107.554134
 30
0.0
 11
144.16235
 21
107.554138
 31
0.0
  0
LINE
  5
6A
330
1F
100
AcDbEntity
  8
SLD-0
  6
Continuous
 62
   179
100
AcDbLine
 10
93.61496
 20
108.054138
 30
0.0
 11
93.61496
 21
114.05414
 31
0.0
  0
LINE
  5
6B
330
1F
100
AcDbEntity
  8
SLD-0
  6
Continuous
 62
   179
100
AcDbLine
 10
91.21497
 20
107.554138
 30
0.0
 11
93.11496
 21
107.554138
 31
0.0
  0
LINE
  5
6C
330
1F
100
AcDbEntity
  8
SLD-0
  6
Continuous
 62
   179
100
AcDbLine
 10
91.21497
 20
114.55414
 30
0.0
 11
93.11496
 21
114.55414
 31
0.0
  0
LINE
  5
6D
330
1F
100
AcDbEntity
  8
SLD-0
  6
Continuous
 62
   179
100
AcDbLine
 10
92.81497
 20
107.554138
 30
0.0
 11
92.81497
 21
114.55414
 31
0.0
  0
LINE
  5
6E
330
1F
100
AcDbEntity
  8
SLD-0
  6
Continuous
 62
   179
100
AcDbLine
 10
91.2149701078
 20
111.0541380244
 30
0.0
 11
92.5649701078
 21
111.0541380244
 31
0.0
  0
LINE
  5
6F
330
1F
100
AcDbEntity
  8
SLD-0
  6
Continuous
 62
   179
100
AcDbLine
 10
92.565
 20
107.554131
 30
0.0
 11
92.815
 21
107.987143
 31
0.0
  0
LINE
  5
70
330
1F
100
AcDbEntity
  8
SLD-0
  6
Continuous
 62
   179
100
AcDbLine
 10
92.56496
 20
114.55414
 30
0.0
 11
92.81496
 21
114.12111
 31
0.0
  0
LINE
  5
71
330
1F
100
AcDbEntity
  8
SLD-0
  6
Continuous
 62
   179
100
AcDbLine
 10
143.18304
 20
196.40614
 30
0.0
 11
149.18304
 21
196.40614
 31
0.0
  0
LINE
  5
72
330
1F
100
AcDbEntity
  8
SLD-0
  6
Continuous
 62
   179
100
AcDbLine
 10
142.14157
 20
197.45616
 30
0.0
 11
142.14157
 21
198.80615
 31
0.0
  0
LINE
  5
73
330
1F
100
AcDbEntity
  8
SLD-0
  6
Continuous
 62
   179
100
AcDbLine
 10
150.2245
 20
197.45616
 30
0.0
 11
150.2245
 21
198.80615
 31
0.0
  0
LINE
  5
74
330
1F
100
AcDbEntity
  8
SLD-0
  6
Continuous
 62
   179
100
AcDbLine
 10
142.57458
 20
197.20616
 30
0.0
 11
149.79149
 21
197.20616
 31
0.0
  0
LINE
  5
75
330
1F
100
AcDbEntity
  8
SLD-0
  6
Continuous
 62
   179
100
AcDbLine
 10
142.68304
 20
196.90614
 30
0.0
 11
142.68304
 21
197.20616
 31
0.0
  0
LINE
  5
76
330
1F
100
AcDbEntity
  8
SLD-0
  6
Continuous
 62
   179
100
AcDbLine
 10
149.68304
 20
196.90614
 30
0.0
 11
149.68304
 21
197.20616
 31
0.0
  0
LINE
  5
77
330
1F
100
AcDbEntity
  8
SLD-0
  6
Continuous
 62
   179
100
AcDbLine
 10
144.16232
 20
197.45616
 30
0.0
 11
144.16232
 21
198.80615
 31
0.0
  0
LINE
  5
78
330
1F
100
AcDbEntity
  8
SLD-0
  6
Continuous
 62
   179
100
AcDbLine
 10
148.20377
 20
197.4561576364
 30
0.0
 11
148.20377
 21
198.8061476364
 31
0.0
  0
LINE
  5
79
330
1F
100
AcDbEntity
  8
SLD-0
  6
Continuous
 62
   179
100
AcDbLine
 10
142.1416
 20
197.45615
 30
0.0
 11
142.57461
 21
197.20615
 31
0.0
  0
LINE
  5
7A
330
1F
100
AcDbEntity
  8
SLD-0
  6
Continuous
 62
   179
100
AcDbLine
 10
150.2245
 20
197.45616
 30
0.0
 11
149.79149
 21
197.20616
 31
0.0
  0
LINE
  5
7B
330
1F
100
AcDbEntity
  8
SLD-0
  6
HIDDEN
 62
   179
100
AcDbLine
 10
142.14159
 20
199.95613
 30
0.0
 11
142.5746
 21
200.20614
 31
0.0
  0
LINE
  5
7C
330
1F
100
AcDbEntity
  8
SLD-0
  6
HIDDEN
 62
   179
100
AcDbLine
 10
150.22451
 20
199.95614
 30
0.0
 11
149.7915
 21
200.20614
 31
0.0
  0
LINE
  5
7D
330
1F
100
AcDbEntity
  8
SLD-0
  6
HIDDEN
 62
   179
100
AcDbLine
 10
144.18304
 20
200.20616
 30
0.0
 11
144.18304
 21
204.30615
 31
0.0
  0
LINE
  5
7E
330
1F
100
AcDbEntity
  8
SLD-0
  6
HIDDEN
 62
   179
100
AcDbLine
 10
148.18306
 20
200.20616
 30
0.0
 11
148.18306
 21
204.30615
 31
0.0
  0
LINE
  5
7F
330
1F
100
AcDbEntity
  8
SLD-0
  6
Continuous
 62
   179
100
AcDbLine
 10
266.18304
 20
231.30615
 30
0.0
 11
266.18304
 21
189.30615
 31
0.0
  0
LINE
  5
80
330
1F
100
AcDbEntity
  8
SLD-0
  6
Continuous
 62
   179
100
AcDbLine
 10
166.18306
 20
232.80615
 30
0.0
 11
264.68304
 21
232.80615
 31
0.0
  0
LINE
  5
81
330
1F
100
AcDbEntity
  8
SLD-0
  6
Continuous
 62
   179
100
AcDbLine
 10
166.18306
 20
187.80615
 30
0.0
 11
264.68304
 21
187.80615
 31
0.0
  0
LINE
  5
82
330
1F
100
AcDbEntity
  8
SLD-0
  6
Continuous
 62
   179
100
AcDbLine
 10
246.18304
 20
232.80615
 30
0.0
 11
246.18304
 21
187.80615
 31
0.0
  0
LINE
  5
83
330
1F
100
AcDbEntity
  8
SLD-0
  6
Continuous
 62
   179
100
AcDbLine
 10
264.68304
 20
232.80615
 30
0.0
 11
264.68304
 21
232.58002
 31
0.0
  0
LINE
  5
84
330
1F
100
AcDbEntity
  8
SLD-0
  6
Continuous
 62
   179
100
AcDbLine
 10
166.18306
 20
232.80615
 30
0.0
 11
166.18306
 21
187.80615
 31
0.0
  0
LINE
  5
85
330
1F
100
AcDbEntity
  8
SLD-0
  6
Continuous
 62
   179
100
AcDbLine
 10
140.18304
 20
198.80615
 30
0.0
 11
152.26488
 21
198.80615
 31
0.0
  0
LINE
  5
86
330
1F
100
AcDbEntity
  8
SLD-0
  6
Continuous
 62
   179
100
AcDbLine
 10
140.18304
 20
221.80615
 30
0.0
 11
152.26488
 21
221.80615
 31
0.0
  0
LINE
  5
87
330
1F
100
AcDbEntity
  8
SLD-0
  6
Continuous
 62
   179
100
AcDbLine
 10
137.18304
 20
201.80615
 30
0.0
 11
137.18304
 21
204.30615
 31
0.0
  0
LINE
  5
88
330
1F
100
AcDbEntity
  8
SLD-0
  6
Continuous
 62
   179
100
AcDbLine
 10
137.18304
 20
216.30615
 30
0.0
 11
156.18306
 21
216.30615
 31
0.0
  0
LINE
  5
89
330
1F
100
AcDbEntity
  8
SLD-0
  6
Continuous
 62
   179
100
AcDbLine
 10
137.18304
 20
204.30615
 30
0.0
 11
156.18306
 21
204.30615
 31
0.0
  0
LINE
  5
8A
330
1F
100
AcDbEntity
  8
SLD-0
  6
Continuous
 62
   179
100
AcDbLine
 10
137.18304
 20
216.30615
 30
0.0
 11
137.18304
 21
218.80615
 31
0.0
  0
LINE
  5
8B
330
1F
100
AcDbEntity
  8
SLD-0
  6
Continuous
 62
   179
100
AcDbLine
 10
156.18306
 20
204.30615
 30
0.0
 11
156.18306
 21
216.30615
 31
0.0
  0
LINE
  5
8C
330
1F
100
AcDbEntity
  8
SLD-0
  6
Continuous
 62
   179
100
AcDbLine
 10
140.18305
 20
198.80617
 30
0.0
 11
137.18306
 21
201.80615
 31
0.0
  0
LINE
  5
8D
330
1F
100
AcDbEntity
  8
SLD-0
  6
Continuous
 62
   179
100
AcDbLine
 10
137.18306
 20
218.80615
 30
0.0
 11
140.18306
 21
221.80616
 31
0.0
  0
LINE
  5
8E
330
1F
100
AcDbEntity
  8
SLD-0
  6
Continuous
 62
   179
100
AcDbLine
 10
142.68304
 20
222.80615
 30
0.0
 11
145.68304
 21
222.80615
 31
0.0
  0
LINE
  5
8F
330
1F
100
AcDbEntity
  8
SLD-0
  6
CENTER
 62
   179
100
AcDbLine
 10
146.18304
 20
190.6436
 30
0.0
 11
146.18304
 21
224.33766
 31
0.0
  0
LINE
  5
90
330
1F
100
AcDbEntity
  8
SLD-0
  6
HIDDEN
 62
   179
100
AcDbLine
 10
141.68304
 20
219.80615
 30
0.0
 11
141.68304
 21
221.80615
 31
0.0
  0
LINE
  5
91
330
1F
100
AcDbEntity
  8
SLD-0
  6
HIDDEN
 62
   179
100
AcDbLine
 10
150.68306
 20
219.80615
 30
0.0
 11
150.68306
 21
221.80615
 31
0.0
  0
LINE
  5
92
330
1F
100
AcDbEntity
  8
SLD-0
  6
HIDDEN
 62
   179
100
AcDbLine
 10
141.18304
 20
219.80615
 30
0.0
 11
151.18306
 21
219.80615
 31
0.0
  0
LINE
  5
93
330
1F
100
AcDbEntity
  8
SLD-0
  6
Continuous
 62
   179
100
AcDbLine
 10
141.68306
 20
221.80617
 30
0.0
 11
142.68304
 21
222.80615
 31
0.0
  0
LINE
  5
94
330
1F
100
AcDbEntity
  8
SLD-0
  6
Continuous
 62
   179
100
AcDbLine
 10
150.68305
 20
221.80616
 30
0.0
 11
149.68305
 21
222.80616
 31
0.0
  0
LINE
  5
95
330
1F
100
AcDbEntity
  8
SLD-0
  6
Continuous
 62
   179
100
AcDbLine
 10
146.68304
 20
221.80615
 30
0.0
 11
146.68304
 21
222.80615
 31
0.0
  0
LINE
  5
96
330
1F
100
AcDbEntity
  8
SLD-0
  6
Continuous
 62
   179
100
AcDbLine
 10
145.68304
 20
221.80615
 30
0.0
 11
145.68304
 21
222.80615
 31
0.0
  0
LINE
  5
97
330
1F
100
AcDbEntity
  8
SLD-0
  6
Continuous
 62
   179
100
AcDbLine
 10
146.68304
 20
222.80615
 30
0.0
 11
149.68306
 21
222.80615
 31
0.0
  0
LINE
  5
98
330
1F
100
AcDbEntity
  8
SLD-0
  6
Continuous
 62
   179
100
AcDbLine
 10
144.18304
 20
205.05615
 30
0.0
 11
148.18306
 21
205.05615
 31
0.0
  0
LINE
  5
99
330
1F
100
AcDbEntity
  8
SLD-0
  6
Continuous
 62
   179
100
AcDbLine
 10
148.18306
 20
204.30615
 30
0.0
 11
148.18306
 21
216.30615
 31
0.0
  0
LINE
  5
9A
330
1F
100
AcDbEntity
  8
SLD-0
  6
Continuous
 62
   179
100
AcDbLine
 10
67.21494
 20
107.554138
 30
0.0
 11
67.21494
 21
114.55414
 31
0.0
  0
LINE
  5
9B
330
1F
100
AcDbEntity
  8
SLD-0
  6
CENTER
 62
   179
100
AcDbLine
 10
106.8233
 20
111.054138
 30
0.0
 11
92.81497
 21
111.054138
 31
0.0
  0
LINE
  5
9C
330
1F
100
AcDbEntity
  8
SLD-0
  6
Continuous
 62
   179
100
AcDbLine
 10
68.21497
 20
106.554136
 30
0.0
 11
67.21497
 21
107.554137
 31
0.0
  0
LINE
  5
9D
330
1F
100
AcDbEntity
  8
SLD-0
  6
Continuous
 62
   179
100
AcDbLine
 10
68.21495
 20
115.55415
 30
0.0
 11
67.21494
 21
114.55413
 31
0.0
  0
LINE
  5
9E
330
1F
100
AcDbEntity
  8
SLD-0
  6
Continuous
 62
   179
100
AcDbLine
 10
84.96497
 20
109.054138
 30
0.0
 11
84.96497
 21
113.05414
 31
0.0
  0
LINE
  5
9F
330
1F
100
AcDbEntity
  8
SLD-0
  6
Continuous
 62
   179
100
AcDbLine
 10
85.71497
 20
113.05414
 30
0.0
 11
73.71497
 21
113.05414
 31
0.0
  0
LINE
  5
A0
330
1F
100
AcDbEntity
  8
SLD-0
  6
Continuous
 62
   179
100
AcDbLine
 10
144.18304
 20
204.30615
 30
0.0
 11
144.18304
 21
216.30615
 31
0.0
  0
LINE
  5
A1
330
1F
100
AcDbEntity
  8
SLD-0
  6
HIDDEN
 62
   179
100
AcDbLine
 10
144.18304
 20
216.30615
 30
0.0
 11
144.18304
 21
219.80615
 31
0.0
  0
LINE
  5
A2
330
1F
100
AcDbEntity
  8
SLD-0
  6
HIDDEN
 62
   179
100
AcDbLine
 10
148.18306
 20
216.30615
 30
0.0
 11
148.18306
 21
219.80615
 31
0.0
  0
LINE
  5
A3
330
1F
100
AcDbEntity
  8
SLD-0
  6
Continuous
 62
   179
100
AcDbLine
 10
85.71497
 20
109.054138
 30
0.0
 11
73.71497
 21
109.054138
 31
0.0
  0
LINE
  5
A4
330
1F
100
AcDbEntity
  8
SLD-0
  6
CENTER
 62
   179
100
AcDbLine
 10
91.2149701078
 20
111.0541380244
 30
0.0
 11
53.1813001078
 21
111.0541380244
 31
0.0
  0
LINE
  5
A5
330
1F
100
AcDbEntity
  8
SLD-0
  6
Continuous
 62
   179
100
AcDbLine
 10
155.72118
 20
124.43866
 30
0.0
 11
157.16822
 21
124.80042
 31
0.0
  0
LINE
  5
A6
330
1F
100
AcDbEntity
  8
SLD-0
  6
Continuous
 62
   179
100
AcDbLine
 10
155.72119
 20
97.669614
 30
0.0
 11
157.16824
 21
97.307856
 31
0.0
  0
LINE
  5
A7
330
1F
100
AcDbEntity
  8
SLD-0
  6
Continuous
 62
   179
100
AcDbLine
 10
154.18306
 20
122.00772
 30
0.0
 11
154.18306
 21
100.015869
 31
0.0
  0
LINE
  5
A8
330
1F
100
AcDbEntity
  8
SLD-0
  6
Continuous
 62
   179
100
AcDbLine
 10
139.2875
 20
107.759365
 30
0.0
 11
139.86468
 21
109.298535
 31
0.0
  0
LINE
  5
A9
330
1F
100
AcDbEntity
  8
SLD-0
  6
Continuous
 62
   179
100
AcDbLine
 10
139.28753
 20
114.34892
 30
0.0
 11
139.86472
 21
112.80976
 31
0.0
  0
LINE
  5
AA
330
1F
100
AcDbEntity
  8
SLD-0
  6
Continuous
 62
   179
100
AcDbLine
 10
68.21494
 20
101.191559
 30
0.0
 11
68.21494
 21
120.91672
 31
0.0
  0
LINE
  5
AB
330
1F
100
AcDbEntity
  8
SLD-0
  6
Continuous
 62
   179
100
AcDbLine
 10
88.21497
 20
114.05414
 30
0.0
 11
88.21497
 21
108.054138
 31
0.0
  0
LINE
  5
AC
330
1F
100
AcDbEntity
  8
SLD-0
  6
Continuous
 62
   179
100
AcDbLine
 10
90.11733
 20
107.623197
 30
0.0
 11
90.72681
 21
108.899339
 31
0.0
  0
LINE
  5
AD
330
1F
100
AcDbEntity
  8
SLD-0
  6
Continuous
 62
   179
100
AcDbLine
 10
90.11733
 20
114.48512
 30
0.0
 11
90.72681
 21
113.20897
 31
0.0
  0
LINE
  5
AE
330
1F
100
AcDbEntity
  8
SLD-0
  6
Continuous
 62
   179
100
AcDbLine
 10
71.21497
 20
114.05414
 30
0.0
 11
71.21497
 21
108.054138
 31
0.0
  0
LINE
  5
AF
330
1F
100
AcDbEntity
  8
SLD-0
  6
Continuous
 62
   179
100
AcDbLine
 10
69.31259
 20
107.623176
 30
0.0
 11
68.70311
 21
108.899334
 31
0.0
  0
LINE
  5
B0
330
1F
100
AcDbEntity
  8
SLD-0
  6
Continuous
 62
   179
100
AcDbLine
 10
69.3126
 20
114.48512
 30
0.0
 11
68.70312
 21
113.20898
 31
0.0
  0
LINE
  5
B1
330
1F
100
AcDbEntity
  8
SLD-0
  6
Continuous
 62
   179
100
AcDbLine
 10
251.18304
 20
88.780281
 30
0.0
 11
251.18304
 21
105.872169
 31
0.0
  0
LINE
  5
B2
330
1F
100
AcDbEntity
  8
SLD-0
  6
Continuous
 62
   179
100
AcDbLine
 10
264.68304
 20
107.872169
 30
0.0
 11
264.68304
 21
133.55414
 31
0.0
  0
LINE
  5
B3
330
1F
100
AcDbEntity
  8
SLD-0
  6
CENTER
 62
   179
100
AcDbLine
 10
256.18304
 20
204.59053
 30
0.0
 11
256.18304
 21
193.87685
 31
0.0
  0
LINE
  5
B4
330
1F
100
AcDbEntity
  8
SLD-0
  6
HIDDEN
 62
   179
100
AcDbLine
 10
141.18304
 20
200.20616
 30
0.0
 11
151.18306
 21
200.20616
 31
0.0
  0
LINE
  5
B5
330
1F
100
AcDbEntity
  8
SLD-0
  6
Continuous
 62
   179
100
AcDbLine
 10
144.48306
 20
191.80615
 30
0.0
 11
147.88306
 21
191.80615
 31
0.0
  0
LINE
  5
B6
330
1F
100
AcDbEntity
  8
SLD-0
  6
HIDDEN
 62
   179
100
AcDbLine
 10
151.18306
 20
198.80615
 30
0.0
 11
151.18306
 21
200.20616
 31
0.0
  0
LINE
  5
B7
330
1F
100
AcDbEntity
  8
SLD-0
  6
HIDDEN
 62
   179
100
AcDbLine
 10
141.18304
 20
198.80615
 30
0.0
 11
141.18304
 21
200.20616
 31
0.0
  0
LINE
  5
B8
330
1F
100
AcDbEntity
  8
SLD-0
  6
HIDDEN
 62
   179
100
AcDbLine
 10
151.18306
 20
219.80615
 30
0.0
 11
151.18306
 21
221.80615
 31
0.0
  0
LINE
  5
B9
330
1F
100
AcDbEntity
  8
SLD-0
  6
HIDDEN
 62
   179
100
AcDbLine
 10
141.18304
 20
219.80615
 30
0.0
 11
141.18304
 21
221.80615
 31
0.0
  0
LINE
  5
BA
330
1F
100
AcDbEntity
  8
SLD-0
  6
Continuous
 62
   179
100
AcDbLine
 10
144.18304
 20
192.10616
 30
0.0
 11
144.18304
 21
196.40614
 31
0.0
  0
LINE
  5
BB
330
1F
100
AcDbEntity
  8
SLD-0
  6
Continuous
 62
   179
100
AcDbLine
 10
148.18306
 20
192.10616
 30
0.0
 11
148.18306
 21
196.40614
 31
0.0
  0
LINE
  5
BC
330
1F
100
AcDbEntity
  8
SLD-0
  6
Continuous
 62
   179
100
AcDbLine
 10
147.88306
 20
204.30615
 30
0.0
 11
147.88306
 21
205.05615
 31
0.0
  0
LINE
  5
BD
330
1F
100
AcDbEntity
  8
SLD-0
  6
Continuous
 62
   179
100
AcDbLine
 10
144.48306
 20
204.30615
 30
0.0
 11
144.48306
 21
205.05615
 31
0.0
  0
LINE
  5
BE
330
1F
100
AcDbEntity
  8
SLD-0
  6
HIDDEN
 62
   179
100
AcDbLine
 10
144.48306
 20
200.20616
 30
0.0
 11
144.48306
 21
204.30615
 31
0.0
  0
LINE
  5
BF
330
1F
100
AcDbEntity
  8
SLD-0
  6
HIDDEN
 62
   179
100
AcDbLine
 10
147.88306
 20
200.20616
 30
0.0
 11
147.88306
 21
204.30615
 31
0.0
  0
LINE
  5
C0
330
1F
100
AcDbEntity
  8
SLD-0
  6
Continuous
 62
   179
100
AcDbLine
 10
147.88306
 20
191.80615
 30
0.0
 11
147.88306
 21
196.40614
 31
0.0
  0
LINE
  5
C1
330
1F
100
AcDbEntity
  8
SLD-0
  6
Continuous
 62
   179
100
AcDbLine
 10
144.48306
 20
191.80615
 30
0.0
 11
144.48306
 21
196.40614
 31
0.0
  0
LINE
  5
C2
330
1F
100
AcDbEntity
  8
SLD-0
  6
HIDDEN
 62
   179
100
AcDbLine
 10
150.2245
 20
198.80615
 30
0.0
 11
150.2245
 21
199.95616
 31
0.0
  0
LINE
  5
C3
330
1F
100
AcDbEntity
  8
SLD-0
  6
HIDDEN
 62
   179
100
AcDbLine
 10
148.20377
 20
198.8061476364
 30
0.0
 11
148.20377
 21
199.9561576364
 31
0.0
  0
LINE
  5
C4
330
1F
100
AcDbEntity
  8
SLD-0
  6
HIDDEN
 62
   179
100
AcDbLine
 10
144.16232
 20
198.80615
 30
0.0
 11
144.16232
 21
199.95616
 31
0.0
  0
LINE
  5
C5
330
1F
100
AcDbEntity
  8
SLD-0
  6
HIDDEN
 62
   179
100
AcDbLine
 10
142.14157
 20
198.80615
 30
0.0
 11
142.14157
 21
199.95616
 31
0.0
  0
LINE
  5
C6
330
1F
100
AcDbEntity
  8
SLD-0
  6
Continuous
 62
   179
100
AcDbLine
 10
148.18306
 20
192.10614
 30
0.0
 11
147.88306
 21
191.80615
 31
0.0
  0
LINE
  5
C7
330
1F
100
AcDbEntity
  8
SLD-0
  6
Continuous
 62
   179
100
AcDbLine
 10
144.48305
 20
191.80615
 30
0.0
 11
144.18306
 21
192.10614
 31
0.0
  0
LINE
  5
C8
330
1F
100
AcDbEntity
  8
SLD-0
  6
Continuous
 62
   179
100
AcDbLine
 10
148.18306
 20
192.10616
 30
0.0
 11
144.18304
 21
192.10616
 31
0.0
  0
LINE
  5
C9
330
1F
100
AcDbEntity
  8
SLD-0
  6
Continuous
 62
   179
100
AcDbLine
 10
98.21497
 20
109.354126
 30
0.0
 11
98.21497
 21
112.75415
 31
0.0
  0
LINE
  5
CA
330
1F
100
AcDbEntity
  8
SLD-0
  6
Continuous
 62
   179
100
AcDbLine
 10
97.91495
 20
109.054138
 30
0.0
 11
93.61496
 21
109.054138
 31
0.0
  0
LINE
  5
CB
330
1F
100
AcDbEntity
  8
SLD-0
  6
Continuous
 62
   179
100
AcDbLine
 10
97.91495
 20
113.05414
 30
0.0
 11
93.61496
 21
113.05414
 31
0.0
  0
LINE
  5
CC
330
1F
100
AcDbEntity
  8
SLD-0
  6
Continuous
 62
   179
100
AcDbLine
 10
98.21497
 20
112.75415
 30
0.0
 11
93.61496
 21
112.75415
 31
0.0
  0
LINE
  5
CD
330
1F
100
AcDbEntity
  8
SLD-0
  6
Continuous
 62
   179
100
AcDbLine
 10
98.21497
 20
109.354126
 30
0.0
 11
93.61496
 21
109.354126
 31
0.0
  0
LINE
  5
CE
330
1F
100
AcDbEntity
  8
SLD-0
  6
Continuous
 62
   179
100
AcDbLine
 10
85.71497
 20
112.75415
 30
0.0
 11
84.96497
 21
112.75415
 31
0.0
  0
LINE
  5
CF
330
1F
100
AcDbEntity
  8
SLD-0
  6
Continuous
 62
   179
100
AcDbLine
 10
85.71497
 20
109.354126
 30
0.0
 11
84.96497
 21
109.354126
 31
0.0
  0
LINE
  5
D0
330
1F
100
AcDbEntity
  8
SLD-0
  6
Continuous
 62
   179
100
AcDbLine
 10
97.91497
 20
109.054128
 30
0.0
 11
98.21497
 21
109.354126
 31
0.0
  0
LINE
  5
D1
330
1F
100
AcDbEntity
  8
SLD-0
  6
Continuous
 62
   179
100
AcDbLine
 10
98.21496
 20
112.75414
 30
0.0
 11
97.91497
 21
113.05413
 31
0.0
  0
LINE
  5
D2
330
1F
100
AcDbEntity
  8
SLD-0
  6
Continuous
 62
   179
100
AcDbLine
 10
97.91495
 20
109.054138
 30
0.0
 11
97.91495
 21
113.05414
 31
0.0
  0
LINE
  5
D3
330
1F
100
AcDbEntity
  8
SLD-0
  6
Continuous
 62
   179
100
AcDbLine
 10
251.18304
 20
88.780281
 30
0.0
 11
264.68304
 21
88.780281
 31
0.0
  0
LINE
  5
D4
330
1F
100
AcDbEntity
  8
SLD-0
  6
Continuous
 62
   179
100
AcDbLine
 10
253.18304
 20
107.872169
 30
0.0
 11
264.68304
 21
107.872169
 31
0.0
  0
LINE
  5
D5
330
1F
100
AcDbEntity
  8
SLD-0
  6
Continuous
 62
   179
100
AcDbLine
 10
264.68303
 20
88.78027
 30
0.0
 11
266.18305
 21
90.677689
 31
0.0
  0
LINE
  5
D6
330
1F
100
AcDbEntity
  8
SLD-0
  6
Continuous
 62
   179
100
AcDbLine
 10
266.18306
 20
105.974743
 30
0.0
 11
264.68306
 21
107.87216
 31
0.0
  0
LINE
  5
D7
330
1F
100
AcDbEntity
  8
SLD-0
  6
Continuous
 62
   179
100
AcDbLine
 10
253.18304
 20
90.598
 30
0.0
 11
253.18304
 21
105.872169
 31
0.0
  0
LINE
  5
D8
330
1F
100
AcDbEntity
  8
SLD-0
  6
Continuous
 62
   179
100
AcDbLine
 10
265.48893
 20
89.799667
 30
0.0
 11
253.18304
 21
107.872169
 31
0.0
  0
LINE
  5
D9
330
1F
100
AcDbEntity
  8
SLD-0
  6
Continuous
 62
   179
100
AcDbLine
 10
253.18304
 20
88.780291
 30
0.0
 11
265.48892
 21
106.852792
 31
0.0
  0
LINE
  5
DA
330
1F
100
AcDbEntity
  8
SLD-0
  6
CENTER
 62
   179
100
AcDbLine
 10
256.18304
 20
126.77576
 30
0.0
 11
256.18304
 21
133.38086
 31
0.0
  0
LINE
  5
DB
330
1F
100
AcDbEntity
  8
SLD-0
  6
CENTER
 62
   179
100
AcDbLine
 10
250.20412
 20
130.53971
 30
0.0
 11
261.79201
 21
130.53971
 31
0.0
  0
LINE
  5
DC
330
1F
100
AcDbEntity
  8
SLD-0
  6
CENTER
 62
   179
100
AcDbLine
 10
337.425498
 20
119.38401
 30
0.0
 11
329.622422
 21
132.89934
 31
0.0
  0
LINE
  5
DD
330
1F
100
AcDbEntity
  8
SLD-0
  6
CENTER
 62
   179
100
AcDbLine
 10
314.734764
 20
111.054138
 30
0.0
 11
369.734764
 21
111.054138
 31
0.0
  0
LINE
  5
DE
330
1F
100
AcDbEntity
  8
SLD-0
  6
CENTER
 62
   179
100
AcDbLine
 10
342.234764
 20
83.554138
 30
0.0
 11
342.234764
 21
137.96622
 31
0.0
  0
LINE
  5
DF
330
1F
100
AcDbEntity
  8
SLD-0
  6
Continuous
 62
   179
100
AcDbLine
 10
364.508629
 20
114.23612
 30
0.0
 11
345.416749
 21
133.32801
 31
0.0
  0
LINE
  5
E0
330
1F
100
AcDbEntity
  8
SLD-0
  6
Continuous
 62
   179
100
AcDbLine
 10
339.052788
 20
88.78028
 30
0.0
 11
319.960903
 21
107.872161
 31
0.0
  0
LINE
  5
E1
330
1F
100
AcDbEntity
  8
SLD-0
  6
CENTER
 62
   179
100
AcDbLine
 10
357.23476
 20
107.054138
 30
0.0
 11
357.23476
 21
115.05414
 31
0.0
  0
LINE
  5
E2
330
1F
100
AcDbEntity
  8
SLD-0
  6
CENTER
 62
   179
100
AcDbLine
 10
327.234764
 20
107.054138
 30
0.0
 11
327.234764
 21
115.05414
 31
0.0
  0
LINE
  5
E3
330
1F
100
AcDbEntity
  8
SLD-0
  6
Continuous
 62
   179
100
AcDbLine
 10
264.68304
 20
187.80615
 30
0.0
 11
266.18304
 21
189.30615
 31
0.0
  0
LINE
  5
E4
330
1F
100
AcDbEntity
  8
SLD-0
  6
Continuous
 62
   179
100
AcDbLine
 10
266.18304
 20
231.30615
 30
0.0
 11
264.68304
 21
232.80615
 31
0.0
  0
LINE
  5
E5
330
1F
100
AcDbEntity
  8
SLD-0
  6
Continuous
 62
   179
100
AcDbLine
 10
253.18304
 20
213.48814
 30
0.0
 11
264.68304
 21
213.48814
 31
0.0
  0
LINE
  5
E6
330
1F
100
AcDbEntity
  8
SLD-0
  6
Continuous
 62
   179
100
AcDbLine
 10
251.18304
 20
232.58002
 30
0.0
 11
251.18304
 21
215.48814
 31
0.0
  0
LINE
  5
E7
330
1F
100
AcDbEntity
  8
SLD-0
  6
Continuous
 62
   179
100
AcDbLine
 10
264.68304
 20
213.48814
 30
0.0
 11
266.18305
 21
215.38554
 31
0.0
  0
LINE
  5
E8
330
1F
100
AcDbEntity
  8
SLD-0
  6
Continuous
 62
   179
100
AcDbLine
 10
251.18304
 20
232.58002
 30
0.0
 11
264.68304
 21
232.58002
 31
0.0
  0
LINE
  5
E9
330
1F
100
AcDbEntity
  8
SLD-0
  6
Continuous
 62
   179
100
AcDbLine
 10
266.18304
 20
230.6826
 30
0.0
 11
264.68305
 21
232.58001
 31
0.0
  0
LINE
  5
EA
330
1F
100
AcDbEntity
  8
SLD-0
  6
Continuous
 62
   179
100
AcDbLine
 10
264.68304
 20
213.48814
 30
0.0
 11
264.68304
 21
187.80615
 31
0.0
  0
LINE
  5
EB
330
1F
100
AcDbEntity
  8
SLD-0
  6
Continuous
 62
   179
100
AcDbLine
 10
253.18304
 20
230.56363
 30
0.0
 11
253.18304
 21
215.48814
 31
0.0
  0
LINE
  5
EC
330
1F
100
AcDbEntity
  8
SLD-0
  6
Continuous
 62
   179
100
AcDbLine
 10
265.48893
 20
214.50752
 30
0.0
 11
253.18304
 21
232.58001
 31
0.0
  0
LINE
  5
ED
330
1F
100
AcDbEntity
  8
SLD-0
  6
Continuous
 62
   179
100
AcDbLine
 10
253.18304
 20
213.48814
 30
0.0
 11
265.48893
 21
231.56062
 31
0.0
  0
LINE
  5
EE
330
1F
100
AcDbEntity
  8
SLD-0
  6
CENTER
 62
   179
100
AcDbLine
 10
250.30219
 20
199.15326
 30
0.0
 11
262.19656
 21
199.15326
 31
0.0
  0
LINE
  5
EF
330
1F
100
AcDbEntity
  8
SLD-0
  6
Continuous
 62
   179
100
AcDbLine
 10
253.23304
 20
130.53971
 30
0.0
 11
254.70818
 21
129.09408
 31
0.0
  0
LINE
  5
F0
330
1F
100
AcDbEntity
  8
SLD-0
  6
Continuous
 62
   179
100
AcDbLine
 10
254.70818
 20
129.09408
 30
0.0
 11
257.65819
 21
129.09409
 31
0.0
  0
LINE
  5
F1
330
1F
100
AcDbEntity
  8
SLD-0
  6
Continuous
 62
   179
100
AcDbLine
 10
259.13304
 20
130.53969
 30
0.0
 11
257.65818
 21
129.09408
 31
0.0
  0
LINE
  5
F2
330
1F
100
AcDbEntity
  8
SLD-0
  6
Continuous
 62
   179
100
AcDbLine
 10
257.65799
 20
131.64887
 30
0.0
 11
259.13305
 21
130.53971
 31
0.0
  0
LINE
  5
F3
330
1F
100
AcDbEntity
  8
SLD-0
  6
Continuous
 62
   179
100
AcDbLine
 10
254.70799
 20
131.64887
 30
0.0
 11
257.65799
 21
131.64887
 31
0.0
  0
LINE
  5
F4
330
1F
100
AcDbEntity
  8
SLD-0
  6
Continuous
 62
   179
100
AcDbLine
 10
253.23304
 20
130.53971
 30
0.0
 11
254.70798
 21
131.64887
 31
0.0
  0
LINE
  5
F5
330
1F
100
AcDbEntity
  8
SLD-0
  6
Continuous
 62
   179
100
AcDbLine
 10
253.23305
 20
199.15326
 30
0.0
 11
254.70806
 21
196.94075
 31
0.0
  0
LINE
  5
F6
330
1F
100
AcDbEntity
  8
SLD-0
  6
Continuous
 62
   179
100
AcDbLine
 10
254.70805
 20
196.94077
 30
0.0
 11
257.65805
 21
196.94077
 31
0.0
  0
LINE
  5
F7
330
1F
100
AcDbEntity
  8
SLD-0
  6
Continuous
 62
   179
100
AcDbLine
 10
259.13305
 20
199.15327
 30
0.0
 11
257.65805
 21
196.94077
 31
0.0
  0
LINE
  5
F8
330
1F
100
AcDbEntity
  8
SLD-0
  6
Continuous
 62
   179
100
AcDbLine
 10
257.65792
 20
201.3657
 30
0.0
 11
259.13304
 21
199.15326
 31
0.0
  0
LINE
  5
F9
330
1F
100
AcDbEntity
  8
SLD-0
  6
Continuous
 62
   179
100
AcDbLine
 10
254.70793
 20
201.36569
 30
0.0
 11
257.65793
 21
201.36569
 31
0.0
  0
LINE
  5
FA
330
1F
100
AcDbEntity
  8
SLD-0
  6
Continuous
 62
   179
100
AcDbLine
 10
253.23305
 20
199.15326
 30
0.0
 11
254.70793
 21
201.36569
 31
0.0
  0
LINE
  5
FB
330
1F
100
AcDbEntity
  8
SLD-0
  6
Continuous
 62
   179
100
AcDbLine
 10
402.875
 20
285.0
 30
0.0
 11
402.875
 21
12.0
 31
0.0
  0
LINE
  5
FC
330
1F
100
AcDbEntity
  8
SLD-0
  6
Continuous
 62
   179
100
AcDbLine
 10
17.07501
 20
12.0
 30
0.0
 11
402.875
 21
12.0
 31
0.0
  0
LINE
  5
FD
330
1F
100
AcDbEntity
  8
SLD-0
  6
Continuous
 62
   179
100
AcDbLine
 10
17.07501
 20
285.0
 30
0.0
 11
17.07501
 21
12.0
 31
0.0
  0
LINE
  5
FE
330
1F
100
AcDbEntity
  8
SLD-0
  6
Continuous
 62
   179
100
AcDbLine
 10
17.07501
 20
285.0
 30
0.0
 11
402.875
 21
285.0
 31
0.0
  0
LINE
  5
FF
330
1F
100
AcDbEntity
  8
SLD-0
  6
CENTER
 62
   179
100
AcDbLine
 10
137.6315
 20
210.30615
 30
0.0
 11
274.01579
 21
210.30615
 31
0.0
  0
LINE
  5
100
330
1F
100
AcDbEntity
  8
SLD-0
  6
Continuous
 62
   179
100
AcDbLine
 10
334.375
 20
50.5
 30
0.0
 11
334.375
 21
12.0
 31
0.0
  0
LINE
  5
101
330
1F
100
AcDbEntity
  8
SLD-0
  6
Continuous
 62
   179
100
AcDbLine
 10
334.375
 20
24.5
 30
0.0
 11
402.875
 21
24.5
 31
0.0
  0
LINE
  5
102
330
1F
100
AcDbEntity
  8
SLD-0
  6
Continuous
 62
   179
100
AcDbLine
 10
334.375
 20
37.0
 30
0.0
 11
402.875
 21
37.0
 31
0.0
  0
LINE
  5
103
330
1F
100
AcDbEntity
  8
SLD-0
  6
Continuous
 62
   179
100
AcDbLine
 10
334.375
 20
50.5
 30
0.0
 11
402.875
 21
50.5
 31
0.0
  0
LINE
  5
104
330
1F
100
AcDbEntity
  8
SLD-0
  6
Continuous
 62
   179
100
AcDbLine
 10
17.27499
 20
12.2
 30
0.0
 11
402.675
 21
12.2
 31
0.0
  0
LINE
  5
105
330
1F
100
AcDbEntity
  8
SLD-0
  6
Continuous
 62
   179
100
AcDbLine
 10
17.27499
 20
284.79999
 30
0.0
 11
17.27499
 21
12.2
 31
0.0
  0
LINE
  5
106
330
1F
100
AcDbEntity
  8
SLD-0
  6
Continuous
 62
   179
100
AcDbLine
 10
17.27499
 20
284.79999
 30
0.0
 11
402.675
 21
284.79999
 31
0.0
  0
LINE
  5
107
330
1F
100
AcDbEntity
  8
SLD-0
  6
Continuous
 62
   179
100
AcDbLine
 10
402.675
 20
284.79999
 30
0.0
 11
402.675
 21
12.2
 31
0.0
  0
CIRCLE
  5
108
330
1F
100
AcDbEntity
  8
SLD-0
  6
Continuous
 62
   179
100
AcDbCircle
 10
79.71497
 20
111.054138
 30
0.0
 40
22.5
  0
ARC
  5
109
330
1F
100
AcDbEntity
  8
SLD-0
  6
Continuous
 62
   179
100
AcDbCircle
 10
79.71497
 20
111.054138
 30
0.0
 40
18.50000189189193
100
AcDbArc
 50
71.0753575929
 51
108.9246424071
  0
ARC
  5
10A
330
1F
100
AcDbEntity
  8
SLD-0
  6
Continuous
 62
   179
100
AcDbCircle
 10
79.71497
 20
111.054138
 30
0.0
 40
18.5
100
AcDbArc
 50
251.0753555839
 51
288.9246444161
  0
ARC
  5
10B
330
1F
100
AcDbEntity
  8
SLD-0
  6
Continuous
 62
   179
100
AcDbCircle
 10
79.71497
 20
111.054138
 30
0.0
 40
17.0
100
AcDbArc
 50
257.62638
 51
282.37363
  0
ARC
  5
10C
330
1F
100
AcDbEntity
  8
SLD-0
  6
Continuous
 62
   179
100
AcDbCircle
 10
79.71497
 20
111.054138
 30
0.0
 40
17.0
100
AcDbArc
 50
77.62637
 51
102.37363
  0
ARC
  5
10D
330
1F
100
AcDbEntity
  8
SLD-0
  6
Continuous
 62
   179
100
AcDbCircle
 10
140.18304
 20
104.908241
 30
0.0
 40
3.000000000000002
100
AcDbArc
 50
180.0
 51
243.43495
  0
ARC
  5
10E
330
1F
100
AcDbEntity
  8
SLD-0
  6
Continuous
 62
   179
100
AcDbCircle
 10
140.1830435928
 20
117.20005
 30
0.0
 40
3.000003592804035
100
AcDbArc
 50
116.5649657658
 51
180.0
  0
CIRCLE
  5
10F
330
1F
100
AcDbEntity
  8
SLD-0
  6
Continuous
 62
   179
100
AcDbCircle
 10
146.18304
 20
111.054138
 30
0.0
 40
3.5
  0
ARC
  5
110
330
1F
100
AcDbEntity
  8
SLD-0
  6
Continuous
 62
   179
100
AcDbCircle
 10
86.5649701078
 20
109.3041380244
 30
0.0
 40
6.25
100
AcDbArc
 50
0.0
 51
16.2602047083
  0
ARC
  5
111
330
1F
100
AcDbEntity
  8
SLD-0
  6
Continuous
 62
   179
100
AcDbCircle
 10
93.11496
 20
108.054138
 30
0.0
 40
0.5
100
AcDbArc
 50
270.0
 51
0.0
  0
ARC
  5
112
330
1F
100
AcDbEntity
  8
SLD-0
  6
Continuous
 62
   179
100
AcDbCircle
 10
86.5649703766
 20
112.804139946
 30
0.0
 40
6.250000280000151
100
AcDbArc
 50
343.7397776904
 51
0.0
  0
ARC
  5
113
330
1F
100
AcDbEntity
  8
SLD-0
  6
Continuous
 62
   179
100
AcDbCircle
 10
93.11496
 20
114.05414
 30
0.0
 40
0.5
100
AcDbArc
 50
0.0
 51
90.0
  0
CIRCLE
  5
114
330
1F
100
AcDbEntity
  8
SLD-0
  6
Continuous
 62
   179
100
AcDbCircle
 10
146.18304
 20
111.054138
 30
0.0
 40
1.5
  0
ARC
  5
115
330
1F
100
AcDbEntity
  8
SLD-0
  6
Continuous
 62
   179
100
AcDbCircle
 10
149.18304
 20
196.90614
 30
0.0
 40
0.5
100
AcDbArc
 50
270.0
 51
0.0
  0
ARC
  5
116
330
1F
100
AcDbEntity
  8
SLD-0
  6
Continuous
 62
   179
100
AcDbCircle
 10
143.18304
 20
196.90614
 30
0.0
 40
0.5
100
AcDbArc
 50
180.0
 51
270.0
  0
ARC
  5
117
330
1F
100
AcDbEntity
  8
SLD-0
  6
Continuous
 62
   179
100
AcDbCircle
 10
146.1830399657
 20
205.497800065
 30
0.0
 40
8.291667000000011
100
AcDbArc
 50
255.89464
 51
284.10536
  0
ARC
  5
118
330
1F
100
AcDbEntity
  8
SLD-0
  6
Continuous
 62
   179
100
AcDbCircle
 10
143.15195
 20
199.3728
 30
0.0
 40
2.166666773459984
100
AcDbArc
 50
269.99999
 51
297.7957750966
  0
ARC
  5
119
330
1F
100
AcDbEntity
  8
SLD-0
  6
Continuous
 62
   179
100
AcDbCircle
 10
149.2141299315
 20
199.3728
 30
0.0
 40
2.166666773459964
100
AcDbArc
 50
242.2042249034
 51
270.00001
  0
ARC
  5
11A
330
1F
100
AcDbEntity
  8
SLD-0
  6
HIDDEN
 62
   179
100
AcDbCircle
 10
143.151951444
 20
198.0394927393
 30
0.0
 40
2.166669796562221
100
AcDbArc
 50
62.2041041822
 51
90.000003
  0
ARC
  5
11B
330
1F
100
AcDbEntity
  8
SLD-0
  6
HIDDEN
 62
   179
100
AcDbCircle
 10
146.183040297
 20
191.9144888182
 30
0.0
 40
8.291669669888499
100
AcDbArc
 50
75.8946243645
 51
104.1053086185
  0
ARC
  5
11C
330
1F
100
AcDbEntity
  8
SLD-0
  6
HIDDEN
 62
   179
100
AcDbCircle
 10
149.2141296433
 20
198.0394883131
 30
0.0
 40
2.166667464954887
100
AcDbArc
 50
90.000003
 51
117.7956618887
  0
CIRCLE
  5
11D
330
1F
100
AcDbEntity
  8
SLD-0
  6
Continuous
 62
   179
100
AcDbCircle
 10
146.18304
 20
111.054138
 30
0.0
 40
5.0
  0
ARC
  5
11E
330
1F
100
AcDbEntity
  8
SLD-0
  6
Continuous
 62
   179
100
AcDbCircle
 10
147.83836
 20
179.83922
 30
0.0
 40
20.00000000000001
100
AcDbArc
 50
23.474891
 51
63.72686
  0
ARC
  5
11F
330
1F
100
AcDbEntity
  8
SLD-0
  6
Continuous
 62
   179
100
AcDbCircle
 10
147.83836
 20
240.7731
 30
0.0
 40
20.00000000000001
100
AcDbArc
 50
296.27314
 51
336.52512
  0
ARC
  5
120
330
1F
100
AcDbEntity
  8
SLD-0
  6
Continuous
 62
   179
100
AcDbCircle
 10
152.26488
 20
188.80615
 30
0.0
 40
10.00000000000001
100
AcDbArc
 50
63.72686
 51
90.0
  0
ARC
  5
121
330
1F
100
AcDbEntity
  8
SLD-0
  6
Continuous
 62
   179
100
AcDbCircle
 10
152.26488
 20
231.80615
 30
0.0
 40
10.0
100
AcDbArc
 50
270.0
 51
296.27313
  0
ARC
  5
122
330
1F
100
AcDbEntity
  8
SLD-0
  6
Continuous
 62
   179
100
AcDbCircle
 10
146.18304
 20
111.054138
 30
0.0
 40
5.999999999999998
100
AcDbArc
 50
133.9948
 51
226.00519
  0
ARC
  5
123
330
1F
100
AcDbEntity
  8
SLD-0
  6
Continuous
 62
   179
100
AcDbCircle
 10
145.66223
 20
111.054138
 30
0.0
 40
20.52083400000003
100
AcDbArc
 50
325.03065
 51
34.969339
  0
ARC
  5
124
330
1F
100
AcDbEntity
  8
SLD-0
  6
Continuous
 62
   179
100
AcDbCircle
 10
158.3809101802
 20
102.1585697209
 30
0.0
 40
4.999999256863333
100
AcDbArc
 50
255.9638482475
 51
325.03066
  0
ARC
  5
125
330
1F
100
AcDbEntity
  8
SLD-0
  6
Continuous
 62
   179
100
AcDbCircle
 10
158.38091
 20
119.94974
 30
0.0
 40
4.999999999999993
100
AcDbArc
 50
34.969339
 51
104.03625
  0
ARC
  5
126
330
1F
100
AcDbEntity
  8
SLD-0
  6
Continuous
 62
   179
100
AcDbCircle
 10
193.3833506003
 20
168.0675007168
 30
0.0
 40
79.99999906504571
100
AcDbArc
 50
230.0515309886
 51
240.92243
  0
ARC
  5
127
330
1F
100
AcDbEntity
  8
SLD-0
  6
Continuous
 62
   179
100
AcDbCircle
 10
193.3833486076
 20
54.0407696624
 30
0.0
 40
80.00000216848164
100
AcDbArc
 50
119.07757
 51
129.9484645843
  0
ARC
  5
128
330
1F
100
AcDbEntity
  8
SLD-0
  6
Continuous
 62
   179
100
AcDbCircle
 10
156.9338692979
 20
102.5203291915
 30
0.0
 40
5.000002894894509
100
AcDbArc
 50
240.92243
 51
255.9637509736
  0
ARC
  5
129
330
1F
100
AcDbEntity
  8
SLD-0
  6
Continuous
 62
   179
100
AcDbCircle
 10
156.93387
 20
119.58795
 30
0.0
 40
4.999999999999998
100
AcDbArc
 50
104.03625
 51
119.07757
  0
ARC
  5
12A
330
1F
100
AcDbEntity
  8
SLD-0
  6
Continuous
 62
   179
100
AcDbCircle
 10
135.18304
 20
111.054138
 30
0.0
 40
5.000000000000004
100
AcDbArc
 50
339.44393
 51
20.556009
  0
ARC
  5
12B
330
1F
100
AcDbEntity
  8
SLD-0
  6
Continuous
 62
   179
100
AcDbCircle
 10
138.26987
 20
108.140961
 30
0.0
 40
1.086828100000018
100
AcDbArc
 50
180.0
 51
339.44392
  0
ARC
  5
12C
330
1F
100
AcDbEntity
  8
SLD-0
  6
Continuous
 62
   179
100
AcDbCircle
 10
138.26987
 20
113.96732
 30
0.0
 40
1.086828100000019
100
AcDbArc
 50
20.556071
 51
180.0
  0
ARC
  5
12D
330
1F
100
AcDbEntity
  8
SLD-0
  6
Continuous
 62
   179
100
AcDbCircle
 10
86.98788
 20
111.054138
 30
0.0
 40
15.22706400000003
100
AcDbArc
 50
306.23306
 51
53.766949
  0
ARC
  5
12E
330
1F
100
AcDbEntity
  8
SLD-0
  6
Continuous
 62
   179
100
AcDbCircle
 10
94.21497
 20
101.191559
 30
0.0
 40
3.00000000000001
100
AcDbArc
 50
180.0
 51
306.23305
  0
ARC
  5
12F
330
1F
100
AcDbEntity
  8
SLD-0
  6
Continuous
 62
   179
100
AcDbCircle
 10
94.21497
 20
120.91672
 30
0.0
 40
3.0
100
AcDbArc
 50
53.766949
 51
180.0
  0
ARC
  5
130
330
1F
100
AcDbEntity
  8
SLD-0
  6
Continuous
 62
   179
100
AcDbCircle
 10
72.44202
 20
111.054138
 30
0.0
 40
15.22706400000001
100
AcDbArc
 50
126.23306
 51
233.76694
  0
ARC
  5
131
330
1F
100
AcDbEntity
  8
SLD-0
  6
Continuous
 62
   179
100
AcDbCircle
 10
65.21494
 20
101.191559
 30
0.0
 40
3.0
100
AcDbArc
 50
233.76694
 51
0.0
  0
ARC
  5
132
330
1F
100
AcDbEntity
  8
SLD-0
  6
Continuous
 62
   179
100
AcDbCircle
 10
65.21494
 20
120.91672
 30
0.0
 40
3.0
100
AcDbArc
 50
0.0
 51
126.23306
  0
ARC
  5
133
330
1F
100
AcDbEntity
  8
SLD-0
  6
Continuous
 62
   179
100
AcDbCircle
 10
89.21497
 20
108.054138
 30
0.0
 40
1.0
100
AcDbArc
 50
180.0
 51
334.47121
  0
ARC
  5
134
330
1F
100
AcDbEntity
  8
SLD-0
  6
Continuous
 62
   179
100
AcDbCircle
 10
79.71497
 20
111.054138
 30
0.0
 40
11.49999999999999
100
AcDbArc
 50
301.44899
 51
58.551018
  0
ARC
  5
135
330
1F
100
AcDbEntity
  8
SLD-0
  6
Continuous
 62
   179
100
AcDbCircle
 10
89.21497
 20
114.05414
 30
0.0
 40
1.000000000000016
100
AcDbArc
 50
25.52878
 51
180.0
  0
ARC
  5
136
330
1F
100
AcDbEntity
  8
SLD-0
  6
Continuous
 62
   179
100
AcDbCircle
 10
86.2149700512
 20
111.0541380244
 30
0.0
 40
5.000000056691206
100
AcDbArc
 50
334.47122
 51
0.0
  0
ARC
  5
137
330
1F
100
AcDbEntity
  8
SLD-0
  6
Continuous
 62
   179
100
AcDbCircle
 10
86.2149700512
 20
111.0541380244
 30
0.0
 40
5.000000056691206
100
AcDbArc
 50
0.0
 51
25.5289053366
  0
ARC
  5
138
330
1F
100
AcDbEntity
  8
SLD-0
  6
Continuous
 62
   179
100
AcDbCircle
 10
70.21497
 20
114.05414
 30
0.0
 40
1.000000000000029
100
AcDbArc
 50
0.0
 51
154.47122
  0
ARC
  5
139
330
1F
100
AcDbEntity
  8
SLD-0
  6
Continuous
 62
   179
100
AcDbCircle
 10
70.21497
 20
108.054138
 30
0.0
 40
1.000000000000035
100
AcDbArc
 50
205.52878
 51
0.0
  0
ARC
  5
13A
330
1F
100
AcDbEntity
  8
SLD-0
  6
Continuous
 62
   179
100
AcDbCircle
 10
79.71497
 20
111.054138
 30
0.0
 40
11.49999999999998
100
AcDbArc
 50
121.44899
 51
238.55102
  0
ARC
  5
13B
330
1F
100
AcDbEntity
  8
SLD-0
  6
Continuous
 62
   179
100
AcDbCircle
 10
73.21497
 20
111.054138
 30
0.0
 40
5.00000000000002
100
AcDbArc
 50
180.0
 51
205.52878
  0
ARC
  5
13C
330
1F
100
AcDbEntity
  8
SLD-0
  6
Continuous
 62
   179
100
AcDbCircle
 10
73.21497
 20
111.054138
 30
0.0
 40
5.00000000000002
100
AcDbArc
 50
154.47122
 51
180.0
  0
ARC
  5
13D
330
1F
100
AcDbEntity
  8
SLD-0
  6
Continuous
 62
   179
100
AcDbCircle
 10
76.7149702793
 20
97.3793422731
 30
0.0
 40
2.999998696585724
100
AcDbArc
 50
180.0
 51
257.6263929533
  0
ARC
  5
13E
330
1F
100
AcDbEntity
  8
SLD-0
  6
Continuous
 62
   179
100
AcDbCircle
 10
82.7149697207
 20
97.3793422731
 30
0.0
 40
2.999998696585987
100
AcDbArc
 50
282.3736637135
 51
0.0
  0
ARC
  5
13F
330
1F
100
AcDbEntity
  8
SLD-0
  6
Continuous
 62
   179
100
AcDbCircle
 10
82.71497
 20
124.72895
 30
0.0
 40
3.000000000000014
100
AcDbArc
 50
0.0
 51
77.62637
  0
ARC
  5
140
330
1F
100
AcDbEntity
  8
SLD-0
  6
Continuous
 62
   179
100
AcDbCircle
 10
76.71497
 20
124.72895
 30
0.0
 40
3.000000000000004
100
AcDbArc
 50
102.37363
 51
180.0
  0
ARC
  5
141
330
1F
100
AcDbEntity
  8
SLD-0
  6
Continuous
 62
   179
100
AcDbCircle
 10
253.18304
 20
105.872169
 30
0.0
 40
2.0
100
AcDbArc
 50
90.0
 51
180.0
  0
CIRCLE
  5
142
330
1F
100
AcDbEntity
  8
SLD-0
  6
Continuous
 62
   179
100
AcDbCircle
 10
342.234764
 20
111.054138
 30
0.0
 40
22.5
  0
ARC
  5
143
330
1F
100
AcDbEntity
  8
SLD-0
  6
Continuous
 62
   179
100
AcDbCircle
 10
342.234764
 20
111.054138
 30
0.0
 40
21.00000000000001
100
AcDbArc
 50
135.0
 51
193.99728
  0
ARC
  5
144
330
1F
100
AcDbEntity
  8
SLD-0
  6
Continuous
 62
   179
100
AcDbCircle
 10
342.234764
 20
111.054138
 30
0.0
 40
21.00000000000001
100
AcDbArc
 50
256.00272
 51
13.99727
  0
ARC
  5
145
330
1F
100
AcDbEntity
  8
SLD-0
  6
Continuous
 62
   179
100
AcDbCircle
 10
342.234764
 20
111.054138
 30
0.0
 40
21.00000000000001
100
AcDbArc
 50
76.002718
 51
135.0
  0
CIRCLE
  5
146
330
1F
100
AcDbEntity
  8
SLD-0
  6
Continuous
 62
   179
100
AcDbCircle
 10
327.234764
 20
111.054138
 30
0.0
 40
2.500000000000057
  0
CIRCLE
  5
147
330
1F
100
AcDbEntity
  8
SLD-0
  6
Continuous
 62
   179
100
AcDbCircle
 10
327.234764
 20
111.054138
 30
0.0
 40
2.000000000000057
  0
CIRCLE
  5
148
330
1F
100
AcDbEntity
  8
SLD-0
  6
Continuous
 62
   179
100
AcDbCircle
 10
357.23476
 20
111.054138
 30
0.0
 40
2.5
  0
CIRCLE
  5
149
330
1F
100
AcDbEntity
  8
SLD-0
  6
Continuous
 62
   179
100
AcDbCircle
 10
357.23476
 20
111.054138
 30
0.0
 40
2.0
  0
CIRCLE
  5
14A
330
1F
100
AcDbEntity
  8
SLD-0
  6
Continuous
 62
   179
100
AcDbCircle
 10
342.234764
 20
111.054138
 30
0.0
 40
4.863999799999988
  0
CIRCLE
  5
14B
330
1F
100
AcDbEntity
  8
SLD-0
  6
Continuous
 62
   179
100
AcDbCircle
 10
342.234764
 20
111.054138
 30
0.0
 40
4.282999999999959
  0
ARC
  5
14C
330
1F
100
AcDbEntity
  8
SLD-0
  6
Continuous
 62
   179
100
AcDbCircle
 10
253.18304
 20
215.48814
 30
0.0
 40
2.0
100
AcDbArc
 50
180.0
 51
270.0
  0
ARC
  5
14D
330
1F
100
AcDbEntity
  8
SLD-0
  6
Continuous
 62
   179
100
AcDbCircle
 10
254.0186852062
 20
130.5765675747
 30
0.0
 40
2.374994975205143
100
AcDbArc
 50
190.444287911
 51
212.9442878299
  0
ARC
  5
14E
330
1F
100
AcDbEntity
  8
SLD-0
  6
Continuous
 62
   179
100
AcDbCircle
 10
254.3481782379
 20
131.3720244363
 30
0.0
 40
3.122519633415276
100
AcDbArc
 50
221.9422727394
 51
244.4422726583
  0
ARC
  5
14F
330
1F
100
AcDbEntity
  8
SLD-0
  6
Continuous
 62
   179
100
AcDbCircle
 10
254.9570322865
 20
131.9809016125
 30
0.0
 40
3.944915128841982
100
AcDbArc
 50
240.2760886763
 51
262.7760885952
  0
ARC
  5
150
330
1F
100
AcDbEntity
  8
SLD-0
  6
Continuous
 62
   179
100
AcDbCircle
 10
255.752521219
 20
132.3103802756
 30
0.0
 40
4.435294215331234
100
AcDbArc
 50
253.0702752522
 51
275.5702751711
  0
ARC
  5
151
330
1F
100
AcDbEntity
  8
SLD-0
  6
Continuous
 62
   179
100
AcDbCircle
 10
256.613563781
 20
132.3104054123
 30
0.0
 40
4.435319718664127
100
AcDbArc
 50
264.4296920628
 51
286.9296919817
  0
ARC
  5
152
330
1F
100
AcDbEntity
  8
SLD-0
  6
Continuous
 62
   179
100
AcDbCircle
 10
257.4090577135
 20
131.9809016125
 30
0.0
 40
3.944915128841842
100
AcDbArc
 50
277.2239114048
 51
299.7239113237
  0
ARC
  5
153
330
1F
100
AcDbEntity
  8
SLD-0
  6
Continuous
 62
   179
100
AcDbCircle
 10
258.0179117621
 20
131.3720244363
 30
0.0
 40
3.122519633415392
100
AcDbArc
 50
295.5577273417
 51
318.0577272606
  0
ARC
  5
154
330
1F
100
AcDbEntity
  8
SLD-0
  6
Continuous
 62
   179
100
AcDbCircle
 10
258.3473997938
 20
130.576542438
 30
0.0
 40
2.374985501401872
100
AcDbArc
 50
327.0562866712
 51
349.5562865901
  0
ARC
  5
155
330
1F
100
AcDbEntity
  8
SLD-0
  6
Continuous
 62
   179
100
AcDbCircle
 10
258.3474249305
 20
129.715512562
 30
0.0
 40
2.37496168749886
100
AcDbArc
 50
10.4439419618
 51
32.9439418807
  0
ARC
  5
156
330
1F
100
AcDbEntity
  8
SLD-0
  6
Continuous
 62
   179
100
AcDbCircle
 10
258.0178866254
 20
128.9200305637
 30
0.0
 40
3.122534988718837
100
AcDbArc
 50
41.9418962154
 51
64.4418961344
  0
ARC
  5
157
330
1F
100
AcDbEntity
  8
SLD-0
  6
Continuous
 62
   179
100
AcDbCircle
 10
257.4090577135
 20
128.3111583875
 30
0.0
 40
3.944915128841806
100
AcDbArc
 50
60.2760886763
 51
82.7760885952
  0
ARC
  5
158
330
1F
100
AcDbEntity
  8
SLD-0
  6
Continuous
 62
   179
100
AcDbCircle
 10
256.613563781
 20
127.9816545877
 30
0.0
 40
4.435319718664127
100
AcDbArc
 50
73.0703080183
 51
95.5703079372
  0
ARC
  5
159
330
1F
100
AcDbEntity
  8
SLD-0
  6
Continuous
 62
   179
100
AcDbCircle
 10
255.752521219
 20
127.9816797244
 30
0.0
 40
4.435294215331234
100
AcDbArc
 50
84.4297248289
 51
106.9297247478
  0
ARC
  5
15A
330
1F
100
AcDbEntity
  8
SLD-0
  6
Continuous
 62
   179
100
AcDbCircle
 10
254.9570322865
 20
128.3111583875
 30
0.0
 40
3.944915128841947
100
AcDbArc
 50
97.2239114048
 51
119.7239113237
  0
ARC
  5
15B
330
1F
100
AcDbEntity
  8
SLD-0
  6
Continuous
 62
   179
100
AcDbCircle
 10
254.3482033746
 20
128.9200305637
 30
0.0
 40
3.122534988718721
100
AcDbArc
 50
115.5581038656
 51
138.0581037846
  0
ARC
  5
15C
330
1F
100
AcDbEntity
  8
SLD-0
  6
Continuous
 62
   179
100
AcDbCircle
 10
254.0186600695
 20
129.7154874253
 30
0.0
 40
2.374971161397125
100
AcDbArc
 50
147.0554836133
 51
169.5554835323
  0
ARC
  5
15D
330
1F
100
AcDbEntity
  8
SLD-0
  6
Continuous
 62
   179
100
AcDbCircle
 10
254.7639332962
 20
130.6525162417
 30
0.0
 40
1.556920722985872
100
AcDbArc
 50
190.4932622243
 51
212.9932621432
  0
ARC
  5
15E
330
1F
100
AcDbEntity
  8
SLD-0
  6
Continuous
 62
   179
100
AcDbCircle
 10
254.9795188697
 20
131.1741921398
 30
0.0
 40
2.047004430029493
100
AcDbArc
 50
221.9912935137
 51
244.4912934326
  0
ARC
  5
15F
330
1F
100
AcDbEntity
  8
SLD-0
  6
Continuous
 62
   179
100
AcDbCircle
 10
255.3782995584
 20
131.5736563302
 30
0.0
 40
2.586096692876105
100
AcDbArc
 50
240.3251066369
 51
262.8251065558
  0
ARC
  5
160
330
1F
100
AcDbEntity
  8
SLD-0
  6
Continuous
 62
   179
100
AcDbCircle
 10
255.8995764438
 20
131.7901182905
 30
0.0
 40
2.907583556300183
100
AcDbArc
 50
253.1198623583
 51
275.6198622772
  0
ARC
  5
161
330
1F
100
AcDbEntity
  8
SLD-0
  6
Continuous
 62
   179
100
AcDbCircle
 10
256.4640720369
 20
131.7906106932
 30
0.0
 40
2.907591033814243
100
AcDbArc
 50
264.4785837901
 51
286.978583709
  0
ARC
  5
162
330
1F
100
AcDbEntity
  8
SLD-0
  6
Continuous
 62
   179
100
AcDbCircle
 10
256.9857078865
 20
131.5750388118
 30
0.0
 40
2.586099752234507
100
AcDbArc
 50
277.2736519562
 51
299.7736518752
  0
ARC
  5
163
330
1F
100
AcDbEntity
  8
SLD-0
  6
Continuous
 62
   179
100
AcDbCircle
 10
257.3852112303
 20
131.1762659306
 30
0.0
 40
2.046995505067783
100
AcDbArc
 50
295.6065547022
 51
318.1065546211
  0
ARC
  5
164
330
1F
100
AcDbEntity
  8
SLD-0
  6
Continuous
 62
   179
100
AcDbCircle
 10
257.6016613726
 20
130.6549529821
 30
0.0
 40
1.556930507069703
100
AcDbArc
 50
327.1053422552
 51
349.6053421742
  0
ARC
  5
165
330
1F
100
AcDbEntity
  8
SLD-0
  6
Continuous
 62
   179
100
AcDbCircle
 10
257.6021315671
 20
130.0904987583
 30
0.0
 40
1.556944528735116
100
AcDbArc
 50
10.4929128337
 51
32.9929127526
  0
ARC
  5
166
330
1F
100
AcDbEntity
  8
SLD-0
  6
Continuous
 62
   179
100
AcDbCircle
 10
257.386596267
 20
129.5688228602
 30
0.0
 40
2.046989092458552
100
AcDbArc
 50
41.9918682415
 51
64.4918681604
  0
ARC
  5
167
330
1F
100
AcDbEntity
  8
SLD-0
  6
Continuous
 62
   179
100
AcDbCircle
 10
256.9877904416
 20
129.1693536698
 30
0.0
 40
2.586096692876148
100
AcDbArc
 50
60.3251066369
 51
82.8251065558
  0
ARC
  5
168
330
1F
100
AcDbEntity
  8
SLD-0
  6
Continuous
 62
   179
100
AcDbCircle
 10
256.4664884195
 20
128.9528967095
 30
0.0
 40
2.907586070795526
100
AcDbArc
 50
73.1193597563
 51
95.6193596752
  0
ARC
  5
169
330
1F
100
AcDbEntity
  8
SLD-0
  6
Continuous
 62
   179
100
AcDbCircle
 10
255.9020430998
 20
128.9524043068
 30
0.0
 40
2.907593592129606
100
AcDbArc
 50
84.4790863049
 51
106.9790862238
  0
ARC
  5
16A
330
1F
100
AcDbEntity
  8
SLD-0
  6
Continuous
 62
   179
100
AcDbCircle
 10
255.3803519768
 20
129.1679510515
 30
0.0
 40
2.586115911529924
100
AcDbArc
 50
97.2729331622
 51
119.7729330812
  0
ARC
  5
16B
330
1F
100
AcDbEntity
  8
SLD-0
  6
Continuous
 62
   179
100
AcDbCircle
 10
254.9808989064
 20
129.5667742061
 30
0.0
 40
2.046990371195396
100
AcDbArc
 50
115.6075589819
 51
138.1075589008
  0
ARC
  5
16C
330
1F
100
AcDbEntity
  8
SLD-0
  6
Continuous
 62
   179
100
AcDbCircle
 10
254.7644286274
 20
130.0880570179
 30
0.0
 40
1.556930507069902
100
AcDbArc
 50
147.1053422552
 51
169.6053421741
  0
ARC
  5
16D
330
1F
100
AcDbEntity
  8
SLD-0
  6
Continuous
 62
   179
100
AcDbCircle
 10
255.6031015263
 20
199.3988275747
 30
0.0
 40
3.921759089376287
100
AcDbArc
 50
181.6858766482
 51
204.1858765672
  0
ARC
  5
16E
330
1F
100
AcDbEntity
  8
SLD-0
  6
Continuous
 62
   179
100
AcDbCircle
 10
255.6914079451
 20
199.6119394363
 30
0.0
 40
4.092685325945936
100
AcDbArc
 50
206.4015248743
 51
228.9015247933
  0
ARC
  5
16F
330
1F
100
AcDbEntity
  8
SLD-0
  6
Continuous
 62
   179
100
AcDbCircle
 10
255.8545380726
 20
199.7751066125
 30
0.0
 40
4.322907839190275
100
AcDbArc
 50
228.6937951311
 51
251.1937950501
  0
ARC
  5
170
330
1F
100
AcDbEntity
  8
SLD-0
  6
Continuous
 62
   179
100
AcDbCircle
 10
256.0676851329
 20
199.8633702756
 30
0.0
 40
4.478526138672203
100
AcDbArc
 50
248.975949503
 51
271.4759494219
  0
ARC
  5
171
330
1F
100
AcDbEntity
  8
SLD-0
  6
Continuous
 62
   179
100
AcDbCircle
 10
256.2983998671
 20
199.8633954123
 30
0.0
 40
4.47855139581876
100
AcDbArc
 50
268.5239949156
 51
291.0239948345
  0
ARC
  5
172
330
1F
100
AcDbEntity
  8
SLD-0
  6
Continuous
 62
   179
100
AcDbCircle
 10
256.5115519274
 20
199.7751066125
 30
0.0
 40
4.322907839190149
100
AcDbArc
 50
288.8062049499
 51
311.3062048689
  0
ARC
  5
173
330
1F
100
AcDbEntity
  8
SLD-0
  6
Continuous
 62
   179
100
AcDbCircle
 10
256.6746820549
 20
199.6119394363
 30
0.0
 40
4.09268532594605
100
AcDbArc
 50
311.0984752067
 51
333.5984751257
  0
ARC
  5
174
330
1F
100
AcDbEntity
  8
SLD-0
  6
Continuous
 62
   179
100
AcDbCircle
 10
256.7629834737
 20
199.398802438
 30
0.0
 40
3.921753352102233
100
AcDbArc
 50
335.8144883653
 51
358.3144882842
  0
ARC
  5
175
330
1F
100
AcDbEntity
  8
SLD-0
  6
Continuous
 62
   179
100
AcDbCircle
 10
256.7629834737
 20
199.168097562
 30
0.0
 40
3.921753352102233
100
AcDbArc
 50
1.6855117158
 51
24.1855116347
  0
ARC
  5
176
330
1F
100
AcDbEntity
  8
SLD-0
  6
Continuous
 62
   179
100
AcDbCircle
 10
256.6747071916
 20
198.9549555637
 30
0.0
 40
4.092665034332944
100
AcDbArc
 50
26.4017440491
 51
48.901743968
  0
ARC
  5
177
330
1F
100
AcDbEntity
  8
SLD-0
  6
Continuous
 62
   179
100
AcDbCircle
 10
256.5115519274
 20
198.7917833875
 30
0.0
 40
4.322907839190158
100
AcDbArc
 50
48.6937951311
 51
71.1937950501
  0
ARC
  5
178
330
1F
100
AcDbEntity
  8
SLD-0
  6
Continuous
 62
   179
100
AcDbCircle
 10
256.2983998671
 20
198.7034945877
 30
0.0
 40
4.478551395818772
100
AcDbArc
 50
68.9760051655
 51
91.4760050844
  0
ARC
  5
179
330
1F
100
AcDbEntity
  8
SLD-0
  6
Continuous
 62
   179
100
AcDbCircle
 10
256.0676851329
 20
198.7035197244
 30
0.0
 40
4.478526138672208
100
AcDbArc
 50
88.5240505781
 51
111.024050497
  0
ARC
  5
17A
330
1F
100
AcDbEntity
  8
SLD-0
  6
Continuous
 62
   179
100
AcDbCircle
 10
255.8545380726
 20
198.7917833875
 30
0.0
 40
4.322907839190283
100
AcDbArc
 50
108.8062049499
 51
131.3062048689
  0
ARC
  5
17B
330
1F
100
AcDbEntity
  8
SLD-0
  6
Continuous
 62
   179
100
AcDbCircle
 10
255.6913828084
 20
198.9549555637
 30
0.0
 40
4.092665034332836
100
AcDbArc
 50
131.098256032
 51
153.5982559509
  0
ARC
  5
17C
330
1F
100
AcDbEntity
  8
SLD-0
  6
Continuous
 62
   179
100
AcDbCircle
 10
255.6031015263
 20
199.1680724253
 30
0.0
 40
3.921759089376287
100
AcDbArc
 50
155.8141234328
 51
178.3141233518
  0
ARC
  5
17D
330
1F
100
AcDbEntity
  8
SLD-0
  6
Continuous
 62
   179
100
AcDbCircle
 10
256.5634085554
 20
199.0786501885
 30
0.0
 40
2.57094193816371
100
AcDbArc
 50
1.8364463125
 51
24.3364462314
  0
ARC
  5
17E
330
1F
100
AcDbEntity
  8
SLD-0
  6
Continuous
 62
   179
100
AcDbCircle
 10
256.5059131986
 20
198.9387686648
 30
0.0
 40
2.68297973760786
100
AcDbArc
 50
26.5527872497
 51
49.0527871686
  0
ARC
  5
17F
330
1F
100
AcDbEntity
  8
SLD-0
  6
Continuous
 62
   179
100
AcDbCircle
 10
256.3992541373
 20
198.8315475395
 30
0.0
 40
2.83388445994686
100
AcDbArc
 50
48.844696996
 51
71.3446969149
  0
ARC
  5
180
330
1F
100
AcDbEntity
  8
SLD-0
  6
Continuous
 62
   179
100
AcDbCircle
 10
256.2596823785
 20
198.7732709682
 30
0.0
 40
2.935943038989984
100
AcDbArc
 50
69.1272549698
 51
91.6272548887
  0
ARC
  5
181
330
1F
100
AcDbEntity
  8
SLD-0
  6
Continuous
 62
   179
100
AcDbCircle
 10
256.1084089565
 20
198.7728850481
 30
0.0
 40
2.935930251323441
100
AcDbArc
 50
88.6747675211
 51
111.17476744
  0
ARC
  5
182
330
1F
100
AcDbEntity
  8
SLD-0
  6
Continuous
 62
   179
100
AcDbCircle
 10
255.968544895
 20
198.8303873185
 30
0.0
 40
2.833911611875546
100
AcDbArc
 50
108.9573150067
 51
131.4573149256
  0
ARC
  5
183
330
1F
100
AcDbEntity
  8
SLD-0
  6
Continuous
 62
   179
100
AcDbCircle
 10
255.8613028685
 20
198.9370684016
 30
0.0
 40
2.682976394555722
100
AcDbArc
 50
131.2492504426
 51
153.7492503616
  0
ARC
  5
184
330
1F
100
AcDbEntity
  8
SLD-0
  6
Continuous
 62
   179
100
AcDbCircle
 10
255.8030625749
 20
199.0766355877
 30
0.0
 40
2.570934764849263
100
AcDbArc
 50
155.9653290955
 51
178.4653290144
  0
ARC
  5
185
330
1F
100
AcDbEntity
  8
SLD-0
  6
Continuous
 62
   179
100
AcDbCircle
 10
255.8026513079
 20
199.2279099482
 30
0.0
 40
2.570922777769941
100
AcDbArc
 50
181.8371319777
 51
204.3371318967
  0
ARC
  5
186
330
1F
100
AcDbEntity
  8
SLD-0
  6
Continuous
 62
   179
100
AcDbCircle
 10
255.8601768014
 20
199.3677713352
 30
0.0
 40
2.682979737607846
100
AcDbArc
 50
206.5527872497
 51
229.0527871686
  0
ARC
  5
187
330
1F
100
AcDbEntity
  8
SLD-0
  6
Continuous
 62
   179
100
AcDbCircle
 10
255.9668358627
 20
199.4749924605
 30
0.0
 40
2.833884459946888
100
AcDbArc
 50
228.844696996
 51
251.3446969149
  0
ARC
  5
188
330
1F
100
AcDbEntity
  8
SLD-0
  6
Continuous
 62
   179
100
AcDbCircle
 10
256.1064327582
 20
199.5332640318
 30
0.0
 40
2.935947323272222
100
AcDbArc
 50
249.1267618475
 51
271.6267617664
  0
ARC
  5
189
330
1F
100
AcDbEntity
  8
SLD-0
  6
Continuous
 62
   179
100
AcDbCircle
 10
256.2576559068
 20
199.5336499519
 30
0.0
 40
2.935934668742778
100
AcDbArc
 50
268.675260198
 51
291.1752601169
  0
ARC
  5
18A
330
1F
100
AcDbEntity
  8
SLD-0
  6
Continuous
 62
   179
100
AcDbCircle
 10
256.3975652417
 20
199.4761225448
 30
0.0
 40
2.833876568100447
100
AcDbArc
 50
288.9571279041
 51
311.4571278231
  0
ARC
  5
18B
330
1F
100
AcDbEntity
  8
SLD-0
  6
Continuous
 62
   179
100
AcDbCircle
 10
256.5047821315
 20
199.3694867351
 30
0.0
 40
2.682991996939654
100
AcDbArc
 50
311.2488162326
 51
333.7488161516
  0
ARC
  5
18C
330
1F
100
AcDbEntity
  8
SLD-0
  6
Continuous
 62
   179
100
AcDbCircle
 10
256.5630224251
 20
199.2298692756
 30
0.0
 40
2.570929093556711
100
AcDbArc
 50
335.9658861073
 51
358.4658860262
  0
POINT
  5
18D
330
1F
100
AcDbEntity
  8
SLD-0
100
AcDbPoint
 10
402.875
 20
12.0
 30
0.0
  0
POINT
  5
18E
330
1F
100
AcDbEntity
  8
SLD-0
100
AcDbPoint
 10
17.07501
 20
285.0
 30
0.0
  0
POINT
  5
18F
330
1F
100
AcDbEntity
  8
SLD-0
100
AcDbPoint
 10
17.07501
 20
12.0
 30
0.0
  0
POINT
  5
190
330
1F
100
AcDbEntity
  8
SLD-0
100
AcDbPoint
 10
402.875
 20
12.0
 30
0.0
  0
POINT
  5
191
330
1F
100
AcDbEntity
  8
SLD-0
100
AcDbPoint
 10
402.875
 20
285.0
 30
0.0
  0
MTEXT
  5
193
330
1F
100
AcDbEntity
  8
SLD-0
 62
     7
100
AcDbMText
 10
353.492116
 20
45.4395182496
 30
0.0
 40
4.8000002
 41
0.0
 71
     1
 72
     1
  1
エアニッパー
  7
SLDTEXTSTYLE3
 73
     1
 44
1.0
  0
MTEXT
  5
195
330
1F
100
AcDbEntity
  8
SLD-0
 62
     7
100
AcDbMText
 10
351.736983
 20
32.2197682496
 30
0.0
 40
4.8000002
 41
0.0
 71
     1
 72
     1
  1
ＧＴ－ＮＲ２０
  7
SLDTEXTSTYLE4
 73
     1
 44
1.0
  0
MTEXT
  5
196
330
1F
100
AcDbEntity
  8
SLD-0
 62
     7
100
AcDbMText
 10
353.70707
 20
20.2897522496
 30
0.0
 40
4.8000002
 41
0.0
 71
     1
 72
     1
  1
０６００８４
  7
SLDTEXTSTYLE3
 73
     1
 44
1.0
  0
INSERT
  5
197
330
1F
100
AcDbEntity
  8
0
  6
Continuous
 62
     7
370
     0
100
AcDbBlockReference
  2
KOZU0001
 10
256.98301
 20
195.44841
 30
0.0
  0
INSERT
  5
198
330
1F
100
AcDbEntity
  8
0
  6
Continuous
 62
     7
370
     0
100
AcDbBlockReference
  2
KOZU0002
 10
326.114408
 20
113.28904
 30
0.0
  0
INSERT
  5
199
330
1F
100
AcDbEntity
  8
0
  6
Continuous
 62
     7
370
     0
100
AcDbBlockReference
  2
KOZU0003
 10
343.947146
 20
106.501528
 30
0.0
  0
ENDSEC
  0
SECTION
  2
OBJECTS
  0
DICTIONARY
  5
C
330
0
100
AcDbDictionary
281
     1
  3
ACAD_GROUP
350
D
  3
ACAD_LAYOUT
350
1A
  3
ACAD_MLINESTYLE
350
17
  3
ACAD_PLOTSETTINGS
350
19
  3
ACAD_PLOTSTYLENAME
350
E
  0
DICTIONARY
  5
D
102
{ACAD_REACTORS
330
C
102
}
330
C
100
AcDbDictionary
281
     1
  0
DICTIONARY
  5
1A
102
{ACAD_REACTORS
330
C
102
}
330
C
100
AcDbDictionary
281
     1
  3
Layout1
350
1E
  3
Layout2
350
26
  3
Model
350
22
  0
DICTIONARY
  5
17
102
{ACAD_REACTORS
330
C
102
}
330
C
100
AcDbDictionary
281
     1
  3
Standard
350
18
  0
DICTIONARY
  5
19
102
{ACAD_REACTORS
330
C
102
}
330
C
100
AcDbDictionary
281
     1
  0
ACDBDICTIONARYWDFLT
  5
E
102
{ACAD_REACTORS
330
C
102
}
330
C
100
AcDbDictionary
281
     1
  3
Normal
350
F
100
AcDbDictionaryWithDefault
340
F
  0
LAYOUT
  5
1E
102
{ACAD_REACTORS
330
1A
102
}
330
1A
100
AcDbPlotSettings
  1

  2

  4

  6

 40
0.0
 41
0.0
 42
0.0
 43
0.0
 44
0.0
 45
0.0
 46
0.0
 47
0.0
 48
0.0
 49
0.0
140
0.0
141
0.0
142
1.0
143
1.0
 70
   688
 72
     0
 73
     0
 74
     5
  7

 75
    16
147
1.0
148
0.0
149
0.0
100
AcDbLayout
  1
Layout1
 70
     1
 71
     1
 10
0.0
 20
0.0
 11
0.0
 21
0.0
 12
0.0
 22
0.0
 32
0.0
 14
0.0
 24
0.0
 34
0.0
 15
0.0
 25
0.0
 35
0.0
146
0.0
 13
0.0
 23
0.0
 33
0.0
 16
1.0
 26
0.0
 36
0.0
 17
0.0
 27
1.0
 37
0.0
 76
     0
330
1B
  0
LAYOUT
  5
26
102
{ACAD_REACTORS
330
1A
102
}
330
1A
100
AcDbPlotSettings
  1

  2

  4

  6

 40
0.0
 41
0.0
 42
0.0
 43
0.0
 44
0.0
 45
0.0
 46
0.0
 47
0.0
 48
0.0
 49
0.0
140
0.0
141
0.0
142
1.0
143
1.0
 70
   688
 72
     0
 73
     0
 74
     5
  7

 75
    16
147
1.0
148
0.0
149
0.0
100
AcDbLayout
  1
Layout2
 70
     1
 71
     2
 10
0.0
 20
0.0
 11
0.0
 21
0.0
 12
0.0
 22
0.0
 32
0.0
 14
0.0
 24
0.0
 34
0.0
 15
0.0
 25
0.0
 35
0.0
146
0.0
 13
0.0
 23
0.0
 33
0.0
 16
1.0
 26
0.0
 36
0.0
 17
0.0
 27
1.0
 37
0.0
 76
     0
330
23
  0
LAYOUT
  5
22
102
{ACAD_REACTORS
330
1A
102
}
330
1A
100
AcDbPlotSettings
  1

  2

  4

  6

 40
0.0
 41
0.0
 42
0.0
 43
0.0
 44
0.0
 45
0.0
 46
0.0
 47
0.0
 48
0.0
 49
0.0
140
0.0
141
0.0
142
1.0
143
1.0
 70
  1712
 72
     0
 73
     0
 74
     0
  7

 75
     0
147
1.0
148
0.0
149
0.0
100
AcDbLayout
  1
Model
 70
     1
 71
     0
 10
0.0
 20
0.0
 11
0.0
 21
0.0
 12
0.0
 22
0.0
 32
0.0
 14
0.0
 24
0.0
 34
0.0
 15
420.0
 25
297.0
 35
0.0
146
0.0
 13
0.0
 23
0.0
 33
0.0
 16
1.0
 26
0.0
 36
0.0
 17
0.0
 27
1.0
 37
0.0
 76
     0
330
1F
  0
MLINESTYLE
  5
18
102
{ACAD_REACTORS
330
17
102
}
330
17
100
AcDbMlineStyle
  2
Standard
 70
     0
  3

 62
   256
 51
90.0
 52
90.0
 71
     2
 49
0.5
 62
   256
  6
BYLAYER
 49
-0.5
 62
   256
  6
BYLAYER
  0
ACDBPLACEHOLDER
  5
F
102
{ACAD_REACTORS
330
E
102
}
330
E
  0
ENDSEC
  0
EOF
