  0
SECTION
  2
HEADER
  9
$ACADVER
  1
AC1015
  9
$ACADMAINTVER
 70
     6
  9
$DWGCODEPAGE
  3
DOS932
  9
$INSBASE
 10
0.0
 20
0.0
 30
0.0
  9
$EXTMIN
 10
0.0
 20
0.0
 30
0.0
  9
$EXTMAX
 10
420.0
 20
297.0
 30
0.0
  9
$LIMMIN
 10
0.0
 20
0.0
  9
$LIMMAX
 10
0.0
 20
0.0
  9
$ORTHOMODE
 70
     0
  9
$REGENMODE
 70
     1
  9
$FILLMODE
 70
     1
  9
$QTEXTMODE
 70
     0
  9
$MIRRTEXT
 70
     1
  9
$LTSCALE
 40
1.0
  9
$ATTMODE
 70
     1
  9
$TEXTSIZE
 40
3.5
  9
$TRACEWID
 40
1.0
  9
$TEXTSTYLE
  7
Standard
  9
$CLAYER
  8
0
  9
$CELTYPE
  6
ByLayer
  9
$CECOLOR
 62
   256
  9
$CELTSCALE
 40
1.0
  9
$DISPSILH
 70
     0
  9
$DIMSCALE
 40
1.0
  9
$DIMASZ
 40
3.0
  9
$DIMEXO
 40
1.0
  9
$DIMDLI
 40
3.75
  9
$DIMRND
 40
0.0
  9
$DIMDLE
 40
0.0
  9
$DIMEXE
 40
1.0
  9
$DIMTP
 40
0.0
  9
$DIMTM
 40
0.0
  9
$DIMTXT
 40
3.2
  9
$DIMCEN
 40
2.5
  9
$DIMTSZ
 40
0.0
  9
$DIMTOL
 70
     0
  9
$DIMLIM
 70
     0
  9
$DIMTIH
 70
     1
  9
$DIMTOH
 70
     1
  9
$DIMSE1
 70
     0
  9
$DIMSE2
 70
     0
  9
$DIMTAD
 70
     1
  9
$DIMZIN
 70
     1
  9
$DIMBLK
  1

  9
$DIMASO
 70
     1
  9
$DIMSHO
 70
     1
  9
$DIMPOST
  1

  9
$DIMAPOST
  1

  9
$DIMALT
 70
     0
  9
$DIMALTD
 70
     3
  9
$DIMALTF
 40
0.0393700787
  9
$DIMLFAC
 40
1.0
  9
$DIMTOFL
 70
     1
  9
$DIMTVP
 40
0.0
  9
$DIMTIX
 70
     0
  9
$DIMSOXD
 70
     0
  9
$DIMSAH
 70
     0
  9
$DIMBLK1
  1

  9
$DIMBLK2
  1

  9
$DIMSTYLE
  2
ISO-25
  9
$DIMCLRD
 70
     0
  9
$DIMCLRE
 70
     0
  9
$DIMCLRT
 70
     0
  9
$DIMTFAC
 40
1.0
  9
$DIMGAP
 40
1.524
  9
$DIMJUST
 70
     0
  9
$DIMSD1
 70
     0
  9
$DIMSD2
 70
     0
  9
$DIMTOLJ
 70
     0
  9
$DIMTZIN
 70
     1
  9
$DIMALTZ
 70
     0
  9
$DIMALTTZ
 70
     0
  9
$DIMUPT
 70
     0
  9
$DIMDEC
 70
     2
  9
$DIMTDEC
 70
     2
  9
$DIMALTU
 70
     2
  9
$DIMALTTD
 70
     3
  9
$DIMTXSTY
  7
Standard
  9
$DIMAUNIT
 70
     0
  9
$DIMADEC
 70
     0
  9
$DIMALTRND
 40
0.0
  9
$DIMAZIN
 70
     0
  9
$DIMDSEP
 70
    44
  9
$DIMATFIT
 70
     3
  9
$DIMFRAC
 70
     0
  9
$DIMLDRBLK
  1

  9
$DIMLUNIT
 70
     2
  9
$DIMLWD
 70
    -2
  9
$DIMLWE
 70
    -2
  9
$DIMTMOVE
 70
     0
  9
$LUNITS
 70
     2
  9
$LUPREC
 70
     4
  9
$SKETCHINC
 40
1.0
  9
$FILLETRAD
 40
10.0
  9
$AUNITS
 70
     0
  9
$AUPREC
 70
     0
  9
$MENU
  1
.
  9
$ELEVATION
 40
0.0
  9
$PELEVATION
 40
0.0
  9
$THICKNESS
 40
0.0
  9
$LIMCHECK
 70
     0
  9
$CHAMFERA
 40
10.0
  9
$CHAMFERB
 40
10.0
  9
$CHAMFERC
 40
20.0
  9
$CHAMFERD
 40
0.0
  9
$SKPOLY
 70
     0
  9
$TDCREATE
 40
2454307.481875
  9
$TDUCREATE
 40
2454307.106875
  9
$TDUPDATE
 40
2454307.481875012
  9
$TDUUPDATE
 40
2454307.106875012
  9
$TDINDWG
 40
0.0000000116
  9
$TDUSRTIMER
 40
0.0000000116
  9
$USRTIMER
 70
     1
  9
$ANGBASE
 50
0.0
  9
$ANGDIR
 70
     0
  9
$PDMODE
 70
     0
  9
$PDSIZE
 40
-1.0
  9
$PLINEWID
 40
0.0
  9
$SPLFRAME
 70
     0
  9
$SPLINETYPE
 70
     6
  9
$SPLINESEGS
 70
     8
  9
$HANDSEED
  5
170
  9
$SURFTAB1
 70
     6
  9
$SURFTAB2
 70
     6
  9
$SURFTYPE
 70
     6
  9
$SURFU
 70
     6
  9
$SURFV
 70
     6
  9
$UCSBASE
  2

  9
$UCSNAME
  2

  9
$UCSORG
 10
0.0
 20
0.0
 30
0.0
  9
$UCSXDIR
 10
1.0
 20
0.0
 30
0.0
  9
$UCSYDIR
 10
0.0
 20
1.0
 30
0.0
  9
$UCSORTHOREF
  2

  9
$UCSORTHOVIEW
 70
     0
  9
$UCSORGTOP
 10
0.0
 20
0.0
 30
0.0
  9
$UCSORGBOTTOM
 10
0.0
 20
0.0
 30
0.0
  9
$UCSORGLEFT
 10
0.0
 20
0.0
 30
0.0
  9
$UCSORGRIGHT
 10
0.0
 20
0.0
 30
0.0
  9
$UCSORGFRONT
 10
0.0
 20
0.0
 30
0.0
  9
$UCSORGBACK
 10
0.0
 20
0.0
 30
0.0
  9
$PUCSBASE
  2

  9
$PUCSNAME
  2

  9
$PUCSORG
 10
0.0
 20
0.0
 30
0.0
  9
$PUCSXDIR
 10
1.0
 20
0.0
 30
0.0
  9
$PUCSYDIR
 10
0.0
 20
1.0
 30
0.0
  9
$PUCSORTHOREF
  2

  9
$PUCSORTHOVIEW
 70
     0
  9
$PUCSORGTOP
 10
0.0
 20
0.0
 30
0.0
  9
$PUCSORGBOTTOM
 10
0.0
 20
0.0
 30
0.0
  9
$PUCSORGLEFT
 10
0.0
 20
0.0
 30
0.0
  9
$PUCSORGRIGHT
 10
0.0
 20
0.0
 30
0.0
  9
$PUCSORGFRONT
 10
0.0
 20
0.0
 30
0.0
  9
$PUCSORGBACK
 10
0.0
 20
0.0
 30
0.0
  9
$USERI1
 70
     0
  9
$USERI2
 70
     0
  9
$USERI3
 70
     0
  9
$USERI4
 70
     0
  9
$USERI5
 70
     0
  9
$USERR1
 40
0.0
  9
$USERR2
 40
0.0
  9
$USERR3
 40
0.0
  9
$USERR4
 40
0.0
  9
$USERR5
 40
0.0
  9
$WORLDVIEW
 70
     1
  9
$SHADEDGE
 70
     3
  9
$SHADEDIF
 70
    70
  9
$TILEMODE
 70
     1
  9
$MAXACTVP
 70
    64
  9
$PINSBASE
 10
0.0
 20
0.0
 30
0.0
  9
$PLIMCHECK
 70
     0
  9
$PEXTMIN
 10
1.0000000000E+20
 20
1.0000000000E+20
 30
1.0000000000E+20
  9
$PEXTMAX
 10
-1.0000000000E+20
 20
-1.0000000000E+20
 30
-1.0000000000E+20
  9
$PLIMMIN
 10
0.0
 20
0.0
  9
$PLIMMAX
 10
420.0
 20
297.0
  9
$UNITMODE
 70
     0
  9
$VISRETAIN
 70
     1
  9
$PLINEGEN
 70
     0
  9
$PSLTSCALE
 70
     1
  9
$TREEDEPTH
 70
  3020
  9
$CMLSTYLE
  2
Standard
  9
$CMLJUST
 70
     0
  9
$CMLSCALE
 40
20.0
  9
$PROXYGRAPHICS
 70
     1
  9
$MEASUREMENT
 70
     1
  9
$CELWEIGHT
370
    -1
  9
$ENDCAPS
280
     0
  9
$JOINSTYLE
280
     0
  9
$LWDISPLAY
290
     1
  9
$INSUNITS
 70
     4
  9
$HYPERLINKBASE
  1

  9
$STYLESHEET
  1

  9
$XEDIT
290
     1
  9
$CEPSNTYPE
380
     0
  9
$PSTYLEMODE
290
     1
  9
$FINGERPRINTGUID
  2
{B24C423A-19B3-468A-A4A7-432FE7EBEB22}
  9
$VERSIONGUID
  2
{FAEB1C32-E019-11D5-929B-00C0DF256EC4}
  9
$EXTNAMES
290
     1
  9
$PSVPSCALE
 40
0.0
  9
$OLESTARTUP
290
     0
  0
ENDSEC
  0
SECTION
  2
CLASSES
  0
CLASS
  1
ACDBDICTIONARYWDFLT
  2
AcDbDictionaryWithDefault
  3
ObjectDBX Classes
 90
        0
280
     0
281
     0
  0
CLASS
  1
ACDBPLACEHOLDER
  2
AcDbPlaceHolder
  3
ObjectDBX Classes
 90
        0
280
     0
281
     0
  0
CLASS
  1
LAYOUT
  2
AcDbLayout
  3
ObjectDBX Classes
 90
        0
280
     0
281
     0
  0
ENDSEC
  0
SECTION
  2
TABLES
  0
TABLE
  2
VPORT
  5
8
330
0
100
AcDbSymbolTable
 70
     1
  0
VPORT
  5
29
330
8
100
AcDbSymbolTableRecord
100
AcDbViewportTableRecord
  2
*Active
 70
     0
 10
0.0
 20
0.0
 11
1.0
 21
1.0
 12
210.0
 22
148.5
 13
0.0
 23
0.0
 14
10.0
 24
10.0
 15
10.0
 25
10.0
 16
0.0
 26
0.0
 36
1.0
 17
0.0
 27
0.0
 37
0.0
 40
297.0
 41
1.9729729729
 42
50.0
 43
0.0
 44
0.0
 50
0.0
 51
0.0
 71
     0
 72
  2000
 73
     1
 74
     3
 75
     0
 76
     0
 77
     0
 78
     0
281
     0
 65
     1
110
0.0
120
0.0
130
0.0
111
1.0
121
0.0
131
0.0
112
0.0
122
1.0
132
0.0
 79
     0
146
0.0
  0
ENDTAB
  0
TABLE
  2
LTYPE
  5
5
330
0
100
AcDbSymbolTable
 70
     6
  0
LTYPE
  5
14
330
5
100
AcDbSymbolTableRecord
100
AcDbLinetypeTableRecord
  2
ByBlock
 70
     0
  3

 72
    65
 73
     0
 40
0.0
  0
LTYPE
  5
15
330
5
100
AcDbSymbolTableRecord
100
AcDbLinetypeTableRecord
  2
ByLayer
 70
     0
  3

 72
    65
 73
     0
 40
0.0
  0
LTYPE
  5
16
330
5
100
AcDbSymbolTableRecord
100
AcDbLinetypeTableRecord
  2
Continuous
 70
     0
  3
Solid line
 72
    65
 73
     0
 40
0.0
  0
LTYPE
  5
2A
330
5
100
AcDbSymbolTableRecord
100
AcDbLinetypeTableRecord
  2
HIDDEN
 70
     0
  3
Hidden __ __ __ __ __ __ __ __ __ __ __ __ __ __
 72
    65
 73
     2
 40
1.905
 49
1.27
 74
     0
 49
-0.635
 74
     0
  0
LTYPE
  5
2B
330
5
100
AcDbSymbolTableRecord
100
AcDbLinetypeTableRecord
  2
PHANTOM
 70
     0
  3
Phantom ______  __  __  ______  __  __  ______
 72
    65
 73
     6
 40
12.7
 49
6.35
 74
     0
 49
-1.27
 74
     0
 49
1.27
 74
     0
 49
-1.27
 74
     0
 49
1.27
 74
     0
 49
-1.27
 74
     0
  0
LTYPE
  5
2C
330
5
100
AcDbSymbolTableRecord
100
AcDbLinetypeTableRecord
  2
CENTER
 70
     0
  3
Center ____ _ ____ _ ____ _ ____ _ ____ _ ____
 72
    65
 73
     4
 40
10.16
 49
6.35
 74
     0
 49
-1.27
 74
     0
 49
1.27
 74
     0
 49
-1.27
 74
     0
  0
LTYPE
  5
2D
330
5
100
AcDbSymbolTableRecord
100
AcDbLinetypeTableRecord
  2
CENTERX2
 70
     0
  3
Center (2x) ________  __  ________  __  _____
 72
    65
 73
     4
 40
20.32
 49
12.7
 74
     0
 49
-2.54
 74
     0
 49
2.54
 74
     0
 49
-2.54
 74
     0
  0
LTYPE
  5
2E
330
5
100
AcDbSymbolTableRecord
100
AcDbLinetypeTableRecord
  2
DOT2
 70
     0
  3
Dot (.5x) ........................................
 72
    65
 73
     2
 40
0.635
 49
0.0
 74
     0
 49
-0.635
 74
     0
  0
ENDTAB
  0
TABLE
  2
LAYER
  5
2
330
0
100
AcDbSymbolTable
 70
     2
  0
LAYER
  5
10
330
2
100
AcDbSymbolTableRecord
100
AcDbLayerTableRecord
  2
0
 70
     0
 62
     7
  6
Continuous
370
    -3
390
F
  0
LAYER
  5
2F
330
2
100
AcDbSymbolTableRecord
100
AcDbLayerTableRecord
  2
SLD-0
 70
     0
 62
   179
  6
Continuous
370
     0
390
F
  0
ENDTAB
  0
TABLE
  2
STYLE
  5
3
330
0
100
AcDbSymbolTable
 70
     6
  0
STYLE
  5
11
330
3
100
AcDbSymbolTableRecord
100
AcDbTextStyleTableRecord
  2
Standard
 70
     0
 40
0.0
 41
1.0
 50
0.0
 71
     0
 42
2.5
  3
txt
  4
bigfont
  0
STYLE
  5
38
330
3
100
AcDbSymbolTableRecord
100
AcDbTextStyleTableRecord
  2
SLDTEXTSTYLE0
 70
     0
 40
0.0
 41
0.6215272
 50
0.0
 71
     0
 42
0.2
  3
TXT
  4
bigfont
  0
STYLE
  5
3A
330
3
100
AcDbSymbolTableRecord
100
AcDbTextStyleTableRecord
  2
SLDTEXTSTYLE1
 70
     0
 40
0.0
 41
0.6255252021
 50
0.0
 71
     0
 42
0.2
  3
TXT
  4
bigfont
  0
STYLE
  5
44
330
3
100
AcDbSymbolTableRecord
100
AcDbTextStyleTableRecord
  2
SLDTEXTSTYLE2
 70
     0
 40
0.0
 41
0.6236261537
 50
0.0
 71
     0
 42
0.2
  3
TXT
  4
bigfont
  0
STYLE
  5
168
330
3
100
AcDbSymbolTableRecord
100
AcDbTextStyleTableRecord
  2
SLDTEXTSTYLE3
 70
     0
 40
0.0
 41
0.6244080758
 50
0.0
 71
     0
 42
0.2
  3
TXT
  4
bigfont
  0
STYLE
  5
16A
330
3
100
AcDbSymbolTableRecord
100
AcDbTextStyleTableRecord
  2
SLDTEXTSTYLE4
 70
     0
 40
0.0
 41
0.6236261168
 50
0.0
 71
     0
 42
0.2
  3
TXT
  4
bigfont
  0
ENDTAB
  0
TABLE
  2
VIEW
  5
6
330
0
100
AcDbSymbolTable
 70
     0
  0
ENDTAB
  0
TABLE
  2
UCS
  5
7
330
0
100
AcDbSymbolTable
 70
     0
  0
ENDTAB
  0
TABLE
  2
APPID
  5
9
330
0
100
AcDbSymbolTable
 70
     1
  0
APPID
  5
12
330
9
100
AcDbSymbolTableRecord
100
AcDbRegAppTableRecord
  2
ACAD
 70
     0
  0
ENDTAB
  0
TABLE
  2
DIMSTYLE
  5
A
330
0
100
AcDbSymbolTable
 70
     1
100
AcDbDimStyleTable
  0
DIMSTYLE
105
27
330
A
100
AcDbSymbolTableRecord
100
AcDbDimStyleTableRecord
  2
ISO-25
 70
     0
 41
2.5
 42
0.625
 43
3.75
 44
1.25
 73
     0
 74
     0
 77
     1
 78
     8
140
2.5
141
2.5
143
0.0393700787
147
0.625
171
     3
172
     1
271
     2
272
     2
274
     3
278
    44
283
     0
284
     8
340
11
  0
ENDTAB
  0
TABLE
  2
BLOCK_RECORD
  5
1
330
0
100
AcDbSymbolTable
 70
     4
  0
BLOCK_RECORD
  5
1F
330
1
100
AcDbSymbolTableRecord
100
AcDbBlockTableRecord
  2
*Model_Space
340
22
  0
BLOCK_RECORD
  5
1B
330
1
100
AcDbSymbolTableRecord
100
AcDbBlockTableRecord
  2
*Paper_Space
340
1E
  0
BLOCK_RECORD
  5
23
330
1
100
AcDbSymbolTableRecord
100
AcDbBlockTableRecord
  2
*Paper_Space0
340
26
  0
BLOCK_RECORD
  5
30
330
1
100
AcDbSymbolTableRecord
100
AcDbBlockTableRecord
  2
KOZU0001
340
0
102
{BLKREFS
331
16D
102
}
  0
BLOCK_RECORD
  5
3C
330
1
100
AcDbSymbolTableRecord
100
AcDbBlockTableRecord
  2
KOZU0002
340
0
102
{BLKREFS
331
16E
102
}
  0
BLOCK_RECORD
  5
46
330
1
100
AcDbSymbolTableRecord
100
AcDbBlockTableRecord
  2
KOZU0003
340
0
102
{BLKREFS
331
16F
102
}
  0
ENDTAB
  0
ENDSEC
  0
SECTION
  2
BLOCKS
  0
BLOCK
  5
20
330
1F
100
AcDbEntity
  8
0
100
AcDbBlockBegin
  2
*Model_Space
 70
     0
 71
     0
 10
0.0
 20
0.0
 30
0.0
  3
*Model_Space
  1

  0
ENDBLK
  5
21
330
1F
100
AcDbEntity
  8
0
100
AcDbBlockEnd
  0
BLOCK
  5
1C
330
1B
100
AcDbEntity
 67
     1
  8
0
100
AcDbBlockBegin
  2
*Paper_Space
 70
     0
 71
     0
 10
0.0
 20
0.0
 30
0.0
  3
*Paper_Space
  1

  0
ENDBLK
  5
1D
330
1B
100
AcDbEntity
 67
     1
  8
0
100
AcDbBlockEnd
  0
BLOCK
  5
24
330
23
100
AcDbEntity
  8
0
100
AcDbBlockBegin
  2
*Paper_Space0
 70
     0
 71
     0
 10
0.0
 20
0.0
 30
0.0
  3
*Paper_Space0
  1

  0
ENDBLK
  5
25
330
23
100
AcDbEntity
  8
0
100
AcDbBlockEnd
  0
BLOCK
  5
31
330
30
100
AcDbEntity
  8
0
100
AcDbBlockBegin
  2
KOZU0001
 70
     0
 71
     0
 10
0.0
 20
0.0
 30
0.0
  3
KOZU0001
  1

  0
LINE
  5
33
330
30
100
AcDbEntity
  8
SLD-0
  6
Continuous
 62
   179
100
AcDbLine
 10
0.0
 20
0.0
 30
0.0
 11
10.247901
 21
-27.836831
 31
0.0
  0
LINE
  5
34
330
30
100
AcDbEntity
  8
SLD-0
  6
Continuous
 62
   179
100
AcDbLine
 10
0.0
 20
0.0
 30
0.0
 11
1.9748519
 21
-2.4698097
 31
0.0
  0
LINE
  5
35
330
30
100
AcDbEntity
  8
SLD-0
  6
Continuous
 62
   179
100
AcDbLine
 10
0.0
 20
0.0
 30
0.0
 11
0.097995697
 21
-3.1607589
 31
0.0
  0
LINE
  5
36
330
30
100
AcDbEntity
  8
SLD-0
  6
Continuous
 62
   179
100
AcDbLine
 10
0.0
 20
0.0
 30
0.0
 11
10.247901
 21
-27.836831
 31
0.0
  0
LINE
  5
37
330
30
100
AcDbEntity
  8
SLD-0
  6
Continuous
 62
   179
100
AcDbLine
 10
10.247901
 20
-27.836831
 30
0.0
 11
57.591711
 21
-27.836825
 31
0.0
  0
MTEXT
  5
39
330
30
100
AcDbEntity
  8
SLD-0
100
AcDbMText
 10
15.077709
 20
-24.3821054631
 30
0.0
 40
3.2
 41
0.0
 71
     1
 72
     1
  1
六角穴付テーパーネジプラグ
  7
SLDTEXTSTYLE0
 73
     1
 44
1.0
  0
MTEXT
  5
3B
330
30
100
AcDbEntity
  8
SLD-0
100
AcDbMText
 10
15.077709
 20
-29.9981054631
 30
0.0
 40
3.2
 41
0.0
 71
     1
 72
     1
  1
ＰＴ１／８
  7
SLDTEXTSTYLE1
 73
     1
 44
1.0
  0
ENDBLK
  5
32
330
30
100
AcDbEntity
  8
0
100
AcDbBlockEnd
  0
BLOCK
  5
3D
330
3C
100
AcDbEntity
  8
0
100
AcDbBlockBegin
  2
KOZU0002
 70
     0
 71
     0
 10
0.0
 20
0.0
 30
0.0
  3
KOZU0002
  1

  0
LINE
  5
3F
330
3C
100
AcDbEntity
  8
SLD-0
  6
Continuous
 62
   179
100
AcDbLine
 10
0.0
 20
0.0
 30
0.0
 11
11.548228
 21
15.210625
 31
0.0
  0
LINE
  5
40
330
3C
100
AcDbEntity
  8
SLD-0
  6
Continuous
 62
   179
100
AcDbLine
 10
0.0
 20
0.0
 30
0.0
 11
1.017609
 21
2.9940728
 31
0.0
  0
LINE
  5
41
330
3C
100
AcDbEntity
  8
SLD-0
  6
Continuous
 62
   179
100
AcDbLine
 10
0.0
 20
0.0
 30
0.0
 11
2.6105308
 21
1.7846928
 31
0.0
  0
LINE
  5
42
330
3C
100
AcDbEntity
  8
SLD-0
  6
Continuous
 62
   179
100
AcDbLine
 10
0.0
 20
0.0
 30
0.0
 11
11.548228
 21
15.210625
 31
0.0
  0
LINE
  5
43
330
3C
100
AcDbEntity
  8
SLD-0
  6
Continuous
 62
   179
100
AcDbLine
 10
11.548228
 20
15.210625
 30
0.0
 11
36.850118
 21
15.21063
 31
0.0
  0
MTEXT
  5
45
330
3C
100
AcDbEntity
  8
SLD-0
100
AcDbMText
 10
13.536117
 20
18.6653495369
 30
0.0
 40
3.2
 41
0.0
 71
     1
 72
     1
  1
２－Ｍ６深１２
  7
SLDTEXTSTYLE2
 73
     1
 44
1.0
  0
ENDBLK
  5
3E
330
3C
100
AcDbEntity
  8
0
100
AcDbBlockEnd
  0
BLOCK
  5
47
330
46
100
AcDbEntity
  8
0
100
AcDbBlockBegin
  2
KOZU0003
 70
     0
 71
     0
 10
0.0
 20
0.0
 30
0.0
  3
KOZU0003
  1

  0
LINE
  5
49
330
46
100
AcDbEntity
  8
SLD-0
  6
Continuous
 62
   179
100
AcDbLine
 10
0.0
 20
0.0
 30
0.0
 11
18.132911
 21
-26.081771
 31
0.0
  0
LINE
  5
4A
330
46
100
AcDbEntity
  8
SLD-0
  6
Continuous
 62
   179
100
AcDbLine
 10
0.0
 20
0.0
 30
0.0
 11
2.5335642
 21
-1.8923668
 31
0.0
  0
LINE
  5
4B
330
46
100
AcDbEntity
  8
SLD-0
  6
Continuous
 62
   179
100
AcDbLine
 10
0.0
 20
0.0
 30
0.0
 11
0.89143129
 21
-3.034032
 31
0.0
  0
LINE
  5
4C
330
46
100
AcDbEntity
  8
SLD-0
  6
Continuous
 62
   179
100
AcDbLine
 10
0.0
 20
0.0
 30
0.0
 11
18.132911
 21
-26.081771
 31
0.0
  0
LINE
  5
4D
330
46
100
AcDbEntity
  8
SLD-0
  6
Continuous
 62
   179
100
AcDbLine
 10
18.132911
 20
-26.081771
 30
0.0
 11
39.548848
 21
-26.08177
 31
0.0
  0
MTEXT
  5
4E
330
46
100
AcDbEntity
  8
SLD-0
100
AcDbMText
 10
22.634847
 20
-22.6270504631
 30
0.0
 40
3.2
 41
0.0
 71
     1
 72
     1
  1
ＰＴ１／８
  7
SLDTEXTSTYLE1
 73
     1
 44
1.0
  0
ENDBLK
  5
48
330
46
100
AcDbEntity
  8
0
100
AcDbBlockEnd
  0
ENDSEC
  0
SECTION
  2
ENTITIES
  0
LINE
  5
4F
330
1F
100
AcDbEntity
  8
SLD-0
  6
Continuous
 62
   179
100
AcDbLine
 10
119.07367
 20
229.5416
 30
0.0
 11
122.07367
 21
229.5416
 31
0.0
  0
LINE
  5
50
330
1F
100
AcDbEntity
  8
SLD-0
  6
Continuous
 62
   179
100
AcDbLine
 10
118.07367
 20
226.5416
 30
0.0
 11
118.07367
 21
228.5416
 31
0.0
  0
LINE
  5
51
330
1F
100
AcDbEntity
  8
SLD-0
  6
Continuous
 62
   179
100
AcDbLine
 10
127.07367
 20
226.5416
 30
0.0
 11
127.07367
 21
228.5416
 31
0.0
  0
LINE
  5
52
330
1F
100
AcDbEntity
  8
SLD-0
  6
Continuous
 62
   179
100
AcDbLine
 10
118.07367
 20
228.5416
 30
0.0
 11
127.07367
 21
228.5416
 31
0.0
  0
LINE
  5
53
330
1F
100
AcDbEntity
  8
SLD-0
  6
Continuous
 62
   179
100
AcDbLine
 10
118.07365
 20
228.54163
 30
0.0
 11
119.07365
 21
229.54163
 31
0.0
  0
LINE
  5
54
330
1F
100
AcDbEntity
  8
SLD-0
  6
Continuous
 62
   179
100
AcDbLine
 10
127.07367
 20
228.54162
 30
0.0
 11
126.07367
 21
229.54162
 31
0.0
  0
LINE
  5
55
330
1F
100
AcDbEntity
  8
SLD-0
  6
Continuous
 62
   179
100
AcDbLine
 10
123.07367
 20
228.5416
 30
0.0
 11
123.07367
 21
229.5416
 31
0.0
  0
LINE
  5
56
330
1F
100
AcDbEntity
  8
SLD-0
  6
Continuous
 62
   179
100
AcDbLine
 10
122.07367
 20
228.5416
 30
0.0
 11
122.07367
 21
229.5416
 31
0.0
  0
LINE
  5
57
330
1F
100
AcDbEntity
  8
SLD-0
  6
Continuous
 62
   179
100
AcDbLine
 10
123.07367
 20
229.5416
 30
0.0
 11
126.07367
 21
229.5416
 31
0.0
  0
LINE
  5
58
330
1F
100
AcDbEntity
  8
SLD-0
  6
Continuous
 62
   179
100
AcDbLine
 10
120.57367
 20
187.8416
 30
0.0
 11
120.57367
 21
191.94159
 31
0.0
  0
LINE
  5
59
330
1F
100
AcDbEntity
  8
SLD-0
  6
Continuous
 62
   179
100
AcDbLine
 10
124.57367
 20
187.8416
 30
0.0
 11
124.57367
 21
191.94159
 31
0.0
  0
LINE
  5
5A
330
1F
100
AcDbEntity
  8
SLD-0
  6
Continuous
 62
   179
100
AcDbLine
 10
277.57367
 20
74.17234
 30
0.0
 11
277.57367
 21
127.17235
 31
0.0
  0
LINE
  5
5B
330
1F
100
AcDbEntity
  8
SLD-0
  6
Continuous
 62
   179
100
AcDbLine
 10
112.57367
 20
90.396828
 30
0.0
 11
112.57367
 21
110.947853
 31
0.0
  0
LINE
  5
5C
330
1F
100
AcDbEntity
  8
SLD-0
  6
Continuous
 62
   179
100
AcDbLine
 10
150.57367
 20
72.67234
 30
0.0
 11
276.07367
 21
72.67234
 31
0.0
  0
LINE
  5
5D
330
1F
100
AcDbEntity
  8
SLD-0
  6
Continuous
 62
   179
100
AcDbLine
 10
150.57367
 20
128.67235
 30
0.0
 11
276.07367
 21
128.67235
 31
0.0
  0
LINE
  5
5E
330
1F
100
AcDbEntity
  8
SLD-0
  6
CENTER
 62
   179
100
AcDbLine
 10
109.57367
 20
100.67234
 30
0.0
 11
280.57367
 21
100.67234
 31
0.0
  0
LINE
  5
5F
330
1F
100
AcDbEntity
  8
SLD-0
  6
Continuous
 62
   179
100
AcDbLine
 10
257.57367
 20
72.67234
 30
0.0
 11
257.57367
 21
128.67235
 31
0.0
  0
LINE
  5
60
330
1F
100
AcDbEntity
  8
SLD-0
  6
Continuous
 62
   179
100
AcDbLine
 10
276.07367
 20
72.67234
 30
0.0
 11
277.57367
 21
74.17234
 31
0.0
  0
LINE
  5
61
330
1F
100
AcDbEntity
  8
SLD-0
  6
Continuous
 62
   179
100
AcDbLine
 10
277.57367
 20
127.17234
 30
0.0
 11
276.07367
 21
128.67235
 31
0.0
  0
LINE
  5
62
330
1F
100
AcDbEntity
  8
SLD-0
  6
Continuous
 62
   179
100
AcDbLine
 10
276.07367
 20
72.67234
 30
0.0
 11
276.07367
 21
73.11729
 31
0.0
  0
LINE
  5
63
330
1F
100
AcDbEntity
  8
SLD-0
  6
Continuous
 62
   179
100
AcDbLine
 10
150.57367
 20
72.67234
 30
0.0
 11
150.57367
 21
128.67235
 31
0.0
  0
LINE
  5
64
330
1F
100
AcDbEntity
  8
SLD-0
  6
Continuous
 62
   179
100
AcDbLine
 10
277.57367
 20
238.0416
 30
0.0
 11
277.57367
 21
185.0416
 31
0.0
  0
LINE
  5
65
330
1F
100
AcDbEntity
  8
SLD-0
  6
Continuous
 62
   179
100
AcDbLine
 10
112.57367
 20
222.5416
 30
0.0
 11
112.57367
 21
220.0416
 31
0.0
  0
LINE
  5
66
330
1F
100
AcDbEntity
  8
SLD-0
  6
Continuous
 62
   179
100
AcDbLine
 10
150.57367
 20
239.5416
 30
0.0
 11
276.07367
 21
239.5416
 31
0.0
  0
LINE
  5
67
330
1F
100
AcDbEntity
  8
SLD-0
  6
Continuous
 62
   179
100
AcDbLine
 10
150.57367
 20
183.5416
 30
0.0
 11
276.07367
 21
183.5416
 31
0.0
  0
LINE
  5
68
330
1F
100
AcDbEntity
  8
SLD-0
  6
CENTER
 62
   179
100
AcDbLine
 10
109.57367
 20
211.5416
 30
0.0
 11
280.57367
 21
211.5416
 31
0.0
  0
LINE
  5
69
330
1F
100
AcDbEntity
  8
SLD-0
  6
Continuous
 62
   179
100
AcDbLine
 10
257.57367
 20
239.5416
 30
0.0
 11
257.57367
 21
183.5416
 31
0.0
  0
LINE
  5
6A
330
1F
100
AcDbEntity
  8
SLD-0
  6
Continuous
 62
   179
100
AcDbLine
 10
150.57367
 20
239.5416
 30
0.0
 11
150.57367
 21
183.5416
 31
0.0
  0
LINE
  5
6B
330
1F
100
AcDbEntity
  8
SLD-0
  6
CENTER
 62
   179
100
AcDbLine
 10
59.69498
 20
69.67234
 30
0.0
 11
59.69498
 21
131.67233
 31
0.0
  0
LINE
  5
6C
330
1F
100
AcDbEntity
  8
SLD-0
  6
CENTER
 62
   179
100
AcDbLine
 10
28.69498
 20
100.67234
 30
0.0
 11
75.69498
 21
100.67234
 31
0.0
  0
LINE
  5
6D
330
1F
100
AcDbEntity
  8
SLD-0
  6
Continuous
 62
   179
100
AcDbLine
 10
116.57367
 20
196.5416
 30
0.0
 11
133.74634
 21
196.5416
 31
0.0
  0
LINE
  5
6E
330
1F
100
AcDbEntity
  8
SLD-0
  6
Continuous
 62
   179
100
AcDbLine
 10
112.57367
 20
220.0416
 30
0.0
 11
141.07367
 21
220.0416
 31
0.0
  0
LINE
  5
6F
330
1F
100
AcDbEntity
  8
SLD-0
  6
Continuous
 62
   179
100
AcDbLine
 10
112.57367
 20
203.0416
 30
0.0
 11
141.07367
 21
203.0416
 31
0.0
  0
LINE
  5
70
330
1F
100
AcDbEntity
  8
SLD-0
  6
Continuous
 62
   179
100
AcDbLine
 10
112.57367
 20
203.0416
 30
0.0
 11
112.57367
 21
200.5416
 31
0.0
  0
LINE
  5
71
330
1F
100
AcDbEntity
  8
SLD-0
  6
Continuous
 62
   179
100
AcDbLine
 10
112.57368
 20
200.54157
 30
0.0
 11
116.57369
 21
196.54156
 31
0.0
  0
LINE
  5
72
330
1F
100
AcDbEntity
  8
SLD-0
  6
Continuous
 62
   179
100
AcDbLine
 10
112.57367
 20
222.5416
 30
0.0
 11
116.57364
 21
226.54159
 31
0.0
  0
LINE
  5
73
330
1F
100
AcDbEntity
  8
SLD-0
  6
Continuous
 62
   179
100
AcDbLine
 10
116.57367
 20
226.5416
 30
0.0
 11
133.74634
 21
226.5416
 31
0.0
  0
LINE
  5
74
330
1F
100
AcDbEntity
  8
SLD-0
  6
Continuous
 62
   179
100
AcDbLine
 10
74.69498
 20
87.372902
 30
0.0
 11
74.69498
 21
113.97178
 31
0.0
  0
LINE
  5
75
330
1F
100
AcDbEntity
  8
SLD-0
  6
Continuous
 62
   179
100
AcDbLine
 10
68.19498
 20
77.694099
 30
0.0
 11
68.19498
 21
123.65058
 31
0.0
  0
LINE
  5
76
330
1F
100
AcDbEntity
  8
SLD-0
  6
Continuous
 62
   179
100
AcDbLine
 10
51.19498
 20
77.694099
 30
0.0
 11
51.19498
 21
123.65058
 31
0.0
  0
LINE
  5
77
330
1F
100
AcDbEntity
  8
SLD-0
  6
Continuous
 62
   179
100
AcDbLine
 10
70.69498
 20
93.455673
 30
0.0
 11
70.69498
 21
107.889008
 31
0.0
  0
LINE
  5
78
330
1F
100
AcDbEntity
  8
SLD-0
  6
Continuous
 62
   179
100
AcDbLine
 10
141.07367
 20
220.0416
 30
0.0
 11
141.07367
 21
203.0416
 31
0.0
  0
LINE
  5
79
330
1F
100
AcDbEntity
  8
SLD-0
  6
Continuous
 62
   179
100
AcDbLine
 10
141.07367
 20
76.17234
 30
0.0
 11
141.07367
 21
77.694099
 31
0.0
  0
LINE
  5
7A
330
1F
100
AcDbEntity
  8
SLD-0
  6
Continuous
 62
   179
100
AcDbLine
 10
150.57367
 20
72.67234
 30
0.0
 11
141.07369
 21
76.172327
 31
0.0
  0
LINE
  5
7B
330
1F
100
AcDbEntity
  8
SLD-0
  6
Continuous
 62
   179
100
AcDbLine
 10
114.52624
 20
87.585621
 30
0.0
 11
141.07365
 21
77.694106
 31
0.0
  0
LINE
  5
7C
330
1F
100
AcDbEntity
  8
SLD-0
  6
Continuous
 62
   179
100
AcDbLine
 10
150.57365
 20
128.67232
 30
0.0
 11
141.07366
 21
125.17232
 31
0.0
  0
LINE
  5
7D
330
1F
100
AcDbEntity
  8
SLD-0
  6
Continuous
 62
   179
100
AcDbLine
 10
141.07367
 20
125.17235
 30
0.0
 11
141.07367
 21
123.65058
 31
0.0
  0
LINE
  5
7E
330
1F
100
AcDbEntity
  8
SLD-0
  6
Continuous
 62
   179
100
AcDbLine
 10
114.5262240811
 20
113.7590571654
 30
0.0
 11
141.0736840811
 21
123.6505871654
 31
0.0
  0
LINE
  5
7F
330
1F
100
AcDbEntity
  8
SLD-0
  6
CENTER
 62
   179
100
AcDbLine
 10
122.57367
 20
93.983826
 30
0.0
 11
122.57367
 21
107.636612
 31
0.0
  0
LINE
  5
80
330
1F
100
AcDbEntity
  8
SLD-0
  6
CENTER
 62
   179
100
AcDbLine
 10
122.57367
 20
184.51627
 30
0.0
 11
122.57367
 21
233.70056
 31
0.0
  0
LINE
  5
81
330
1F
100
AcDbEntity
  8
SLD-0
  6
Continuous
 62
   179
100
AcDbLine
 10
134.57367
 20
87.555481
 30
0.0
 11
134.57367
 21
113.93869
 31
0.0
  0
LINE
  5
82
330
1F
100
AcDbEntity
  8
SLD-0
  6
Continuous
 62
   179
100
AcDbLine
 10
117.95487
 20
100.672335
 30
0.0
 11
120.26427
 21
96.672336
 31
0.0
  0
LINE
  5
83
330
1F
100
AcDbEntity
  8
SLD-0
  6
Continuous
 62
   179
100
AcDbLine
 10
120.26427
 20
96.672336
 30
0.0
 11
124.88309
 21
96.67234
 31
0.0
  0
LINE
  5
84
330
1F
100
AcDbEntity
  8
SLD-0
  6
Continuous
 62
   179
100
AcDbLine
 10
127.19248
 20
100.672327
 30
0.0
 11
124.88309
 21
96.672356
 31
0.0
  0
LINE
  5
85
330
1F
100
AcDbEntity
  8
SLD-0
  6
Continuous
 62
   179
100
AcDbLine
 10
124.88307
 20
104.672335
 30
0.0
 11
127.19248
 21
100.672327
 31
0.0
  0
LINE
  5
86
330
1F
100
AcDbEntity
  8
SLD-0
  6
Continuous
 62
   179
100
AcDbLine
 10
120.26428
 20
104.67234
 30
0.0
 11
124.88309
 21
104.67234
 31
0.0
  0
LINE
  5
87
330
1F
100
AcDbEntity
  8
SLD-0
  6
Continuous
 62
   179
100
AcDbLine
 10
117.95489
 20
100.672346
 30
0.0
 11
120.26427
 21
104.672321
 31
0.0
  0
LINE
  5
88
330
1F
100
AcDbEntity
  8
SLD-0
  6
Continuous
 62
   179
100
AcDbLine
 10
120.87366
 20
187.5416
 30
0.0
 11
124.27368
 21
187.5416
 31
0.0
  0
LINE
  5
89
330
1F
100
AcDbEntity
  8
SLD-0
  6
Continuous
 62
   179
100
AcDbLine
 10
118.82089
 20
191.94159
 30
0.0
 11
126.32645
 21
191.94159
 31
0.0
  0
LINE
  5
8A
330
1F
100
AcDbEntity
  8
SLD-0
  6
Continuous
 62
   179
100
AcDbLine
 10
117.95486
 20
192.44159
 30
0.0
 11
117.95486
 21
195.5416
 31
0.0
  0
LINE
  5
8B
330
1F
100
AcDbEntity
  8
SLD-0
  6
Continuous
 62
   179
100
AcDbLine
 10
127.19247
 20
192.44159
 30
0.0
 11
127.19247
 21
195.5416
 31
0.0
  0
LINE
  5
8C
330
1F
100
AcDbEntity
  8
SLD-0
  6
Continuous
 62
   179
100
AcDbLine
 10
120.26428
 20
192.44159
 30
0.0
 11
120.26428
 21
195.5416
 31
0.0
  0
LINE
  5
8D
330
1F
100
AcDbEntity
  8
SLD-0
  6
Continuous
 62
   179
100
AcDbLine
 10
124.88309
 20
192.44159
 30
0.0
 11
124.88309
 21
195.5416
 31
0.0
  0
LINE
  5
8E
330
1F
100
AcDbEntity
  8
SLD-0
  6
Continuous
 62
   179
100
AcDbLine
 10
117.95489
 20
192.44156
 30
0.0
 11
118.82091
 21
191.94156
 31
0.0
  0
LINE
  5
8F
330
1F
100
AcDbEntity
  8
SLD-0
  6
Continuous
 62
   179
100
AcDbLine
 10
127.1925
 20
192.44158
 30
0.0
 11
126.32647
 21
191.94158
 31
0.0
  0
LINE
  5
90
330
1F
100
AcDbEntity
  8
SLD-0
  6
Continuous
 62
   179
100
AcDbLine
 10
41.69498
 20
97.17234
 30
0.0
 11
41.69498
 21
104.17234
 31
0.0
  0
LINE
  5
91
330
1F
100
AcDbEntity
  8
SLD-0
  6
Continuous
 62
   179
100
AcDbLine
 10
44.69498
 20
96.17234
 30
0.0
 11
42.69498
 21
96.17234
 31
0.0
  0
LINE
  5
92
330
1F
100
AcDbEntity
  8
SLD-0
  6
Continuous
 62
   179
100
AcDbLine
 10
44.69498
 20
105.17234
 30
0.0
 11
42.69498
 21
105.17234
 31
0.0
  0
LINE
  5
93
330
1F
100
AcDbEntity
  8
SLD-0
  6
Continuous
 62
   179
100
AcDbLine
 10
42.69498
 20
96.17234
 30
0.0
 11
42.69498
 21
105.17234
 31
0.0
  0
LINE
  5
94
330
1F
100
AcDbEntity
  8
SLD-0
  6
Continuous
 62
   179
100
AcDbLine
 10
42.69491
 20
96.172356
 30
0.0
 11
41.69491
 21
97.172358
 31
0.0
  0
LINE
  5
95
330
1F
100
AcDbEntity
  8
SLD-0
  6
Continuous
 62
   179
100
AcDbLine
 10
42.69494
 20
105.172357
 30
0.0
 11
41.69494
 21
104.172356
 31
0.0
  0
LINE
  5
96
330
1F
100
AcDbEntity
  8
SLD-0
  6
Continuous
 62
   179
100
AcDbLine
 10
83.39499
 20
98.67234
 30
0.0
 11
79.29495
 21
98.67234
 31
0.0
  0
LINE
  5
97
330
1F
100
AcDbEntity
  8
SLD-0
  6
Continuous
 62
   179
100
AcDbLine
 10
83.39499
 20
102.67234
 30
0.0
 11
79.29495
 21
102.67234
 31
0.0
  0
LINE
  5
98
330
1F
100
AcDbEntity
  8
SLD-0
  6
Continuous
 62
   179
100
AcDbLine
 10
83.69498
 20
98.972343
 30
0.0
 11
83.69498
 21
102.372337
 31
0.0
  0
LINE
  5
99
330
1F
100
AcDbEntity
  8
SLD-0
  6
HIDDEN
 62
   179
100
AcDbLine
 10
120.57367
 20
196.5416
 30
0.0
 11
120.57367
 21
203.0416
 31
0.0
  0
LINE
  5
9A
330
1F
100
AcDbEntity
  8
SLD-0
  6
HIDDEN
 62
   179
100
AcDbLine
 10
124.57367
 20
196.5416
 30
0.0
 11
124.57367
 21
203.0416
 31
0.0
  0
LINE
  5
9B
330
1F
100
AcDbEntity
  8
SLD-0
  6
Continuous
 62
   179
100
AcDbLine
 10
79.29495
 20
97.538368
 30
0.0
 11
79.29495
 21
103.806313
 31
0.0
  0
LINE
  5
9C
330
1F
100
AcDbEntity
  8
SLD-0
  6
Continuous
 62
   179
100
AcDbLine
 10
78.79495
 20
104.67234
 30
0.0
 11
75.69498
 21
104.67234
 31
0.0
  0
LINE
  5
9D
330
1F
100
AcDbEntity
  8
SLD-0
  6
Continuous
 62
   179
100
AcDbLine
 10
78.79495
 20
96.67234
 30
0.0
 11
75.69498
 21
96.67234
 31
0.0
  0
LINE
  5
9E
330
1F
100
AcDbEntity
  8
SLD-0
  6
Continuous
 62
   179
100
AcDbLine
 10
78.79495
 20
100.67234
 30
0.0
 11
75.69498
 21
100.67234
 31
0.0
  0
LINE
  5
9F
330
1F
100
AcDbEntity
  8
SLD-0
  6
Continuous
 62
   179
100
AcDbLine
 10
78.79498
 20
96.672336
 30
0.0
 11
79.29498
 21
97.538362
 31
0.0
  0
LINE
  5
A0
330
1F
100
AcDbEntity
  8
SLD-0
  6
Continuous
 62
   179
100
AcDbLine
 10
78.79497
 20
104.672343
 30
0.0
 11
79.29497
 21
103.806318
 31
0.0
  0
LINE
  5
A1
330
1F
100
AcDbEntity
  8
SLD-0
  6
Continuous
 62
   179
100
AcDbLine
 10
68.19498
 20
98.67234
 30
0.0
 11
51.19498
 21
98.67234
 31
0.0
  0
LINE
  5
A2
330
1F
100
AcDbEntity
  8
SLD-0
  6
Continuous
 62
   179
100
AcDbLine
 10
68.19498
 20
102.67234
 30
0.0
 11
51.19498
 21
102.67234
 31
0.0
  0
LINE
  5
A3
330
1F
100
AcDbEntity
  8
SLD-0
  6
CENTER
 62
   179
100
AcDbLine
 10
78.79495
 20
100.67234
 30
0.0
 11
90.69498
 21
100.67234
 31
0.0
  0
LINE
  5
A4
330
1F
100
AcDbEntity
  8
SLD-0
  6
Continuous
 62
   179
100
AcDbLine
 10
48.69498
 20
93.455673
 30
0.0
 11
48.69498
 21
107.889008
 31
0.0
  0
LINE
  5
A5
330
1F
100
AcDbEntity
  8
SLD-0
  6
Continuous
 62
   179
100
AcDbLine
 10
44.69498
 20
87.372902
 30
0.0
 11
44.69498
 21
113.97178
 31
0.0
  0
LINE
  5
A6
330
1F
100
AcDbEntity
  8
SLD-0
  6
Continuous
 62
   179
100
AcDbLine
 10
262.57367
 20
73.11729
 30
0.0
 11
262.57367
 21
93.70047
 31
0.0
  0
LINE
  5
A7
330
1F
100
AcDbEntity
  8
SLD-0
  6
Continuous
 62
   179
100
AcDbLine
 10
276.07367
 20
95.70047
 30
0.0
 11
276.07367
 21
128.67235
 31
0.0
  0
LINE
  5
A8
330
1F
100
AcDbEntity
  8
SLD-0
  6
HIDDEN
 62
   179
100
AcDbLine
 10
120.57367
 20
197.5416
 30
0.0
 11
124.57367
 21
197.5416
 31
0.0
  0
LINE
  5
A9
330
1F
100
AcDbEntity
  8
SLD-0
  6
Continuous
 62
   179
100
AcDbLine
 10
124.57367
 20
203.0416
 30
0.0
 11
124.57367
 21
220.0416
 31
0.0
  0
LINE
  5
AA
330
1F
100
AcDbEntity
  8
SLD-0
  6
HIDDEN
 62
   179
100
AcDbLine
 10
124.57367
 20
220.0416
 30
0.0
 11
124.57367
 21
226.5416
 31
0.0
  0
LINE
  5
AB
330
1F
100
AcDbEntity
  8
SLD-0
  6
HIDDEN
 62
   179
100
AcDbLine
 10
120.57367
 20
220.0416
 30
0.0
 11
120.57367
 21
226.5416
 31
0.0
  0
LINE
  5
AC
330
1F
100
AcDbEntity
  8
SLD-0
  6
Continuous
 62
   179
100
AcDbLine
 10
120.57367
 20
203.0416
 30
0.0
 11
120.57367
 21
220.0416
 31
0.0
  0
LINE
  5
AD
330
1F
100
AcDbEntity
  8
SLD-0
  6
Continuous
 62
   179
100
AcDbLine
 10
117.57367
 20
195.5416
 30
0.0
 11
127.57367
 21
195.5416
 31
0.0
  0
LINE
  5
AE
330
1F
100
AcDbEntity
  8
SLD-0
  6
Continuous
 62
   179
100
AcDbLine
 10
120.87366
 20
187.5416
 30
0.0
 11
120.87366
 21
191.94159
 31
0.0
  0
LINE
  5
AF
330
1F
100
AcDbEntity
  8
SLD-0
  6
Continuous
 62
   179
100
AcDbLine
 10
124.27368
 20
187.5416
 30
0.0
 11
124.27368
 21
191.94159
 31
0.0
  0
LINE
  5
B0
330
1F
100
AcDbEntity
  8
SLD-0
  6
Continuous
 62
   179
100
AcDbLine
 10
120.57365
 20
187.84161
 30
0.0
 11
120.87367
 21
187.54159
 31
0.0
  0
LINE
  5
B1
330
1F
100
AcDbEntity
  8
SLD-0
  6
Continuous
 62
   179
100
AcDbLine
 10
124.27367
 20
187.54159
 30
0.0
 11
124.57366
 21
187.84159
 31
0.0
  0
LINE
  5
B2
330
1F
100
AcDbEntity
  8
SLD-0
  6
Continuous
 62
   179
100
AcDbLine
 10
120.57367
 20
187.8416
 30
0.0
 11
124.57367
 21
187.8416
 31
0.0
  0
LINE
  5
B3
330
1F
100
AcDbEntity
  8
SLD-0
  6
Continuous
 62
   179
100
AcDbLine
 10
127.57367
 20
195.5416
 30
0.0
 11
127.57367
 21
196.5416
 31
0.0
  0
LINE
  5
B4
330
1F
100
AcDbEntity
  8
SLD-0
  6
Continuous
 62
   179
100
AcDbLine
 10
117.57367
 20
195.5416
 30
0.0
 11
117.57367
 21
196.5416
 31
0.0
  0
LINE
  5
B5
330
1F
100
AcDbEntity
  8
SLD-0
  6
Continuous
 62
   179
100
AcDbLine
 10
83.69498
 20
98.972343
 30
0.0
 11
79.29495
 21
98.972343
 31
0.0
  0
LINE
  5
B6
330
1F
100
AcDbEntity
  8
SLD-0
  6
Continuous
 62
   179
100
AcDbLine
 10
83.69498
 20
102.372337
 30
0.0
 11
79.29495
 21
102.372337
 31
0.0
  0
LINE
  5
B7
330
1F
100
AcDbEntity
  8
SLD-0
  6
Continuous
 62
   179
100
AcDbLine
 10
83.39497
 20
98.672327
 30
0.0
 11
83.69498
 21
98.972343
 31
0.0
  0
LINE
  5
B8
330
1F
100
AcDbEntity
  8
SLD-0
  6
Continuous
 62
   179
100
AcDbLine
 10
83.69499
 20
102.372327
 30
0.0
 11
83.39499
 21
102.672323
 31
0.0
  0
LINE
  5
B9
330
1F
100
AcDbEntity
  8
SLD-0
  6
Continuous
 62
   179
100
AcDbLine
 10
83.39499
 20
102.67234
 30
0.0
 11
83.39499
 21
98.67234
 31
0.0
  0
LINE
  5
BA
330
1F
100
AcDbEntity
  8
SLD-0
  6
Continuous
 62
   179
100
AcDbLine
 10
75.69498
 20
95.67234
 30
0.0
 11
75.69498
 21
105.67234
 31
0.0
  0
LINE
  5
BB
330
1F
100
AcDbEntity
  8
SLD-0
  6
Continuous
 62
   179
100
AcDbLine
 10
75.69498
 20
105.67234
 30
0.0
 11
74.69498
 21
105.67234
 31
0.0
  0
LINE
  5
BC
330
1F
100
AcDbEntity
  8
SLD-0
  6
Continuous
 62
   179
100
AcDbLine
 10
75.69498
 20
95.67234
 30
0.0
 11
74.69498
 21
95.67234
 31
0.0
  0
LINE
  5
BD
330
1F
100
AcDbEntity
  8
SLD-0
  6
Continuous
 62
   179
100
AcDbLine
 10
262.57367
 20
73.11729
 30
0.0
 11
276.07367
 21
73.11729
 31
0.0
  0
LINE
  5
BE
330
1F
100
AcDbEntity
  8
SLD-0
  6
Continuous
 62
   179
100
AcDbLine
 10
264.57367
 20
95.70047
 30
0.0
 11
276.07367
 21
95.70047
 31
0.0
  0
LINE
  5
BF
330
1F
100
AcDbEntity
  8
SLD-0
  6
Continuous
 62
   179
100
AcDbLine
 10
276.07367
 20
95.70047
 30
0.0
 11
277.57367
 21
93.716141
 31
0.0
  0
LINE
  5
C0
330
1F
100
AcDbEntity
  8
SLD-0
  6
Continuous
 62
   179
100
AcDbLine
 10
276.07367
 20
73.11729
 30
0.0
 11
277.57368
 21
75.101626
 31
0.0
  0
LINE
  5
C1
330
1F
100
AcDbEntity
  8
SLD-0
  6
Continuous
 62
   179
100
AcDbLine
 10
264.57367
 20
74.651024
 30
0.0
 11
264.57367
 21
93.70047
 31
0.0
  0
LINE
  5
C2
330
1F
100
AcDbEntity
  8
SLD-0
  6
Continuous
 62
   179
100
AcDbLine
 10
264.57366
 20
73.11729
 30
0.0
 11
276.9252
 21
94.57398
 31
0.0
  0
LINE
  5
C3
330
1F
100
AcDbEntity
  8
SLD-0
  6
Continuous
 62
   179
100
AcDbLine
 10
264.57367
 20
95.70047
 30
0.0
 11
276.92521
 21
74.243783
 31
0.0
  0
LINE
  5
C4
330
1F
100
AcDbEntity
  8
SLD-0
  6
CENTER
 62
   179
100
AcDbLine
 10
267.57367
 20
121.26803
 30
0.0
 11
267.57367
 21
127.9238
 31
0.0
  0
LINE
  5
C5
330
1F
100
AcDbEntity
  8
SLD-0
  6
CENTER
 62
   179
100
AcDbLine
 10
262.05209
 20
124.92104
 30
0.0
 11
273.57724
 21
124.92104
 31
0.0
  0
LINE
  5
C6
330
1F
100
AcDbEntity
  8
SLD-0
  6
CENTER
 62
   179
100
AcDbLine
 10
326.618807
 20
114.19505
 30
0.0
 11
318.926149
 21
127.51912
 31
0.0
  0
LINE
  5
C7
330
1F
100
AcDbEntity
  8
SLD-0
  6
CENTER
 62
   179
100
AcDbLine
 10
303.426163
 20
100.67234
 30
0.0
 11
365.426159
 21
100.67234
 31
0.0
  0
LINE
  5
C8
330
1F
100
AcDbEntity
  8
SLD-0
  6
CENTER
 62
   179
100
AcDbLine
 10
334.426163
 20
69.67234
 30
0.0
 11
334.426163
 21
131.67233
 31
0.0
  0
LINE
  5
C9
330
1F
100
AcDbEntity
  8
SLD-0
  6
CENTER
 62
   179
100
AcDbLine
 10
314.426163
 20
105.67234
 30
0.0
 11
314.426163
 21
95.67234
 31
0.0
  0
LINE
  5
CA
330
1F
100
AcDbEntity
  8
SLD-0
  6
CENTER
 62
   179
100
AcDbLine
 10
354.426159
 20
105.67234
 30
0.0
 11
354.426159
 21
95.67234
 31
0.0
  0
LINE
  5
CB
330
1F
100
AcDbEntity
  8
SLD-0
  6
Continuous
 62
   179
100
AcDbLine
 10
277.57367
 20
185.0416
 30
0.0
 11
276.07367
 21
183.5416
 31
0.0
  0
LINE
  5
CC
330
1F
100
AcDbEntity
  8
SLD-0
  6
Continuous
 62
   179
100
AcDbLine
 10
262.57367
 20
239.09665
 30
0.0
 11
262.57367
 21
218.51346
 31
0.0
  0
LINE
  5
CD
330
1F
100
AcDbEntity
  8
SLD-0
  6
Continuous
 62
   179
100
AcDbLine
 10
264.57367
 20
216.51346
 30
0.0
 11
276.07367
 21
216.51346
 31
0.0
  0
LINE
  5
CE
330
1F
100
AcDbEntity
  8
SLD-0
  6
Continuous
 62
   179
100
AcDbLine
 10
276.07367
 20
216.51346
 30
0.0
 11
277.57366
 21
218.4978
 31
0.0
  0
LINE
  5
CF
330
1F
100
AcDbEntity
  8
SLD-0
  6
Continuous
 62
   179
100
AcDbLine
 10
264.57368
 20
239.09665
 30
0.0
 11
276.92521
 21
217.63996
 31
0.0
  0
LINE
  5
D0
330
1F
100
AcDbEntity
  8
SLD-0
  6
Continuous
 62
   179
100
AcDbLine
 10
262.57367
 20
239.09665
 30
0.0
 11
276.07367
 21
239.09665
 31
0.0
  0
LINE
  5
D1
330
1F
100
AcDbEntity
  8
SLD-0
  6
Continuous
 62
   179
100
AcDbLine
 10
264.57367
 20
237.56291
 30
0.0
 11
264.57367
 21
218.51346
 31
0.0
  0
LINE
  5
D2
330
1F
100
AcDbEntity
  8
SLD-0
  6
Continuous
 62
   179
100
AcDbLine
 10
276.07367
 20
239.5416
 30
0.0
 11
276.07367
 21
239.09665
 31
0.0
  0
LINE
  5
D3
330
1F
100
AcDbEntity
  8
SLD-0
  6
Continuous
 62
   179
100
AcDbLine
 10
276.07367
 20
239.09664
 30
0.0
 11
277.57367
 21
237.1123
 31
0.0
  0
LINE
  5
D4
330
1F
100
AcDbEntity
  8
SLD-0
  6
Continuous
 62
   179
100
AcDbLine
 10
264.57367
 20
216.51345
 30
0.0
 11
276.92521
 21
237.97015
 31
0.0
  0
LINE
  5
D5
330
1F
100
AcDbEntity
  8
SLD-0
  6
Continuous
 62
   179
100
AcDbLine
 10
276.07367
 20
239.5416
 30
0.0
 11
277.57367
 21
238.0416
 31
0.0
  0
LINE
  5
D6
330
1F
100
AcDbEntity
  8
SLD-0
  6
Continuous
 62
   179
100
AcDbLine
 10
276.07367
 20
216.51346
 30
0.0
 11
276.07367
 21
183.5416
 31
0.0
  0
LINE
  5
D7
330
1F
100
AcDbEntity
  8
SLD-0
  6
CENTER
 62
   179
100
AcDbLine
 10
267.57367
 20
202.99034
 30
0.0
 11
267.57367
 21
192.31001
 31
0.0
  0
LINE
  5
D8
330
1F
100
AcDbEntity
  8
SLD-0
  6
CENTER
 62
   179
100
AcDbLine
 10
261.8909
 20
197.54158
 30
0.0
 11
273.74733
 21
197.54158
 31
0.0
  0
LINE
  5
D9
330
1F
100
AcDbEntity
  8
SLD-0
  6
Continuous
 62
   179
100
AcDbLine
 10
306.871111
 20
95.700476
 30
0.0
 11
329.45429
 21
73.117296
 31
0.0
  0
LINE
  5
DA
330
1F
100
AcDbEntity
  8
SLD-0
  6
Continuous
 62
   179
100
AcDbLine
 10
339.398021
 20
128.22739
 30
0.0
 11
361.981201
 21
105.644207
 31
0.0
  0
LINE
  5
DB
330
1F
100
AcDbEntity
  8
SLD-0
  6
Continuous
 62
   179
100
AcDbLine
 10
270.52367
 20
124.92103
 30
0.0
 11
269.04861
 21
126.06345
 31
0.0
  0
LINE
  5
DC
330
1F
100
AcDbEntity
  8
SLD-0
  6
Continuous
 62
   179
100
AcDbLine
 10
269.04861
 20
126.06345
 30
0.0
 11
266.09862
 21
126.06345
 31
0.0
  0
LINE
  5
DD
330
1F
100
AcDbEntity
  8
SLD-0
  6
Continuous
 62
   179
100
AcDbLine
 10
264.62367
 20
124.92104
 30
0.0
 11
266.09861
 21
126.06345
 31
0.0
  0
LINE
  5
DE
330
1F
100
AcDbEntity
  8
SLD-0
  6
Continuous
 62
   179
100
AcDbLine
 10
266.09881
 20
123.50865
 30
0.0
 11
264.62367
 21
124.92104
 31
0.0
  0
LINE
  5
DF
330
1F
100
AcDbEntity
  8
SLD-0
  6
Continuous
 62
   179
100
AcDbLine
 10
269.04881
 20
123.50866
 30
0.0
 11
266.09882
 21
123.50866
 31
0.0
  0
LINE
  5
E0
330
1F
100
AcDbEntity
  8
SLD-0
  6
Continuous
 62
   179
100
AcDbLine
 10
270.52366
 20
124.92105
 30
0.0
 11
269.0488
 21
123.50866
 31
0.0
  0
LINE
  5
E1
330
1F
100
AcDbEntity
  8
SLD-0
  6
Continuous
 62
   179
100
AcDbLine
 10
270.52366
 20
197.54158
 30
0.0
 11
269.04854
 21
199.83194
 31
0.0
  0
LINE
  5
E2
330
1F
100
AcDbEntity
  8
SLD-0
  6
Continuous
 62
   179
100
AcDbLine
 10
269.04854
 20
199.83194
 30
0.0
 11
266.09854
 21
199.83194
 31
0.0
  0
LINE
  5
E3
330
1F
100
AcDbEntity
  8
SLD-0
  6
Continuous
 62
   179
100
AcDbLine
 10
264.62367
 20
197.54158
 30
0.0
 11
266.09854
 21
199.83194
 31
0.0
  0
LINE
  5
E4
330
1F
100
AcDbEntity
  8
SLD-0
  6
Continuous
 62
   179
100
AcDbLine
 10
266.09868
 20
195.407
 30
0.0
 11
264.62367
 21
197.54158
 31
0.0
  0
LINE
  5
E5
330
1F
100
AcDbEntity
  8
SLD-0
  6
Continuous
 62
   179
100
AcDbLine
 10
269.04868
 20
195.407
 30
0.0
 11
266.09868
 21
195.407
 31
0.0
  0
LINE
  5
E6
330
1F
100
AcDbEntity
  8
SLD-0
  6
Continuous
 62
   179
100
AcDbLine
 10
270.52366
 20
197.54158
 30
0.0
 11
269.04868
 21
195.407
 31
0.0
  0
LINE
  5
E7
330
1F
100
AcDbEntity
  8
SLD-0
  6
Continuous
 62
   179
100
AcDbLine
 10
17.07501
 20
12.0
 30
0.0
 11
402.875
 21
12.0
 31
0.0
  0
LINE
  5
E8
330
1F
100
AcDbEntity
  8
SLD-0
  6
Continuous
 62
   179
100
AcDbLine
 10
402.875
 20
285.0
 30
0.0
 11
402.875
 21
12.0
 31
0.0
  0
LINE
  5
E9
330
1F
100
AcDbEntity
  8
SLD-0
  6
Continuous
 62
   179
100
AcDbLine
 10
17.07501
 20
285.0
 30
0.0
 11
17.07501
 21
12.0
 31
0.0
  0
LINE
  5
EA
330
1F
100
AcDbEntity
  8
SLD-0
  6
Continuous
 62
   179
100
AcDbLine
 10
17.07501
 20
285.0
 30
0.0
 11
402.875
 21
285.0
 31
0.0
  0
LINE
  5
EB
330
1F
100
AcDbEntity
  8
SLD-0
  6
Continuous
 62
   179
100
AcDbLine
 10
334.375
 20
50.5
 30
0.0
 11
334.375
 21
12.0
 31
0.0
  0
LINE
  5
EC
330
1F
100
AcDbEntity
  8
SLD-0
  6
Continuous
 62
   179
100
AcDbLine
 10
334.375
 20
24.5
 30
0.0
 11
402.875
 21
24.5
 31
0.0
  0
LINE
  5
ED
330
1F
100
AcDbEntity
  8
SLD-0
  6
Continuous
 62
   179
100
AcDbLine
 10
334.375
 20
37.0
 30
0.0
 11
402.875
 21
37.0
 31
0.0
  0
LINE
  5
EE
330
1F
100
AcDbEntity
  8
SLD-0
  6
Continuous
 62
   179
100
AcDbLine
 10
334.375
 20
50.5
 30
0.0
 11
402.875
 21
50.5
 31
0.0
  0
CIRCLE
  5
EF
330
1F
100
AcDbEntity
  8
SLD-0
  6
Continuous
 62
   179
100
AcDbCircle
 10
59.69498
 20
100.67234
 30
0.0
 40
28.0
  0
ARC
  5
F0
330
1F
100
AcDbEntity
  8
SLD-0
  6
Continuous
 62
   179
100
AcDbCircle
 10
131.7658704612
 20
176.7396746112
 30
0.0
 40
20.0
100
AcDbArc
 50
19.882734
 51
78.57718
  0
ARC
  5
F1
330
1F
100
AcDbEntity
  8
SLD-0
  6
Continuous
 62
   179
100
AcDbCircle
 10
133.74634
 20
186.5416023286
 30
0.0
 40
9.999997671359239
100
AcDbArc
 50
78.5771307011
 51
90.0
  0
ARC
  5
F2
330
1F
100
AcDbEntity
  8
SLD-0
  6
Continuous
 62
   179
100
AcDbCircle
 10
131.76587
 20
246.34351
 30
0.0
 40
20.00000000000001
100
AcDbArc
 50
281.42282
 51
340.11726
  0
ARC
  5
F3
330
1F
100
AcDbEntity
  8
SLD-0
  6
Continuous
 62
   179
100
AcDbCircle
 10
133.74634
 20
236.5416
 30
0.0
 40
10.0
100
AcDbArc
 50
270.0
 51
281.42281
  0
ARC
  5
F4
330
1F
100
AcDbEntity
  8
SLD-0
  6
Continuous
 62
   179
100
AcDbCircle
 10
59.69498
 20
100.67234
 30
0.0
 40
24.49999999999999
100
AcDbArc
 50
69.699806
 51
110.30019
  0
ARC
  5
F5
330
1F
100
AcDbEntity
  8
SLD-0
  6
Continuous
 62
   179
100
AcDbCircle
 10
59.69498
 20
100.67234
 30
0.0
 40
24.49999100926532
100
AcDbArc
 50
249.6998013803
 51
290.3001986197
  0
ARC
  5
F6
330
1F
100
AcDbEntity
  8
SLD-0
  6
Continuous
 62
   179
100
AcDbCircle
 10
59.69498
 20
100.67234
 30
0.0
 40
22.00000000000002
100
AcDbArc
 50
247.27158
 51
292.72843
  0
ARC
  5
F7
330
1F
100
AcDbEntity
  8
SLD-0
  6
Continuous
 62
   179
100
AcDbCircle
 10
59.69498
 20
100.67234
 30
0.0
 40
22.0
100
AcDbArc
 50
67.271578
 51
112.72842
  0
ARC
  5
F8
330
1F
100
AcDbEntity
  8
SLD-0
  6
Continuous
 62
   179
100
AcDbCircle
 10
59.69498
 20
100.67234
 30
0.0
 40
15.00000000000001
100
AcDbArc
 50
304.5181
 51
55.48189
  0
ARC
  5
F9
330
1F
100
AcDbEntity
  8
SLD-0
  6
Continuous
 62
   179
100
AcDbCircle
 10
59.69498
 20
100.67234
 30
0.0
 40
15.00000000000003
100
AcDbArc
 50
124.51811
 51
235.48189
  0
ARC
  5
FA
330
1F
100
AcDbEntity
  8
SLD-0
  6
Continuous
 62
   179
100
AcDbCircle
 10
115.57367
 20
90.396828
 30
0.0
 40
2.999999999999996
100
AcDbArc
 50
180.0
 51
249.56471
  0
ARC
  5
FB
330
1F
100
AcDbEntity
  8
SLD-0
  6
Continuous
 62
   179
100
AcDbCircle
 10
115.5736730249
 20
110.947853
 30
0.0
 40
3.000003024942707
100
AcDbArc
 50
110.4352910842
 51
180.0
  0
CIRCLE
  5
FC
330
1F
100
AcDbEntity
  8
SLD-0
  6
Continuous
 62
   179
100
AcDbCircle
 10
122.57367
 20
100.67234
 30
0.0
 40
4.0
  0
ARC
  5
FD
330
1F
100
AcDbEntity
  8
SLD-0
  6
Continuous
 62
   179
100
AcDbCircle
 10
122.57367
 20
100.67234
 30
0.0
 40
5.499999999999993
100
AcDbArc
 50
140.35735
 51
219.64264
  0
ARC
  5
FE
330
1F
100
AcDbEntity
  8
SLD-0
  6
Continuous
 62
   179
100
AcDbCircle
 10
147.79854
 20
121.57182
 30
0.0
 40
38.25792300000001
100
AcDbArc
 50
219.64265
 51
254.79641
  0
ARC
  5
FF
330
1F
100
AcDbEntity
  8
SLD-0
  6
Continuous
 62
   179
100
AcDbCircle
 10
128.51117
 20
100.67234
 30
0.0
 40
22.0625
100
AcDbArc
 50
323.83008
 51
36.169919
  0
ARC
  5
100
330
1F
100
AcDbEntity
  8
SLD-0
  6
Continuous
 62
   179
100
AcDbCircle
 10
139.8634015666
 20
92.3729008547
 30
0.0
 40
8.000001940648327
100
AcDbArc
 50
254.79641
 51
323.8301404566
  0
ARC
  5
101
330
1F
100
AcDbEntity
  8
SLD-0
  6
Continuous
 62
   179
100
AcDbCircle
 10
147.7985364592
 20
79.7728679337
 30
0.0
 40
38.25792759826553
100
AcDbArc
 50
105.20359
 51
140.3573491986
  0
ARC
  5
102
330
1F
100
AcDbEntity
  8
SLD-0
  6
Continuous
 62
   179
100
AcDbCircle
 10
139.8634013284
 20
108.9717799712
 30
0.0
 40
8.000001645558008
100
AcDbArc
 50
36.169851004
 51
105.20359
  0
CIRCLE
  5
103
330
1F
100
AcDbEntity
  8
SLD-0
  6
Continuous
 62
   179
100
AcDbCircle
 10
122.57367
 20
100.67234
 30
0.0
 40
2.5
  0
ARC
  5
104
330
1F
100
AcDbEntity
  8
SLD-0
  6
Continuous
 62
   179
100
AcDbCircle
 10
122.57367
 20
197.5249
 30
0.0
 40
5.583333500000006
100
AcDbArc
 50
245.5673
 51
294.4327
  0
ARC
  5
105
330
1F
100
AcDbEntity
  8
SLD-0
  6
Continuous
 62
   179
100
AcDbCircle
 10
119.10959
 20
193.5249
 30
0.0
 40
1.583333400000002
100
AcDbArc
 50
270.0
 51
316.82645
  0
ARC
  5
106
330
1F
100
AcDbEntity
  8
SLD-0
  6
Continuous
 62
   179
100
AcDbCircle
 10
126.0377778531
 20
193.5248979858
 30
0.0
 40
1.583336343849554
100
AcDbArc
 50
223.1733518444
 51
270.0
  0
ARC
  5
107
330
1F
100
AcDbEntity
  8
SLD-0
  6
Continuous
 62
   179
100
AcDbCircle
 10
75.04495
 20
98.67234
 30
0.0
 40
4.250000000000007
100
AcDbArc
 50
0.0
 51
28.0724869359
  0
ARC
  5
108
330
1F
100
AcDbEntity
  8
SLD-0
  6
Continuous
 62
   179
100
AcDbCircle
 10
75.04495
 20
102.67234
 30
0.0
 40
4.25
100
AcDbArc
 50
331.9275130641
 51
0.0
  0
ARC
  5
109
330
1F
100
AcDbEntity
  8
SLD-0
  6
Continuous
 62
   179
100
AcDbCircle
 10
71.69498
 20
93.455673
 30
0.0
 40
1.000000000000016
100
AcDbArc
 50
180.0
 51
330.13717
  0
ARC
  5
10A
330
1F
100
AcDbEntity
  8
SLD-0
  6
Continuous
 62
   179
100
AcDbCircle
 10
71.69498
 20
107.889008
 30
0.0
 40
1.000000000000016
100
AcDbArc
 50
29.862834
 51
180.0
  0
ARC
  5
10B
330
1F
100
AcDbEntity
  8
SLD-0
  6
Continuous
 62
   179
100
AcDbCircle
 10
47.69498
 20
93.455673
 30
0.0
 40
0.9999999999999982
100
AcDbArc
 50
209.86284
 51
0.0
  0
ARC
  5
10C
330
1F
100
AcDbEntity
  8
SLD-0
  6
Continuous
 62
   179
100
AcDbCircle
 10
47.69498
 20
107.889008
 30
0.0
 40
0.9999999999999982
100
AcDbArc
 50
0.0
 51
150.13716
  0
ARC
  5
10D
330
1F
100
AcDbEntity
  8
SLD-0
  6
Continuous
 62
   179
100
AcDbCircle
 10
95.99243
 20
100.67234
 30
0.0
 40
20.58124900000001
100
AcDbArc
 50
339.11968
 51
20.880322
  0
ARC
  5
10E
330
1F
100
AcDbEntity
  8
SLD-0
  6
Continuous
 62
   179
100
AcDbCircle
 10
113.9428132848
 20
93.824812747
 30
0.0
 40
1.369146315694082
100
AcDbArc
 50
180.0
 51
339.119921294
  0
ARC
  5
10F
330
1F
100
AcDbEntity
  8
SLD-0
  6
Continuous
 62
   179
100
AcDbCircle
 10
113.9428131183
 20
107.5198681895
 30
0.0
 40
1.369146137485977
100
AcDbArc
 50
20.8800696707
 51
180.0
  0
ARC
  5
110
330
1F
100
AcDbEntity
  8
SLD-0
  6
Continuous
 62
   179
100
AcDbCircle
 10
77.69498
 20
87.372902
 30
0.0
 40
3.000000000000003
100
AcDbArc
 50
180.0
 51
299.32263
  0
ARC
  5
111
330
1F
100
AcDbEntity
  8
SLD-0
  6
Continuous
 62
   179
100
AcDbCircle
 10
77.69498
 20
113.97178
 30
0.0
 40
3.000000000000001
100
AcDbArc
 50
60.677372
 51
180.0
  0
ARC
  5
112
330
1F
100
AcDbEntity
  8
SLD-0
  6
Continuous
 62
   179
100
AcDbCircle
 10
68.58401
 20
100.67234
 30
0.0
 40
19.11095400000001
100
AcDbArc
 50
303.61546
 51
56.38454
  0
ARC
  5
113
330
1F
100
AcDbEntity
  8
SLD-0
  6
Continuous
 62
   179
100
AcDbCircle
 10
41.69498
 20
87.372902
 30
0.0
 40
3.0
100
AcDbArc
 50
240.67737
 51
0.0
  0
ARC
  5
114
330
1F
100
AcDbEntity
  8
SLD-0
  6
Continuous
 62
   179
100
AcDbCircle
 10
50.80591
 20
100.67234
 30
0.0
 40
19.11095400000001
100
AcDbArc
 50
123.61545
 51
236.38454
  0
ARC
  5
115
330
1F
100
AcDbEntity
  8
SLD-0
  6
Continuous
 62
   179
100
AcDbCircle
 10
41.69498
 20
113.97178
 30
0.0
 40
3.0
100
AcDbArc
 50
0.0
 51
119.32263
  0
ARC
  5
116
330
1F
100
AcDbEntity
  8
SLD-0
  6
Continuous
 62
   179
100
AcDbCircle
 10
264.57367
 20
93.70047
 30
0.0
 40
2.0
100
AcDbArc
 50
90.0
 51
180.0
  0
CIRCLE
  5
117
330
1F
100
AcDbEntity
  8
SLD-0
  6
Continuous
 62
   179
100
AcDbCircle
 10
314.426163
 20
100.67234
 30
0.0
 40
2.5
  0
CIRCLE
  5
118
330
1F
100
AcDbEntity
  8
SLD-0
  6
Continuous
 62
   179
100
AcDbCircle
 10
314.426163
 20
100.67234
 30
0.0
 40
3.0
  0
CIRCLE
  5
119
330
1F
100
AcDbEntity
  8
SLD-0
  6
Continuous
 62
   179
100
AcDbCircle
 10
334.426163
 20
100.67234
 30
0.0
 40
4.863999800000045
  0
CIRCLE
  5
11A
330
1F
100
AcDbEntity
  8
SLD-0
  6
Continuous
 62
   179
100
AcDbCircle
 10
334.426163
 20
100.67234
 30
0.0
 40
4.283000000000016
  0
CIRCLE
  5
11B
330
1F
100
AcDbEntity
  8
SLD-0
  6
Continuous
 62
   179
100
AcDbCircle
 10
334.426163
 20
100.67234
 30
0.0
 40
28.00000000000006
  0
ARC
  5
11C
330
1F
100
AcDbEntity
  8
SLD-0
  6
Continuous
 62
   179
100
AcDbCircle
 10
334.426163
 20
100.67234
 30
0.0
 40
26.49999999999998
100
AcDbArc
 50
135.0
 51
195.21835
  0
ARC
  5
11D
330
1F
100
AcDbEntity
  8
SLD-0
  6
Continuous
 62
   179
100
AcDbCircle
 10
334.426163
 20
100.67234
 30
0.0
 40
26.50000000000003
100
AcDbArc
 50
254.78165
 51
15.218343
  0
ARC
  5
11E
330
1F
100
AcDbEntity
  8
SLD-0
  6
Continuous
 62
   179
100
AcDbCircle
 10
334.426163
 20
100.67234
 30
0.0
 40
26.5
100
AcDbArc
 50
74.781658
 51
135.0
  0
CIRCLE
  5
11F
330
1F
100
AcDbEntity
  8
SLD-0
  6
Continuous
 62
   179
100
AcDbCircle
 10
354.426159
 20
100.67234
 30
0.0
 40
2.5
  0
CIRCLE
  5
120
330
1F
100
AcDbEntity
  8
SLD-0
  6
Continuous
 62
   179
100
AcDbCircle
 10
354.426159
 20
100.67234
 30
0.0
 40
3.0
  0
ARC
  5
121
330
1F
100
AcDbEntity
  8
SLD-0
  6
Continuous
 62
   179
100
AcDbCircle
 10
264.57367
 20
218.51346
 30
0.0
 40
2.0
100
AcDbArc
 50
180.0
 51
270.0
  0
ARC
  5
122
330
1F
100
AcDbEntity
  8
SLD-0
  6
Continuous
 62
   179
100
AcDbCircle
 10
265.4093102062
 20
125.036342438
 30
0.0
 40
2.374985501401872
100
AcDbArc
 50
190.4437134099
 51
212.9437133288
  0
ARC
  5
123
330
1F
100
AcDbEntity
  8
SLD-0
  6
Continuous
 62
   179
100
AcDbCircle
 10
265.7388032379
 20
125.831849573
 30
0.0
 40
3.122540153450587
100
AcDbArc
 50
221.9425544941
 51
244.442554413
  0
ARC
  5
124
330
1F
100
AcDbEntity
  8
SLD-0
  6
Continuous
 62
   179
100
AcDbCircle
 10
266.3476572865
 20
126.4406764758
 30
0.0
 40
3.944890820416172
100
AcDbArc
 50
240.2759707239
 51
262.7759706428
  0
ARC
  5
125
330
1F
100
AcDbEntity
  8
SLD-0
  6
Continuous
 62
   179
100
AcDbCircle
 10
267.143146219
 20
126.7702054123
 30
0.0
 40
4.435319718664105
100
AcDbArc
 50
253.0703080183
 51
275.5703079372
  0
ARC
  5
126
330
1F
100
AcDbEntity
  8
SLD-0
  6
Continuous
 62
   179
100
AcDbCircle
 10
268.004188781
 20
126.7701802756
 30
0.0
 40
4.435294215331227
100
AcDbArc
 50
264.4297248289
 51
286.9297247478
  0
ARC
  5
127
330
1F
100
AcDbEntity
  8
SLD-0
  6
Continuous
 62
   179
100
AcDbCircle
 10
268.7996777135
 20
126.4407016125
 30
0.0
 40
3.944915128841954
100
AcDbArc
 50
277.2239114048
 51
299.7239113237
  0
ARC
  5
128
330
1F
100
AcDbEntity
  8
SLD-0
  6
Continuous
 62
   179
100
AcDbCircle
 10
269.4085367621
 20
125.831849573
 30
0.0
 40
3.122540153450385
100
AcDbArc
 50
295.557445587
 51
318.057445506
  0
ARC
  5
129
330
1F
100
AcDbEntity
  8
SLD-0
  6
Continuous
 62
   179
100
AcDbCircle
 10
269.7380297938
 20
125.036342438
 30
0.0
 40
2.374985501401872
100
AcDbArc
 50
327.0562866712
 51
349.5562865901
  0
ARC
  5
12A
330
1F
100
AcDbEntity
  8
SLD-0
  6
Continuous
 62
   179
100
AcDbCircle
 10
269.7380297938
 20
124.175317562
 30
0.0
 40
2.37498550140188
100
AcDbArc
 50
10.4437134099
 51
32.9437133288
  0
ARC
  5
12B
330
1F
100
AcDbEntity
  8
SLD-0
  6
Continuous
 62
   179
100
AcDbCircle
 10
269.4085367621
 20
123.379810427
 30
0.0
 40
3.122540153450437
100
AcDbArc
 50
41.942554494
 51
64.442554413
  0
ARC
  5
12C
330
1F
100
AcDbEntity
  8
SLD-0
  6
Continuous
 62
   179
100
AcDbCircle
 10
268.7996777135
 20
122.7709583875
 30
0.0
 40
3.944915128841947
100
AcDbArc
 50
60.2760886763
 51
82.7760885952
  0
ARC
  5
12D
330
1F
100
AcDbEntity
  8
SLD-0
  6
Continuous
 62
   179
100
AcDbCircle
 10
268.004188781
 20
122.4414797244
 30
0.0
 40
4.43529421533122
100
AcDbArc
 50
73.0702752522
 51
95.5702751711
  0
ARC
  5
12E
330
1F
100
AcDbEntity
  8
SLD-0
  6
Continuous
 62
   179
100
AcDbCircle
 10
267.143146219
 20
122.4414545877
 30
0.0
 40
4.43531971866411
100
AcDbArc
 50
84.4296920628
 51
106.9296919817
  0
ARC
  5
12F
330
1F
100
AcDbEntity
  8
SLD-0
  6
Continuous
 62
   179
100
AcDbCircle
 10
266.3476572865
 20
122.7709835242
 30
0.0
 40
3.944890820416168
100
AcDbArc
 50
97.2240293572
 51
119.7240292761
  0
ARC
  5
130
330
1F
100
AcDbEntity
  8
SLD-0
  6
Continuous
 62
   179
100
AcDbCircle
 10
265.7388032379
 20
123.379810427
 30
0.0
 40
3.122540153450637
100
AcDbArc
 50
115.557445587
 51
138.0574455059
  0
ARC
  5
131
330
1F
100
AcDbEntity
  8
SLD-0
  6
Continuous
 62
   179
100
AcDbCircle
 10
265.4093102062
 20
124.175317562
 30
0.0
 40
2.37498550140188
100
AcDbArc
 50
147.0562866712
 51
169.5562865901
  0
ARC
  5
132
330
1F
100
AcDbEntity
  8
SLD-0
  6
Continuous
 62
   179
100
AcDbCircle
 10
266.1550486274
 20
125.0695329821
 30
0.0
 40
1.556930507069801
100
AcDbArc
 50
190.3946578259
 51
212.8946577448
  0
ARC
  5
133
330
1F
100
AcDbEntity
  8
SLD-0
  6
Continuous
 62
   179
100
AcDbCircle
 10
266.3714987697
 20
125.5908459306
 30
0.0
 40
2.046995505067801
100
AcDbArc
 50
221.8934453789
 51
244.3934452978
  0
ARC
  5
134
330
1F
100
AcDbEntity
  8
SLD-0
  6
Continuous
 62
   179
100
AcDbCircle
 10
266.7710021135
 20
125.9896188118
 30
0.0
 40
2.586099752234495
100
AcDbArc
 50
240.2263481248
 51
262.7263480438
  0
ARC
  5
135
330
1F
100
AcDbEntity
  8
SLD-0
  6
Continuous
 62
   179
100
AcDbCircle
 10
267.2926379631
 20
126.2051906932
 30
0.0
 40
2.907591033814209
100
AcDbArc
 50
253.021416291
 51
275.5214162099
  0
ARC
  5
136
330
1F
100
AcDbEntity
  8
SLD-0
  6
Continuous
 62
   179
100
AcDbCircle
 10
267.8571335562
 20
126.2046982905
 30
0.0
 40
2.907583556300164
100
AcDbArc
 50
264.3801377228
 51
286.8801376418
  0
ARC
  5
137
330
1F
100
AcDbEntity
  8
SLD-0
  6
Continuous
 62
   179
100
AcDbCircle
 10
268.3784154416
 20
125.9882614669
 30
0.0
 40
2.586121008261531
100
AcDbArc
 50
277.1747139794
 51
299.6747138983
  0
ARC
  5
138
330
1F
100
AcDbEntity
  8
SLD-0
  6
Continuous
 62
   179
100
AcDbCircle
 10
268.7772011303
 20
125.5887721398
 30
0.0
 40
2.047004430029597
100
AcDbArc
 50
295.5087065674
 51
318.0087064863
  0
ARC
  5
139
330
1F
100
AcDbEntity
  8
SLD-0
  6
Continuous
 62
   179
100
AcDbCircle
 10
268.9927867038
 20
125.0670962417
 30
0.0
 40
1.556920722985872
100
AcDbArc
 50
327.0067378567
 51
349.5067377757
  0
ARC
  5
13A
330
1F
100
AcDbEntity
  8
SLD-0
  6
Continuous
 62
   179
100
AcDbCircle
 10
268.9922913726
 20
124.5026370179
 30
0.0
 40
1.556930507069918
100
AcDbArc
 50
10.3946578259
 51
32.8946577448
  0
ARC
  5
13B
330
1F
100
AcDbEntity
  8
SLD-0
  6
Continuous
 62
   179
100
AcDbCircle
 10
268.7758160936
 20
123.9813290694
 30
0.0
 40
2.047010877887978
100
AcDbArc
 50
41.8928713912
 51
64.3928713101
  0
ARC
  5
13C
330
1F
100
AcDbEntity
  8
SLD-0
  6
Continuous
 62
   179
100
AcDbCircle
 10
268.3763630232
 20
123.5825561882
 30
0.0
 40
2.586091610066163
100
AcDbArc
 50
60.2268865304
 51
82.7268864494
  0
ARC
  5
13D
330
1F
100
AcDbEntity
  8
SLD-0
  6
Continuous
 62
   179
100
AcDbCircle
 10
267.8546769002
 20
123.3669843068
 30
0.0
 40
2.907593592129616
100
AcDbArc
 50
73.0209137762
 51
95.5209136951
  0
ARC
  5
13E
330
1F
100
AcDbEntity
  8
SLD-0
  6
Continuous
 62
   179
100
AcDbCircle
 10
267.2902265805
 20
123.3674515728
 30
0.0
 40
2.907611576292396
100
AcDbArc
 50
84.3805907733
 51
106.8805906923
  0
ARC
  5
13F
330
1F
100
AcDbEntity
  8
SLD-0
  6
Continuous
 62
   179
100
AcDbCircle
 10
266.7689195584
 20
123.5839336698
 30
0.0
 40
2.58609669287612
100
AcDbArc
 50
97.1748934442
 51
119.6748933631
  0
ARC
  5
140
330
1F
100
AcDbEntity
  8
SLD-0
  6
Continuous
 62
   179
100
AcDbCircle
 10
266.370113733
 20
123.9834028602
 30
0.0
 40
2.046989092458589
100
AcDbArc
 50
115.5081318396
 51
138.0081317585
  0
ARC
  5
141
330
1F
100
AcDbEntity
  8
SLD-0
  6
Continuous
 62
   179
100
AcDbCircle
 10
266.1545784329
 20
124.5050787583
 30
0.0
 40
1.556944528734978
100
AcDbArc
 50
147.0070872474
 51
169.5070871663
  0
ARC
  5
142
330
1F
100
AcDbEntity
  8
SLD-0
  6
Continuous
 62
   179
100
AcDbCircle
 10
268.1536134737
 20
197.608217562
 30
0.0
 40
3.921753352102297
100
AcDbArc
 50
1.6855117158
 51
24.1855116347
  0
ARC
  5
143
330
1F
100
AcDbEntity
  8
SLD-0
  6
Continuous
 62
   179
100
AcDbCircle
 10
268.0653070549
 20
197.395055427
 30
0.0
 40
4.092700981755202
100
AcDbArc
 50
26.4018089473
 51
48.9018088662
  0
ARC
  5
144
330
1F
100
AcDbEntity
  8
SLD-0
  6
Continuous
 62
   179
100
AcDbCircle
 10
267.9021719274
 20
197.2319133875
 30
0.0
 40
4.322907839190234
100
AcDbArc
 50
48.6937951311
 51
71.1937950501
  0
ARC
  5
145
330
1F
100
AcDbEntity
  8
SLD-0
  6
Continuous
 62
   179
100
AcDbCircle
 10
267.6890248671
 20
197.1436497244
 30
0.0
 40
4.478526138672203
100
AcDbArc
 50
68.975949503
 51
91.4759494219
  0
ARC
  5
146
330
1F
100
AcDbEntity
  8
SLD-0
  6
Continuous
 62
   179
100
AcDbCircle
 10
267.4583101329
 20
197.1436245877
 30
0.0
 40
4.47855139581876
100
AcDbArc
 50
88.5239949156
 51
111.0239948345
  0
ARC
  5
147
330
1F
100
AcDbEntity
  8
SLD-0
  6
Continuous
 62
   179
100
AcDbCircle
 10
267.2451630726
 20
197.2319385242
 30
0.0
 40
4.322885656291422
100
AcDbArc
 50
108.8063750836
 51
131.3063750025
  0
ARC
  5
148
330
1F
100
AcDbEntity
  8
SLD-0
  6
Continuous
 62
   179
100
AcDbCircle
 10
267.0820329451
 20
197.395055427
 30
0.0
 40
4.092700981755368
100
AcDbArc
 50
131.0981911338
 51
153.5981910527
  0
ARC
  5
149
330
1F
100
AcDbEntity
  8
SLD-0
  6
Continuous
 62
   179
100
AcDbCircle
 10
266.9937265263
 20
197.608217562
 30
0.0
 40
3.921753352102297
100
AcDbArc
 50
155.8144883653
 51
178.3144882842
  0
ARC
  5
14A
330
1F
100
AcDbEntity
  8
SLD-0
  6
Continuous
 62
   179
100
AcDbCircle
 10
266.9937265263
 20
197.838922438
 30
0.0
 40
3.92175335210217
100
AcDbArc
 50
181.6855117158
 51
204.1855116347
  0
ARC
  5
14B
330
1F
100
AcDbEntity
  8
SLD-0
  6
Continuous
 62
   179
100
AcDbCircle
 10
267.0820078084
 20
198.052089573
 30
0.0
 40
4.092680690219897
100
AcDbArc
 50
206.4020281226
 51
228.9020280415
  0
ARC
  5
14C
330
1F
100
AcDbEntity
  8
SLD-0
  6
Continuous
 62
   179
100
AcDbCircle
 10
267.2451630726
 20
198.2152114758
 30
0.0
 40
4.322885656291461
100
AcDbArc
 50
228.6936249975
 51
251.1936249164
  0
ARC
  5
14D
330
1F
100
AcDbEntity
  8
SLD-0
  6
Continuous
 62
   179
100
AcDbCircle
 10
267.4583101329
 20
198.3035254123
 30
0.0
 40
4.478551395818731
100
AcDbArc
 50
248.9760051655
 51
271.4760050844
  0
ARC
  5
14E
330
1F
100
AcDbEntity
  8
SLD-0
  6
Continuous
 62
   179
100
AcDbCircle
 10
267.6890248671
 20
198.3035002756
 30
0.0
 40
4.478526138672175
100
AcDbArc
 50
268.5240505781
 51
291.024050497
  0
ARC
  5
14F
330
1F
100
AcDbEntity
  8
SLD-0
  6
Continuous
 62
   179
100
AcDbCircle
 10
267.9021719274
 20
198.2152366125
 30
0.0
 40
4.322907839190271
100
AcDbArc
 50
288.8062049499
 51
311.3062048689
  0
ARC
  5
150
330
1F
100
AcDbEntity
  8
SLD-0
  6
Continuous
 62
   179
100
AcDbCircle
 10
268.0653321916
 20
198.052089573
 30
0.0
 40
4.092680690219749
100
AcDbArc
 50
311.0979719585
 51
333.5979718774
  0
ARC
  5
151
330
1F
100
AcDbEntity
  8
SLD-0
  6
Continuous
 62
   179
100
AcDbCircle
 10
268.1536134737
 20
197.838922438
 30
0.0
 40
3.92175335210217
100
AcDbArc
 50
335.8144883653
 51
358.3144882842
  0
ARC
  5
152
330
1F
100
AcDbEntity
  8
SLD-0
  6
Continuous
 62
   179
100
AcDbCircle
 10
267.9540384187
 20
197.544860872
 30
0.0
 40
2.570937890154749
100
AcDbArc
 50
1.8335353058
 51
24.3335352247
  0
ARC
  5
153
330
1F
100
AcDbEntity
  8
SLD-0
  6
Continuous
 62
   179
100
AcDbCircle
 10
267.8965176518
 20
197.4050043483
 30
0.0
 40
2.682982197215039
100
AcDbArc
 50
26.5492831015
 51
49.0492830204
  0
ARC
  5
154
330
1F
100
AcDbEntity
  8
SLD-0
  6
Continuous
 62
   179
100
AcDbCircle
 10
267.7898734538
 20
197.2977779496
 30
0.0
 40
2.833881703319621
100
AcDbArc
 50
48.8416760668
 51
71.3416759857
  0
ARC
  5
155
330
1F
100
AcDbEntity
  8
SLD-0
  6
Continuous
 62
   179
100
AcDbCircle
 10
267.6502714217
 20
197.2395111049
 30
0.0
 40
2.935947765246701
100
AcDbArc
 50
69.1237195076
 51
91.6237194265
  0
ARC
  5
156
330
1F
100
AcDbEntity
  8
SLD-0
  6
Continuous
 62
   179
100
AcDbCircle
 10
267.4990231363
 20
197.2391399114
 30
0.0
 40
2.935928997208658
100
AcDbArc
 50
88.6717252488
 51
111.1717251678
  0
ARC
  5
157
330
1F
100
AcDbEntity
  8
SLD-0
  6
Continuous
 62
   179
100
AcDbCircle
 10
267.3591390748
 20
197.2966519084
 30
0.0
 40
2.833900695205743
100
AcDbArc
 50
108.9538460375
 51
131.4538459565
  0
ARC
  5
158
330
1F
100
AcDbEntity
  8
SLD-0
  6
Continuous
 62
   179
100
AcDbCircle
 10
267.2519324584
 20
197.4033277181
 30
0.0
 40
2.682993411883848
100
AcDbArc
 50
131.246079824
 51
153.7460797429
  0
ARC
  5
159
330
1F
100
AcDbEntity
  8
SLD-0
  6
Continuous
 62
   179
100
AcDbCircle
 10
267.1936673015
 20
197.5429199042
 30
0.0
 40
2.57091313798936
100
AcDbArc
 50
155.9622912316
 51
178.4622911505
  0
ARC
  5
15A
330
1F
100
AcDbEntity
  8
SLD-0
  6
Continuous
 62
   179
100
AcDbCircle
 10
267.1932965813
 20
197.6941439913
 30
0.0
 40
2.570932088568001
100
AcDbArc
 50
181.8329789616
 51
204.3329788805
  0
ARC
  5
15B
330
1F
100
AcDbEntity
  8
SLD-0
  6
Continuous
 62
   179
100
AcDbCircle
 10
267.2508173482
 20
197.8340507884
 30
0.0
 40
2.682997905327572
100
AcDbArc
 50
206.5497155686
 51
229.0497154875
  0
ARC
  5
15C
330
1F
100
AcDbEntity
  8
SLD-0
  6
Continuous
 62
   179
100
AcDbCircle
 10
267.3574665462
 20
197.9412520504
 30
0.0
 40
2.833881703319605
100
AcDbArc
 50
228.8416760668
 51
251.3416759857
  0
ARC
  5
15D
330
1F
100
AcDbEntity
  8
SLD-0
  6
Continuous
 62
   179
100
AcDbCircle
 10
267.4970685783
 20
197.9995188951
 30
0.0
 40
2.935947765246816
100
AcDbArc
 50
249.1237195076
 51
271.6237194265
  0
ARC
  5
15E
330
1F
100
AcDbEntity
  8
SLD-0
  6
Continuous
 62
   179
100
AcDbCircle
 10
267.6483168637
 20
197.9998900886
 30
0.0
 40
2.935928997208543
100
AcDbArc
 50
268.6717252488
 51
291.1717251678
  0
ARC
  5
15F
330
1F
100
AcDbEntity
  8
SLD-0
  6
Continuous
 62
   179
100
AcDbCircle
 10
267.7882009252
 20
197.9423780916
 30
0.0
 40
2.833900695205668
100
AcDbArc
 50
288.9538460375
 51
311.4538459565
  0
ARC
  5
160
330
1F
100
AcDbEntity
  8
SLD-0
  6
Continuous
 62
   179
100
AcDbCircle
 10
267.8954075416
 20
197.8357022819
 30
0.0
 40
2.682993411883945
100
AcDbArc
 50
311.246079824
 51
333.7460797429
  0
ARC
  5
161
330
1F
100
AcDbEntity
  8
SLD-0
  6
Continuous
 62
   179
100
AcDbCircle
 10
267.9536726985
 20
197.6961100958
 30
0.0
 40
2.570913137989352
100
AcDbArc
 50
335.9622912316
 51
358.4622911505
  0
POINT
  5
162
330
1F
100
AcDbEntity
  8
SLD-0
100
AcDbPoint
 10
402.875
 20
12.0
 30
0.0
  0
POINT
  5
163
330
1F
100
AcDbEntity
  8
SLD-0
100
AcDbPoint
 10
17.07501
 20
285.0
 30
0.0
  0
POINT
  5
164
330
1F
100
AcDbEntity
  8
SLD-0
100
AcDbPoint
 10
17.07501
 20
12.0
 30
0.0
  0
POINT
  5
165
330
1F
100
AcDbEntity
  8
SLD-0
100
AcDbPoint
 10
402.875
 20
12.0
 30
0.0
  0
POINT
  5
166
330
1F
100
AcDbEntity
  8
SLD-0
100
AcDbPoint
 10
402.875
 20
285.0
 30
0.0
  0
POINT
  5
167
330
1F
100
AcDbEntity
  8
SLD-0
100
AcDbPoint
 10
17.07501
 20
285.0
 30
0.0
  0
MTEXT
  5
169
330
1F
100
AcDbEntity
  8
SLD-0
 62
     7
100
AcDbMText
 10
353.828591
 20
45.1971892496
 30
0.0
 40
4.8000002
 41
0.0
 71
     1
 72
     1
  1
エアニッパー
  7
SLDTEXTSTYLE3
 73
     1
 44
1.0
  0
MTEXT
  5
16B
330
1F
100
AcDbEntity
  8
SLD-0
 62
     7
100
AcDbMText
 10
351.986155
 20
31.9550482496
 30
0.0
 40
4.8000002
 41
0.0
 71
     1
 72
     1
  1
ＧＴ－ＮＲ３０
  7
SLDTEXTSTYLE4
 73
     1
 44
1.0
  0
MTEXT
  5
16C
330
1F
100
AcDbEntity
  8
SLD-0
 62
     7
100
AcDbMText
 10
354.804326
 20
19.8280322496
 30
0.0
 40
4.8000002
 41
0.0
 71
     1
 72
     1
  1
０６００８５
  7
SLDTEXTSTYLE3
 73
     1
 44
1.0
  0
INSERT
  5
16D
330
1F
100
AcDbEntity
  8
0
  6
Continuous
 62
     7
370
     0
100
AcDbBlockReference
  2
KOZU0001
 10
269.39085
 20
194.15834
 30
0.0
  0
INSERT
  5
16E
330
1F
100
AcDbEntity
  8
0
  6
Continuous
 62
     7
370
     0
100
AcDbBlockReference
  2
KOZU0002
 10
356.383342
 20
102.945978
 30
0.0
  0
INSERT
  5
16F
330
1F
100
AcDbEntity
  8
0
  6
Continuous
 62
     7
370
     0
100
AcDbBlockReference
  2
KOZU0003
 10
337.202687
 20
96.678675
 30
0.0
  0
ENDSEC
  0
SECTION
  2
OBJECTS
  0
DICTIONARY
  5
C
330
0
100
AcDbDictionary
281
     1
  3
ACAD_GROUP
350
D
  3
ACAD_LAYOUT
350
1A
  3
ACAD_MLINESTYLE
350
17
  3
ACAD_PLOTSETTINGS
350
19
  3
ACAD_PLOTSTYLENAME
350
E
  0
DICTIONARY
  5
D
102
{ACAD_REACTORS
330
C
102
}
330
C
100
AcDbDictionary
281
     1
  0
DICTIONARY
  5
1A
102
{ACAD_REACTORS
330
C
102
}
330
C
100
AcDbDictionary
281
     1
  3
Layout1
350
1E
  3
Layout2
350
26
  3
Model
350
22
  0
DICTIONARY
  5
17
102
{ACAD_REACTORS
330
C
102
}
330
C
100
AcDbDictionary
281
     1
  3
Standard
350
18
  0
DICTIONARY
  5
19
102
{ACAD_REACTORS
330
C
102
}
330
C
100
AcDbDictionary
281
     1
  0
ACDBDICTIONARYWDFLT
  5
E
102
{ACAD_REACTORS
330
C
102
}
330
C
100
AcDbDictionary
281
     1
  3
Normal
350
F
100
AcDbDictionaryWithDefault
340
F
  0
LAYOUT
  5
1E
102
{ACAD_REACTORS
330
1A
102
}
330
1A
100
AcDbPlotSettings
  1

  2

  4

  6

 40
0.0
 41
0.0
 42
0.0
 43
0.0
 44
0.0
 45
0.0
 46
0.0
 47
0.0
 48
0.0
 49
0.0
140
0.0
141
0.0
142
1.0
143
1.0
 70
   688
 72
     0
 73
     0
 74
     5
  7

 75
    16
147
1.0
148
0.0
149
0.0
100
AcDbLayout
  1
Layout1
 70
     1
 71
     1
 10
0.0
 20
0.0
 11
0.0
 21
0.0
 12
0.0
 22
0.0
 32
0.0
 14
0.0
 24
0.0
 34
0.0
 15
0.0
 25
0.0
 35
0.0
146
0.0
 13
0.0
 23
0.0
 33
0.0
 16
1.0
 26
0.0
 36
0.0
 17
0.0
 27
1.0
 37
0.0
 76
     0
330
1B
  0
LAYOUT
  5
26
102
{ACAD_REACTORS
330
1A
102
}
330
1A
100
AcDbPlotSettings
  1

  2

  4

  6

 40
0.0
 41
0.0
 42
0.0
 43
0.0
 44
0.0
 45
0.0
 46
0.0
 47
0.0
 48
0.0
 49
0.0
140
0.0
141
0.0
142
1.0
143
1.0
 70
   688
 72
     0
 73
     0
 74
     5
  7

 75
    16
147
1.0
148
0.0
149
0.0
100
AcDbLayout
  1
Layout2
 70
     1
 71
     2
 10
0.0
 20
0.0
 11
0.0
 21
0.0
 12
0.0
 22
0.0
 32
0.0
 14
0.0
 24
0.0
 34
0.0
 15
0.0
 25
0.0
 35
0.0
146
0.0
 13
0.0
 23
0.0
 33
0.0
 16
1.0
 26
0.0
 36
0.0
 17
0.0
 27
1.0
 37
0.0
 76
     0
330
23
  0
LAYOUT
  5
22
102
{ACAD_REACTORS
330
1A
102
}
330
1A
100
AcDbPlotSettings
  1

  2

  4

  6

 40
0.0
 41
0.0
 42
0.0
 43
0.0
 44
0.0
 45
0.0
 46
0.0
 47
0.0
 48
0.0
 49
0.0
140
0.0
141
0.0
142
1.0
143
1.0
 70
  1712
 72
     0
 73
     0
 74
     0
  7

 75
     0
147
1.0
148
0.0
149
0.0
100
AcDbLayout
  1
Model
 70
     1
 71
     0
 10
0.0
 20
0.0
 11
0.0
 21
0.0
 12
0.0
 22
0.0
 32
0.0
 14
0.0
 24
0.0
 34
0.0
 15
420.0
 25
297.0
 35
0.0
146
0.0
 13
0.0
 23
0.0
 33
0.0
 16
1.0
 26
0.0
 36
0.0
 17
0.0
 27
1.0
 37
0.0
 76
     0
330
1F
  0
MLINESTYLE
  5
18
102
{ACAD_REACTORS
330
17
102
}
330
17
100
AcDbMlineStyle
  2
Standard
 70
     0
  3

 62
   256
 51
90.0
 52
90.0
 71
     2
 49
0.5
 62
   256
  6
BYLAYER
 49
-0.5
 62
   256
  6
BYLAYER
  0
ACDBPLACEHOLDER
  5
F
102
{ACAD_REACTORS
330
E
102
}
330
E
  0
ENDSEC
  0
EOF
