  0
SECTION
  2
HEADER
  9
$ACADVER
  1
AC1015
  9
$ACADMAINTVER
 70
     6
  9
$DWGCODEPAGE
  3
DOS932
  9
$INSBASE
 10
0.0
 20
0.0
 30
0.0
  9
$EXTMIN
 10
0.0
 20
0.0
 30
0.0
  9
$EXTMAX
 10
210.0
 20
297.0
 30
0.0
  9
$LIMMIN
 10
0.0
 20
0.0
  9
$LIMMAX
 10
0.0
 20
0.0
  9
$ORTHOMODE
 70
     0
  9
$REGENMODE
 70
     1
  9
$FILLMODE
 70
     1
  9
$QTEXTMODE
 70
     0
  9
$MIRRTEXT
 70
     1
  9
$LTSCALE
 40
1.0
  9
$ATTMODE
 70
     1
  9
$TEXTSIZE
 40
3.5
  9
$TRACEWID
 40
1.0
  9
$TEXTSTYLE
  7
Standard
  9
$CLAYER
  8
0
  9
$CELTYPE
  6
ByLayer
  9
$CECOLOR
 62
   256
  9
$CELTSCALE
 40
1.0
  9
$DISPSILH
 70
     0
  9
$DIMSCALE
 40
1.0
  9
$DIMASZ
 40
3.0
  9
$DIMEXO
 40
1.0
  9
$DIMDLI
 40
3.75
  9
$DIMRND
 40
0.0
  9
$DIMDLE
 40
0.0
  9
$DIMEXE
 40
1.0
  9
$DIMTP
 40
0.0
  9
$DIMTM
 40
0.0
  9
$DIMTXT
 40
3.2000000477
  9
$DIMCEN
 40
2.5
  9
$DIMTSZ
 40
0.0
  9
$DIMTOL
 70
     0
  9
$DIMLIM
 70
     0
  9
$DIMTIH
 70
     1
  9
$DIMTOH
 70
     1
  9
$DIMSE1
 70
     0
  9
$DIMSE2
 70
     0
  9
$DIMTAD
 70
     1
  9
$DIMZIN
 70
     1
  9
$DIMBLK
  1

  9
$DIMASO
 70
     1
  9
$DIMSHO
 70
     1
  9
$DIMPOST
  1

  9
$DIMAPOST
  1

  9
$DIMALT
 70
     0
  9
$DIMALTD
 70
     3
  9
$DIMALTF
 40
0.0393700787
  9
$DIMLFAC
 40
1.0
  9
$DIMTOFL
 70
     1
  9
$DIMTVP
 40
0.0
  9
$DIMTIX
 70
     0
  9
$DIMSOXD
 70
     0
  9
$DIMSAH
 70
     0
  9
$DIMBLK1
  1

  9
$DIMBLK2
  1

  9
$DIMSTYLE
  2
ISO-25
  9
$DIMCLRD
 70
     0
  9
$DIMCLRE
 70
     0
  9
$DIMCLRT
 70
     0
  9
$DIMTFAC
 40
1.0
  9
$DIMGAP
 40
1.524
  9
$DIMJUST
 70
     0
  9
$DIMSD1
 70
     0
  9
$DIMSD2
 70
     0
  9
$DIMTOLJ
 70
     0
  9
$DIMTZIN
 70
     1
  9
$DIMALTZ
 70
     0
  9
$DIMALTTZ
 70
     0
  9
$DIMUPT
 70
     0
  9
$DIMDEC
 70
     2
  9
$DIMTDEC
 70
     2
  9
$DIMALTU
 70
     2
  9
$DIMALTTD
 70
     3
  9
$DIMTXSTY
  7
Standard
  9
$DIMAUNIT
 70
     0
  9
$DIMADEC
 70
     0
  9
$DIMALTRND
 40
0.0
  9
$DIMAZIN
 70
     0
  9
$DIMDSEP
 70
    44
  9
$DIMATFIT
 70
     3
  9
$DIMFRAC
 70
     0
  9
$DIMLDRBLK
  1

  9
$DIMLUNIT
 70
     2
  9
$DIMLWD
 70
    -2
  9
$DIMLWE
 70
    -2
  9
$DIMTMOVE
 70
     0
  9
$LUNITS
 70
     2
  9
$LUPREC
 70
     4
  9
$SKETCHINC
 40
1.0
  9
$FILLETRAD
 40
10.0
  9
$AUNITS
 70
     0
  9
$AUPREC
 70
     0
  9
$MENU
  1
.
  9
$ELEVATION
 40
0.0
  9
$PELEVATION
 40
0.0
  9
$THICKNESS
 40
0.0
  9
$LIMCHECK
 70
     0
  9
$CHAMFERA
 40
10.0
  9
$CHAMFERB
 40
10.0
  9
$CHAMFERC
 40
20.0
  9
$CHAMFERD
 40
0.0
  9
$SKPOLY
 70
     0
  9
$TDCREATE
 40
2454307.484514607
  9
$TDUCREATE
 40
2454307.109514607
  9
$TDUPDATE
 40
2454307.484514618
  9
$TDUUPDATE
 40
2454307.109514618
  9
$TDINDWG
 40
0.0000000116
  9
$TDUSRTIMER
 40
0.0000000116
  9
$USRTIMER
 70
     1
  9
$ANGBASE
 50
0.0
  9
$ANGDIR
 70
     0
  9
$PDMODE
 70
     0
  9
$PDSIZE
 40
-1.0
  9
$PLINEWID
 40
0.0
  9
$SPLFRAME
 70
     0
  9
$SPLINETYPE
 70
     6
  9
$SPLINESEGS
 70
     8
  9
$HANDSEED
  5
1D5
  9
$SURFTAB1
 70
     6
  9
$SURFTAB2
 70
     6
  9
$SURFTYPE
 70
     6
  9
$SURFU
 70
     6
  9
$SURFV
 70
     6
  9
$UCSBASE
  2

  9
$UCSNAME
  2

  9
$UCSORG
 10
0.0
 20
0.0
 30
0.0
  9
$UCSXDIR
 10
1.0
 20
0.0
 30
0.0
  9
$UCSYDIR
 10
0.0
 20
1.0
 30
0.0
  9
$UCSORTHOREF
  2

  9
$UCSORTHOVIEW
 70
     0
  9
$UCSORGTOP
 10
0.0
 20
0.0
 30
0.0
  9
$UCSORGBOTTOM
 10
0.0
 20
0.0
 30
0.0
  9
$UCSORGLEFT
 10
0.0
 20
0.0
 30
0.0
  9
$UCSORGRIGHT
 10
0.0
 20
0.0
 30
0.0
  9
$UCSORGFRONT
 10
0.0
 20
0.0
 30
0.0
  9
$UCSORGBACK
 10
0.0
 20
0.0
 30
0.0
  9
$PUCSBASE
  2

  9
$PUCSNAME
  2

  9
$PUCSORG
 10
0.0
 20
0.0
 30
0.0
  9
$PUCSXDIR
 10
1.0
 20
0.0
 30
0.0
  9
$PUCSYDIR
 10
0.0
 20
1.0
 30
0.0
  9
$PUCSORTHOREF
  2

  9
$PUCSORTHOVIEW
 70
     0
  9
$PUCSORGTOP
 10
0.0
 20
0.0
 30
0.0
  9
$PUCSORGBOTTOM
 10
0.0
 20
0.0
 30
0.0
  9
$PUCSORGLEFT
 10
0.0
 20
0.0
 30
0.0
  9
$PUCSORGRIGHT
 10
0.0
 20
0.0
 30
0.0
  9
$PUCSORGFRONT
 10
0.0
 20
0.0
 30
0.0
  9
$PUCSORGBACK
 10
0.0
 20
0.0
 30
0.0
  9
$USERI1
 70
     0
  9
$USERI2
 70
     0
  9
$USERI3
 70
     0
  9
$USERI4
 70
     0
  9
$USERI5
 70
     0
  9
$USERR1
 40
0.0
  9
$USERR2
 40
0.0
  9
$USERR3
 40
0.0
  9
$USERR4
 40
0.0
  9
$USERR5
 40
0.0
  9
$WORLDVIEW
 70
     1
  9
$SHADEDGE
 70
     3
  9
$SHADEDIF
 70
    70
  9
$TILEMODE
 70
     1
  9
$MAXACTVP
 70
    64
  9
$PINSBASE
 10
0.0
 20
0.0
 30
0.0
  9
$PLIMCHECK
 70
     0
  9
$PEXTMIN
 10
1.0000000000E+20
 20
1.0000000000E+20
 30
1.0000000000E+20
  9
$PEXTMAX
 10
-1.0000000000E+20
 20
-1.0000000000E+20
 30
-1.0000000000E+20
  9
$PLIMMIN
 10
0.0
 20
0.0
  9
$PLIMMAX
 10
420.0
 20
297.0
  9
$UNITMODE
 70
     0
  9
$VISRETAIN
 70
     1
  9
$PLINEGEN
 70
     0
  9
$PSLTSCALE
 70
     1
  9
$TREEDEPTH
 70
  3020
  9
$CMLSTYLE
  2
Standard
  9
$CMLJUST
 70
     0
  9
$CMLSCALE
 40
20.0
  9
$PROXYGRAPHICS
 70
     1
  9
$MEASUREMENT
 70
     1
  9
$CELWEIGHT
370
    -1
  9
$ENDCAPS
280
     0
  9
$JOINSTYLE
280
     0
  9
$LWDISPLAY
290
     1
  9
$INSUNITS
 70
     4
  9
$HYPERLINKBASE
  1

  9
$STYLESHEET
  1

  9
$XEDIT
290
     1
  9
$CEPSNTYPE
380
     0
  9
$PSTYLEMODE
290
     1
  9
$FINGERPRINTGUID
  2
{1A5CBD17-C303-40E5-9AC8-8EC0E8768D39}
  9
$VERSIONGUID
  2
{FAEB1C32-E019-11D5-929B-00C0DF256EC4}
  9
$EXTNAMES
290
     1
  9
$PSVPSCALE
 40
0.0
  9
$OLESTARTUP
290
     0
  0
ENDSEC
  0
SECTION
  2
CLASSES
  0
CLASS
  1
ACDBDICTIONARYWDFLT
  2
AcDbDictionaryWithDefault
  3
ObjectDBX Classes
 90
        0
280
     0
281
     0
  0
CLASS
  1
ACDBPLACEHOLDER
  2
AcDbPlaceHolder
  3
ObjectDBX Classes
 90
        0
280
     0
281
     0
  0
CLASS
  1
LAYOUT
  2
AcDbLayout
  3
ObjectDBX Classes
 90
        0
280
     0
281
     0
  0
ENDSEC
  0
SECTION
  2
TABLES
  0
TABLE
  2
VPORT
  5
8
330
0
100
AcDbSymbolTable
 70
     1
  0
VPORT
  5
29
330
8
100
AcDbSymbolTableRecord
100
AcDbViewportTableRecord
  2
*Active
 70
     0
 10
0.0
 20
0.0
 11
1.0
 21
1.0
 12
105.0
 22
148.5
 13
0.0
 23
0.0
 14
10.0
 24
10.0
 15
10.0
 25
10.0
 16
0.0
 26
0.0
 36
1.0
 17
0.0
 27
0.0
 37
0.0
 40
297.0
 41
1.9729729729
 42
50.0
 43
0.0
 44
0.0
 50
0.0
 51
0.0
 71
     0
 72
  2000
 73
     1
 74
     3
 75
     0
 76
     0
 77
     0
 78
     0
281
     0
 65
     1
110
0.0
120
0.0
130
0.0
111
1.0
121
0.0
131
0.0
112
0.0
122
1.0
132
0.0
 79
     0
146
0.0
  0
ENDTAB
  0
TABLE
  2
LTYPE
  5
5
330
0
100
AcDbSymbolTable
 70
     6
  0
LTYPE
  5
14
330
5
100
AcDbSymbolTableRecord
100
AcDbLinetypeTableRecord
  2
ByBlock
 70
     0
  3

 72
    65
 73
     0
 40
0.0
  0
LTYPE
  5
15
330
5
100
AcDbSymbolTableRecord
100
AcDbLinetypeTableRecord
  2
ByLayer
 70
     0
  3

 72
    65
 73
     0
 40
0.0
  0
LTYPE
  5
16
330
5
100
AcDbSymbolTableRecord
100
AcDbLinetypeTableRecord
  2
Continuous
 70
     0
  3
Solid line
 72
    65
 73
     0
 40
0.0
  0
LTYPE
  5
2A
330
5
100
AcDbSymbolTableRecord
100
AcDbLinetypeTableRecord
  2
HIDDEN
 70
     0
  3
Hidden __ __ __ __ __ __ __ __ __ __ __ __ __ __
 72
    65
 73
     2
 40
1.905
 49
1.27
 74
     0
 49
-0.635
 74
     0
  0
LTYPE
  5
2B
330
5
100
AcDbSymbolTableRecord
100
AcDbLinetypeTableRecord
  2
PHANTOM
 70
     0
  3
Phantom ______  __  __  ______  __  __  ______
 72
    65
 73
     6
 40
12.7
 49
6.35
 74
     0
 49
-1.27
 74
     0
 49
1.27
 74
     0
 49
-1.27
 74
     0
 49
1.27
 74
     0
 49
-1.27
 74
     0
  0
LTYPE
  5
2C
330
5
100
AcDbSymbolTableRecord
100
AcDbLinetypeTableRecord
  2
CENTER
 70
     0
  3
Center ____ _ ____ _ ____ _ ____ _ ____ _ ____
 72
    65
 73
     4
 40
10.16
 49
6.35
 74
     0
 49
-1.27
 74
     0
 49
1.27
 74
     0
 49
-1.27
 74
     0
  0
LTYPE
  5
2D
330
5
100
AcDbSymbolTableRecord
100
AcDbLinetypeTableRecord
  2
CENTERX2
 70
     0
  3
Center (2x) ________  __  ________  __  _____
 72
    65
 73
     4
 40
20.32
 49
12.7
 74
     0
 49
-2.54
 74
     0
 49
2.54
 74
     0
 49
-2.54
 74
     0
  0
LTYPE
  5
2E
330
5
100
AcDbSymbolTableRecord
100
AcDbLinetypeTableRecord
  2
DOT2
 70
     0
  3
Dot (.5x) ........................................
 72
    65
 73
     2
 40
0.635
 49
0.0
 74
     0
 49
-0.635
 74
     0
  0
ENDTAB
  0
TABLE
  2
LAYER
  5
2
330
0
100
AcDbSymbolTable
 70
     2
  0
LAYER
  5
10
330
2
100
AcDbSymbolTableRecord
100
AcDbLayerTableRecord
  2
0
 70
     0
 62
     7
  6
Continuous
370
    -3
390
F
  0
LAYER
  5
2F
330
2
100
AcDbSymbolTableRecord
100
AcDbLayerTableRecord
  2
SLD-0
 70
     0
 62
   179
  6
Continuous
370
     0
390
F
  0
ENDTAB
  0
TABLE
  2
STYLE
  5
3
330
0
100
AcDbSymbolTable
 70
     7
  0
STYLE
  5
11
330
3
100
AcDbSymbolTableRecord
100
AcDbTextStyleTableRecord
  2
Standard
 70
     0
 40
0.0
 41
1.0
 50
0.0
 71
     0
 42
2.5
  3
txt
  4
bigfont
  0
STYLE
  5
33
330
3
100
AcDbSymbolTableRecord
100
AcDbTextStyleTableRecord
  2
SLDTEXTSTYLE0
 70
     0
 40
0.0
 41
0.7
 50
0.0
 71
     0
 42
0.2
  3
TXT
  4
bigfont
  0
STYLE
  5
3E
330
3
100
AcDbSymbolTableRecord
100
AcDbTextStyleTableRecord
  2
SLDTEXTSTYLE1
 70
     0
 40
0.0
 41
0.6272516078
 50
0.0
 71
     0
 42
0.2
  3
TXT
  4
bigfont
  0
STYLE
  5
1CB
330
3
100
AcDbSymbolTableRecord
100
AcDbTextStyleTableRecord
  2
SLDTEXTSTYLE2
 70
     0
 40
0.0
 41
0.8842104897
 50
0.0
 71
     0
 42
0.2
  3
TXT
  4
bigfont
  0
STYLE
  5
1CD
330
3
100
AcDbSymbolTableRecord
100
AcDbTextStyleTableRecord
  2
SLDTEXTSTYLE3
 70
     0
 40
0.0
 41
0.6244080302
 50
0.0
 71
     0
 42
0.2
  3
TXT
  4
bigfont
  0
STYLE
  5
1CF
330
3
100
AcDbSymbolTableRecord
100
AcDbTextStyleTableRecord
  2
SLDTEXTSTYLE4
 70
     0
 40
0.0
 41
0.6217270197
 50
0.0
 71
     0
 42
0.2
  3
TXT
  4
bigfont
  0
STYLE
  5
1D1
330
3
100
AcDbSymbolTableRecord
100
AcDbTextStyleTableRecord
  2
SLDTEXTSTYLE5
 70
     0
 40
0.0
 41
0.6212090972
 50
0.0
 71
     0
 42
0.2
  3
TXT
  4
bigfont
  0
ENDTAB
  0
TABLE
  2
VIEW
  5
6
330
0
100
AcDbSymbolTable
 70
     0
  0
ENDTAB
  0
TABLE
  2
UCS
  5
7
330
0
100
AcDbSymbolTable
 70
     0
  0
ENDTAB
  0
TABLE
  2
APPID
  5
9
330
0
100
AcDbSymbolTable
 70
     1
  0
APPID
  5
12
330
9
100
AcDbSymbolTableRecord
100
AcDbRegAppTableRecord
  2
ACAD
 70
     0
  0
ENDTAB
  0
TABLE
  2
DIMSTYLE
  5
A
330
0
100
AcDbSymbolTable
 70
     1
100
AcDbDimStyleTable
  0
DIMSTYLE
105
27
330
A
100
AcDbSymbolTableRecord
100
AcDbDimStyleTableRecord
  2
ISO-25
 70
     0
 41
2.5
 42
0.625
 43
3.75
 44
1.25
 73
     0
 74
     0
 77
     1
 78
     8
140
2.5
141
2.5
143
0.0393700787
147
0.625
171
     3
172
     1
271
     2
272
     2
274
     3
278
    44
283
     0
284
     8
340
11
  0
ENDTAB
  0
TABLE
  2
BLOCK_RECORD
  5
1
330
0
100
AcDbSymbolTable
 70
     3
  0
BLOCK_RECORD
  5
1F
330
1
100
AcDbSymbolTableRecord
100
AcDbBlockTableRecord
  2
*Model_Space
340
22
  0
BLOCK_RECORD
  5
1B
330
1
100
AcDbSymbolTableRecord
100
AcDbBlockTableRecord
  2
*Paper_Space
340
1E
  0
BLOCK_RECORD
  5
23
330
1
100
AcDbSymbolTableRecord
100
AcDbBlockTableRecord
  2
*Paper_Space0
340
26
  0
BLOCK_RECORD
  5
30
330
1
100
AcDbSymbolTableRecord
100
AcDbBlockTableRecord
  2
注記
340
0
  0
BLOCK_RECORD
  5
36
330
1
100
AcDbSymbolTableRecord
100
AcDbBlockTableRecord
  2
KOZU0001
340
0
102
{BLKREFS
331
1D4
102
}
  0
ENDTAB
  0
ENDSEC
  0
SECTION
  2
BLOCKS
  0
BLOCK
  5
20
330
1F
100
AcDbEntity
  8
0
100
AcDbBlockBegin
  2
*Model_Space
 70
     0
 71
     0
 10
0.0
 20
0.0
 30
0.0
  3
*Model_Space
  1

  0
ENDBLK
  5
21
330
1F
100
AcDbEntity
  8
0
100
AcDbBlockEnd
  0
BLOCK
  5
1C
330
1B
100
AcDbEntity
 67
     1
  8
0
100
AcDbBlockBegin
  2
*Paper_Space
 70
     0
 71
     0
 10
0.0
 20
0.0
 30
0.0
  3
*Paper_Space
  1

  0
ENDBLK
  5
1D
330
1B
100
AcDbEntity
 67
     1
  8
0
100
AcDbBlockEnd
  0
BLOCK
  5
24
330
23
100
AcDbEntity
  8
0
100
AcDbBlockBegin
  2
*Paper_Space0
 70
     0
 71
     0
 10
0.0
 20
0.0
 30
0.0
  3
*Paper_Space0
  1

  0
ENDBLK
  5
25
330
23
100
AcDbEntity
  8
0
100
AcDbBlockEnd
  0
BLOCK
  5
31
330
30
100
AcDbEntity
  8
0
100
AcDbBlockBegin
  2
注記
 70
     0
 71
     0
 10
0.0
 20
0.0
 30
0.0
  3
注記
  1

  0
MTEXT
  5
34
330
30
100
AcDbEntity
  8
0
  6
Continuous
 62
     7
370
     0
100
AcDbMText
 10
0.2636785918
 20
9.0739778448
 30
0.0
 40
3.5
 41
0.0
 71
     1
 72
     1
  1
１．特記ナキ角部ハ、バリ　カエリノ無キコト。
  7
SLDTEXTSTYLE0
 73
     1
 44
1.0
  0
MTEXT
  5
35
330
30
100
AcDbEntity
  8
0
  6
Continuous
 62
     7
370
     0
100
AcDbMText
 10
0.2636785918
 20
3.5759549983
 30
0.0
 40
3.5
 41
0.0
 71
     1
 72
     1
  1
２．特記ナキ隅部ハ、Ｒ０．４ＭＡＸトスル。
  7
SLDTEXTSTYLE0
 73
     1
 44
1.0
  0
ENDBLK
  5
32
330
30
100
AcDbEntity
  8
0
100
AcDbBlockEnd
  0
BLOCK
  5
37
330
36
100
AcDbEntity
  8
0
100
AcDbBlockBegin
  2
KOZU0001
 70
     0
 71
     0
 10
0.0
 20
0.0
 30
0.0
  3
KOZU0001
  1

  0
LINE
  5
39
330
36
100
AcDbEntity
  8
SLD-0
  6
Continuous
 62
   179
100
AcDbLine
 10
0.0
 20
0.0
 30
0.0
 11
3.4431131503
 21
9.1154865593
 31
0.0
  0
LINE
  5
3A
330
36
100
AcDbEntity
  8
SLD-0
  6
Continuous
 62
   179
100
AcDbLine
 10
0.0
 20
0.0
 30
0.0
 11
0.5795471261
 21
3.1247964454
 31
0.0
  0
LINE
  5
3B
330
36
100
AcDbEntity
  8
SLD-0
  6
Continuous
 62
   179
100
AcDbLine
 10
0.0
 20
0.0
 30
0.0
 11
1.6310373858
 21
2.7276262102
 31
0.0
  0
LINE
  5
3C
330
36
100
AcDbEntity
  8
SLD-0
  6
Continuous
 62
   179
100
AcDbLine
 10
0.0
 20
0.0
 30
0.0
 11
3.4431131503
 21
9.1154865593
 31
0.0
  0
LINE
  5
3D
330
36
100
AcDbEntity
  8
SLD-0
  6
Continuous
 62
   179
100
AcDbLine
 10
3.4431131503
 20
9.1154865593
 30
0.0
 11
18.0722130521
 21
9.1154865593
 31
0.0
  0
MTEXT
  5
3F
330
36
100
AcDbEntity
  8
SLD-0
100
AcDbMText
 10
4.8612090927
 20
12.5702059869
 30
0.0
 40
3.2000000477
 41
0.0
 71
     1
 72
     1
  1
４－Ｍ３
  7
SLDTEXTSTYLE1
 73
     1
 44
1.0
  0
ENDBLK
  5
38
330
36
100
AcDbEntity
  8
0
100
AcDbBlockEnd
  0
ENDSEC
  0
SECTION
  2
ENTITIES
  0
LINE
  5
40
330
1F
100
AcDbEntity
  8
SLD-0
  6
Continuous
 62
   179
100
AcDbLine
 10
71.6482538027
 20
90.9722210428
 30
0.0
 11
68.6482538027
 21
92.7042720428
 31
0.0
  0
LINE
  5
41
330
1F
100
AcDbEntity
  8
SLD-0
  6
Continuous
 62
   179
100
AcDbLine
 10
68.6482538027
 20
92.7042720428
 30
0.0
 11
65.6482538027
 21
90.9722210428
 31
0.0
  0
LINE
  5
42
330
1F
100
AcDbEntity
  8
SLD-0
  6
Continuous
 62
   179
100
AcDbLine
 10
65.6482538027
 20
90.9722210428
 30
0.0
 11
65.6482538027
 21
87.5081190428
 31
0.0
  0
LINE
  5
43
330
1F
100
AcDbEntity
  8
SLD-0
  6
Continuous
 62
   179
100
AcDbLine
 10
65.6482538027
 20
87.5081190428
 30
0.0
 11
68.6482538027
 21
85.7760680428
 31
0.0
  0
LINE
  5
44
330
1F
100
AcDbEntity
  8
SLD-0
  6
Continuous
 62
   179
100
AcDbLine
 10
68.6482538027
 20
85.7760680428
 30
0.0
 11
71.6482538027
 21
87.5081190428
 31
0.0
  0
LINE
  5
45
330
1F
100
AcDbEntity
  8
SLD-0
  6
Continuous
 62
   179
100
AcDbLine
 10
71.6482538027
 20
87.5081190428
 30
0.0
 11
71.6482538027
 21
90.9722210428
 31
0.0
  0
LINE
  5
46
330
1F
100
AcDbEntity
  8
SLD-0
  6
Continuous
 62
   179
100
AcDbLine
 10
71.6482538027
 20
83.4722210428
 30
0.0
 11
68.6482538027
 21
85.2042720428
 31
0.0
  0
LINE
  5
47
330
1F
100
AcDbEntity
  8
SLD-0
  6
Continuous
 62
   179
100
AcDbLine
 10
68.6482538027
 20
85.2042720428
 30
0.0
 11
65.6482538027
 21
83.4722210428
 31
0.0
  0
LINE
  5
48
330
1F
100
AcDbEntity
  8
SLD-0
  6
Continuous
 62
   179
100
AcDbLine
 10
65.6482538027
 20
83.4722210428
 30
0.0
 11
65.6482538027
 21
80.0081190428
 31
0.0
  0
LINE
  5
49
330
1F
100
AcDbEntity
  8
SLD-0
  6
Continuous
 62
   179
100
AcDbLine
 10
65.6482538027
 20
80.0081190428
 30
0.0
 11
68.6482538027
 21
78.2760680428
 31
0.0
  0
LINE
  5
4A
330
1F
100
AcDbEntity
  8
SLD-0
  6
Continuous
 62
   179
100
AcDbLine
 10
68.6482538027
 20
78.2760680428
 30
0.0
 11
71.6482538027
 21
80.0081190428
 31
0.0
  0
LINE
  5
4B
330
1F
100
AcDbEntity
  8
SLD-0
  6
Continuous
 62
   179
100
AcDbLine
 10
71.6482538027
 20
80.0081190428
 30
0.0
 11
71.6482538027
 21
83.4722210428
 31
0.0
  0
LINE
  5
4C
330
1F
100
AcDbEntity
  8
SLD-0
  6
Continuous
 62
   179
100
AcDbLine
 10
47.1482538027
 20
204.9901700428
 30
0.0
 11
84.1482538027
 21
204.9901700428
 31
0.0
  0
LINE
  5
4D
330
1F
100
AcDbEntity
  8
SLD-0
  6
Continuous
 62
   179
100
AcDbLine
 10
84.1482538027
 20
204.9901700428
 30
0.0
 11
84.1482538027
 21
154.4901700428
 31
0.0
  0
LINE
  5
4E
330
1F
100
AcDbEntity
  8
SLD-0
  6
Continuous
 62
   179
100
AcDbLine
 10
84.1482538027
 20
156.9901700428
 30
0.0
 11
47.1482538027
 21
156.9901700428
 31
0.0
  0
LINE
  5
4F
330
1F
100
AcDbEntity
  8
SLD-0
  6
Continuous
 62
   179
100
AcDbLine
 10
47.1482538027
 20
154.4901700428
 30
0.0
 11
47.1482538027
 21
204.9901700428
 31
0.0
  0
LINE
  5
50
330
1F
100
AcDbEntity
  8
SLD-0
  6
Continuous
 62
   179
100
AcDbLine
 10
47.1482538027
 20
204.9901700428
 30
0.0
 11
47.1482538027
 21
221.4901700428
 31
0.0
  0
LINE
  5
51
330
1F
100
AcDbEntity
  8
SLD-0
  6
Continuous
 62
   179
100
AcDbLine
 10
47.1482538027
 20
215.9901700428
 30
0.0
 11
73.7559488027
 21
215.9901700428
 31
0.0
  0
LINE
  5
52
330
1F
100
AcDbEntity
  8
SLD-0
  6
Continuous
 62
   179
100
AcDbLine
 10
84.1482538027
 20
204.9901700428
 30
0.0
 11
84.1482538027
 21
212.9901700428
 31
0.0
  0
LINE
  5
53
330
1F
100
AcDbEntity
  8
SLD-0
  6
CENTER
 62
   179
100
AcDbLine
 10
81.1482538027
 20
217.9701700428
 30
0.0
 11
81.1482538027
 21
202.4701700428
 31
0.0
  0
LINE
  5
54
330
1F
100
AcDbEntity
  8
SLD-0
  6
CENTER
 62
   179
100
AcDbLine
 10
59.6482538027
 20
217.6901700428
 30
0.0
 11
59.6482538027
 21
202.4701700428
 31
0.0
  0
LINE
  5
55
330
1F
100
AcDbEntity
  8
SLD-0
  6
Continuous
 62
   179
100
AcDbLine
 10
63.1482538027
 20
209.9901700428
 30
0.0
 11
56.1482538027
 21
209.9901700428
 31
0.0
  0
LINE
  5
56
330
1F
100
AcDbEntity
  8
SLD-0
  6
Continuous
 62
   179
100
AcDbLine
 10
84.1482538027
 20
209.9901700428
 30
0.0
 11
77.6482538027
 21
209.9901700428
 31
0.0
  0
LINE
  5
57
330
1F
100
AcDbEntity
  8
SLD-0
  6
Continuous
 62
   179
100
AcDbLine
 10
77.6482538027
 20
213.7429470428
 30
0.0
 11
77.6482538027
 21
209.9901700428
 31
0.0
  0
LINE
  5
58
330
1F
100
AcDbEntity
  8
SLD-0
  6
Continuous
 62
   179
100
AcDbLine
 10
63.1482538027
 20
215.9901700428
 30
0.0
 11
63.1482538027
 21
209.9901700428
 31
0.0
  0
LINE
  5
59
330
1F
100
AcDbEntity
  8
SLD-0
  6
Continuous
 62
   179
100
AcDbLine
 10
56.1482538027
 20
215.9901700428
 30
0.0
 11
56.1482538027
 21
209.9901700428
 31
0.0
  0
LINE
  5
5A
330
1F
100
AcDbEntity
  8
SLD-0
  6
Continuous
 62
   179
100
AcDbLine
 10
57.1482538027
 20
213.4901700428
 30
0.0
 11
62.1482538027
 21
213.4901700428
 31
0.0
  0
LINE
  5
5B
330
1F
100
AcDbEntity
  8
SLD-0
  6
Continuous
 62
   179
100
AcDbLine
 10
56.6482538027
 20
210.4901700428
 30
0.0
 11
62.6482538027
 21
210.4901700428
 31
0.0
  0
LINE
  5
5C
330
1F
100
AcDbEntity
  8
SLD-0
  6
Continuous
 62
   179
100
AcDbLine
 10
56.6482538027
 20
209.9901700428
 30
0.0
 11
56.6482538027
 21
212.9901700428
 31
0.0
  0
LINE
  5
5D
330
1F
100
AcDbEntity
  8
SLD-0
  6
Continuous
 62
   179
100
AcDbLine
 10
62.6482538027
 20
212.9901700428
 30
0.0
 11
62.6482538027
 21
209.9901700428
 31
0.0
  0
LINE
  5
5E
330
1F
100
AcDbEntity
  8
SLD-0
  6
Continuous
 62
   179
100
AcDbLine
 10
78.1482538027
 20
210.4901700428
 30
0.0
 11
84.1482538027
 21
210.4901700428
 31
0.0
  0
LINE
  5
5F
330
1F
100
AcDbEntity
  8
SLD-0
  6
Continuous
 62
   179
100
AcDbLine
 10
78.1482538027
 20
209.9901700428
 30
0.0
 11
78.1482538027
 21
212.9901700428
 31
0.0
  0
LINE
  5
60
330
1F
100
AcDbEntity
  8
SLD-0
  6
Continuous
 62
   179
100
AcDbLine
 10
83.6482538027
 20
213.4901700428
 30
0.0
 11
78.6482538027
 21
213.4901700428
 31
0.0
  0
LINE
  5
61
330
1F
100
AcDbEntity
  8
SLD-0
  6
Continuous
 62
   179
100
AcDbLine
 10
73.7559488027
 20
215.9901700428
 30
0.0
 11
78.3116758027
 21
213.3599200428
 31
0.0
  0
LINE
  5
62
330
1F
100
AcDbEntity
  8
SLD-0
  6
CENTER
 62
   179
100
AcDbLine
 10
80.3762538027
 20
170.9901700428
 30
0.0
 11
118.9042538027
 21
170.9901700428
 31
0.0
  0
LINE
  5
63
330
1F
100
AcDbEntity
  8
SLD-0
  6
Continuous
 62
   179
100
AcDbLine
 10
101.6482538027
 20
179.4901700428
 30
0.0
 11
101.6482538027
 21
162.4901700428
 31
0.0
  0
LINE
  5
64
330
1F
100
AcDbEntity
  8
SLD-0
  6
Continuous
 62
   179
100
AcDbLine
 10
100.6482538027
 20
180.4901700428
 30
0.0
 11
84.4482538027
 21
180.4901700428
 31
0.0
  0
LINE
  5
65
330
1F
100
AcDbEntity
  8
SLD-0
  6
Continuous
 62
   179
100
AcDbLine
 10
100.6482538027
 20
161.4901700428
 30
0.0
 11
84.4482538027
 21
161.4901700428
 31
0.0
  0
LINE
  5
66
330
1F
100
AcDbEntity
  8
SLD-0
  6
Continuous
 62
   179
100
AcDbLine
 10
84.1482538027
 20
180.1901700428
 30
0.0
 11
84.4482538027
 21
180.4901700428
 31
0.0
  0
LINE
  5
67
330
1F
100
AcDbEntity
  8
SLD-0
  6
Continuous
 62
   179
100
AcDbLine
 10
84.1482538027
 20
161.7901700428
 30
0.0
 11
84.4482538027
 21
161.4901700428
 31
0.0
  0
LINE
  5
68
330
1F
100
AcDbEntity
  8
SLD-0
  6
Continuous
 62
   179
100
AcDbLine
 10
101.6482538027
 20
179.4901700428
 30
0.0
 11
100.6482538027
 21
180.4901700428
 31
0.0
  0
LINE
  5
69
330
1F
100
AcDbEntity
  8
SLD-0
  6
Continuous
 62
   179
100
AcDbLine
 10
101.6482538027
 20
162.4901700428
 30
0.0
 11
100.6482538027
 21
161.4901700428
 31
0.0
  0
LINE
  5
6A
330
1F
100
AcDbEntity
  8
SLD-0
  6
Continuous
 62
   179
100
AcDbLine
 10
100.6482538027
 20
180.4901700428
 30
0.0
 11
100.6482538027
 21
161.4901700428
 31
0.0
  0
LINE
  5
6B
330
1F
100
AcDbEntity
  8
SLD-0
  6
Continuous
 62
   179
100
AcDbLine
 10
84.4482538027
 20
161.4901700428
 30
0.0
 11
84.4482538027
 21
180.4901700428
 31
0.0
  0
LINE
  5
6C
330
1F
100
AcDbEntity
  8
SLD-0
  6
Continuous
 62
   179
100
AcDbLine
 10
96.1482538027
 20
160.4901700428
 30
0.0
 11
98.1482538027
 21
160.4901700428
 31
0.0
  0
LINE
  5
6D
330
1F
100
AcDbEntity
  8
SLD-0
  6
Continuous
 62
   179
100
AcDbLine
 10
98.1482538027
 20
160.4901700428
 30
0.0
 11
98.1482538027
 21
156.4901700428
 31
0.0
  0
LINE
  5
6E
330
1F
100
AcDbEntity
  8
SLD-0
  6
Continuous
 62
   179
100
AcDbLine
 10
96.1482538027
 20
160.4901700428
 30
0.0
 11
96.1482538027
 21
157.4901700428
 31
0.0
  0
LINE
  5
6F
330
1F
100
AcDbEntity
  8
SLD-0
  6
Continuous
 62
   179
100
AcDbLine
 10
95.1482538027
 20
156.4901700428
 30
0.0
 11
47.1482538027
 21
156.4901700428
 31
0.0
  0
LINE
  5
70
330
1F
100
AcDbEntity
  8
SLD-0
  6
Continuous
 62
   179
100
AcDbLine
 10
96.1482538027
 20
154.4901700428
 30
0.0
 11
47.1482538027
 21
154.4901700428
 31
0.0
  0
LINE
  5
71
330
1F
100
AcDbEntity
  8
SLD-0
  6
CENTER
 62
   179
100
AcDbLine
 10
68.6482538027
 20
159.5671700428
 30
0.0
 11
68.6482538027
 21
145.8901700428
 31
0.0
  0
LINE
  5
72
330
1F
100
AcDbEntity
  8
SLD-0
  6
Continuous
 62
   179
100
AcDbLine
 10
75.1482538027
 20
154.4901700428
 30
0.0
 11
75.1482538027
 21
152.8901700428
 31
0.0
  0
LINE
  5
73
330
1F
100
AcDbEntity
  8
SLD-0
  6
Continuous
 62
   179
100
AcDbLine
 10
62.1482538027
 20
154.4901700428
 30
0.0
 11
62.1482538027
 21
152.8901700428
 31
0.0
  0
LINE
  5
74
330
1F
100
AcDbEntity
  8
SLD-0
  6
Continuous
 62
   179
100
AcDbLine
 10
105.1482538027
 20
177.8901700428
 30
0.0
 11
107.1482538027
 21
177.8901700428
 31
0.0
  0
LINE
  5
75
330
1F
100
AcDbEntity
  8
SLD-0
  6
Continuous
 62
   179
100
AcDbLine
 10
47.1482538027
 20
149.8901700428
 30
0.0
 11
47.1482538027
 21
147.8901700428
 31
0.0
  0
LINE
  5
76
330
1F
100
AcDbEntity
  8
SLD-0
  6
Continuous
 62
   179
100
AcDbLine
 10
57.1482538027
 20
149.8901700428
 30
0.0
 11
62.3444058027
 21
152.8901700428
 31
0.0
  0
LINE
  5
77
330
1F
100
AcDbEntity
  8
SLD-0
  6
Continuous
 62
   179
100
AcDbLine
 10
63.0535098027
 20
150.9901700428
 30
0.0
 11
57.6841518027
 21
147.8901700428
 31
0.0
  0
LINE
  5
78
330
1F
100
AcDbEntity
  8
SLD-0
  6
Continuous
 62
   179
100
AcDbLine
 10
81.7429978027
 20
150.9901700428
 30
0.0
 11
63.0535098027
 21
150.9901700428
 31
0.0
  0
LINE
  5
79
330
1F
100
AcDbEntity
  8
SLD-0
  6
Continuous
 62
   179
100
AcDbLine
 10
81.7429978027
 20
150.9901700428
 30
0.0
 11
87.1123558027
 21
147.8901700428
 31
0.0
  0
LINE
  5
7A
330
1F
100
AcDbEntity
  8
SLD-0
  6
Continuous
 62
   179
100
AcDbLine
 10
87.6482538027
 20
149.8901700428
 30
0.0
 11
82.4521018027
 21
152.8901700428
 31
0.0
  0
LINE
  5
7B
330
1F
100
AcDbEntity
  8
SLD-0
  6
Continuous
 62
   179
100
AcDbLine
 10
62.1482538027
 20
152.8901700428
 30
0.0
 11
82.4521018027
 21
152.8901700428
 31
0.0
  0
LINE
  5
7C
330
1F
100
AcDbEntity
  8
SLD-0
  6
Continuous
 62
   179
100
AcDbLine
 10
57.6841518027
 20
147.8901700428
 30
0.0
 11
47.1482538027
 21
147.8901700428
 31
0.0
  0
LINE
  5
7D
330
1F
100
AcDbEntity
  8
SLD-0
  6
Continuous
 62
   179
100
AcDbLine
 10
105.1482538027
 20
147.8901700428
 30
0.0
 11
87.1123558027
 21
147.8901700428
 31
0.0
  0
LINE
  5
7E
330
1F
100
AcDbEntity
  8
SLD-0
  6
Continuous
 62
   179
100
AcDbLine
 10
87.6482538027
 20
149.8901700428
 30
0.0
 11
104.1482538027
 21
149.8901700428
 31
0.0
  0
LINE
  5
7F
330
1F
100
AcDbEntity
  8
SLD-0
  6
Continuous
 62
   179
100
AcDbLine
 10
47.1482538027
 20
149.8901700428
 30
0.0
 11
57.1482538027
 21
149.8901700428
 31
0.0
  0
LINE
  5
80
330
1F
100
AcDbEntity
  8
SLD-0
  6
CENTER
 62
   179
100
AcDbLine
 10
95.1482538027
 20
151.8901700428
 30
0.0
 11
95.1482538027
 21
145.8901700428
 31
0.0
  0
LINE
  5
81
330
1F
100
AcDbEntity
  8
SLD-0
  6
CENTER
 62
   179
100
AcDbLine
 10
52.1482538027
 20
159.3701700428
 30
0.0
 11
52.1482538027
 21
145.8901700428
 31
0.0
  0
LINE
  5
82
330
1F
100
AcDbEntity
  8
SLD-0
  6
CENTER
 62
   179
100
AcDbLine
 10
100.4032538027
 20
157.3901700428
 30
0.0
 11
114.0352538027
 21
157.3901700428
 31
0.0
  0
LINE
  5
83
330
1F
100
AcDbEntity
  8
SLD-0
  6
Continuous
 62
   179
100
AcDbLine
 10
105.1482538027
 20
177.8901700428
 30
0.0
 11
105.1482538027
 21
150.8901700428
 31
0.0
  0
LINE
  5
84
330
1F
100
AcDbEntity
  8
SLD-0
  6
Continuous
 62
   179
100
AcDbLine
 10
107.1482538027
 20
177.8901700428
 30
0.0
 11
107.1482538027
 21
149.8901700428
 31
0.0
  0
LINE
  5
85
330
1F
100
AcDbEntity
  8
SLD-0
  6
Continuous
 62
   179
100
AcDbLine
 10
64.1482538027
 20
150.9901700428
 30
0.0
 11
64.1482538027
 21
150.3901700428
 31
0.0
  0
LINE
  5
86
330
1F
100
AcDbEntity
  8
SLD-0
  6
Continuous
 62
   179
100
AcDbLine
 10
64.1482538027
 20
150.3901700428
 30
0.0
 11
73.1482538027
 21
150.3901700428
 31
0.0
  0
LINE
  5
87
330
1F
100
AcDbEntity
  8
SLD-0
  6
Continuous
 62
   179
100
AcDbLine
 10
73.1482538027
 20
150.9901700428
 30
0.0
 11
73.1482538027
 21
150.3901700428
 31
0.0
  0
LINE
  5
88
330
1F
100
AcDbEntity
  8
SLD-0
  6
Continuous
 62
   179
100
AcDbLine
 10
107.7482538027
 20
176.4901700428
 30
0.0
 11
107.7482538027
 21
165.4901700428
 31
0.0
  0
LINE
  5
89
330
1F
100
AcDbEntity
  8
SLD-0
  6
Continuous
 62
   179
100
AcDbLine
 10
107.7482538027
 20
165.4901700428
 30
0.0
 11
107.1482538027
 21
165.4901700428
 31
0.0
  0
LINE
  5
8A
330
1F
100
AcDbEntity
  8
SLD-0
  6
Continuous
 62
   179
100
AcDbLine
 10
107.7482538027
 20
176.4901700428
 30
0.0
 11
107.1482538027
 21
176.4901700428
 31
0.0
  0
LINE
  5
8B
330
1F
100
AcDbEntity
  8
SLD-0
  6
Continuous
 62
   179
100
AcDbLine
 10
107.7482538027
 20
173.9901700428
 30
0.0
 11
108.7482538027
 21
173.9901700428
 31
0.0
  0
LINE
  5
8C
330
1F
100
AcDbEntity
  8
SLD-0
  6
Continuous
 62
   179
100
AcDbLine
 10
109.0482538027
 20
173.6901700428
 30
0.0
 11
109.0482538027
 21
168.2901700428
 31
0.0
  0
LINE
  5
8D
330
1F
100
AcDbEntity
  8
SLD-0
  6
Continuous
 62
   179
100
AcDbLine
 10
108.7482538027
 20
167.9901700428
 30
0.0
 11
107.7482538027
 21
167.9901700428
 31
0.0
  0
LINE
  5
8E
330
1F
100
AcDbEntity
  8
SLD-0
  6
Continuous
 62
   179
100
AcDbLine
 10
108.7482538027
 20
173.9901700428
 30
0.0
 11
109.0482538027
 21
173.6901700428
 31
0.0
  0
LINE
  5
8F
330
1F
100
AcDbEntity
  8
SLD-0
  6
Continuous
 62
   179
100
AcDbLine
 10
109.0482538027
 20
168.2901700428
 30
0.0
 11
108.7482538027
 21
167.9901700428
 31
0.0
  0
LINE
  5
90
330
1F
100
AcDbEntity
  8
SLD-0
  6
Continuous
 62
   179
100
AcDbLine
 10
108.7482538027
 20
173.9901700428
 30
0.0
 11
108.7482538027
 21
167.9901700428
 31
0.0
  0
LINE
  5
91
330
1F
100
AcDbEntity
  8
SLD-0
  6
Continuous
 62
   179
100
AcDbLine
 10
109.0482538027
 20
172.4901700428
 30
0.0
 11
111.0482538027
 21
172.4901700428
 31
0.0
  0
LINE
  5
92
330
1F
100
AcDbEntity
  8
SLD-0
  6
Continuous
 62
   179
100
AcDbLine
 10
111.0482538027
 20
172.7901700428
 30
0.0
 11
111.2482538027
 21
172.7901700428
 31
0.0
  0
LINE
  5
93
330
1F
100
AcDbEntity
  8
SLD-0
  6
Continuous
 62
   179
100
AcDbLine
 10
111.2482538027
 20
172.7901700428
 30
0.0
 11
113.5482538027
 21
172.4901700428
 31
0.0
  0
LINE
  5
94
330
1F
100
AcDbEntity
  8
SLD-0
  6
Continuous
 62
   179
100
AcDbLine
 10
113.5482538027
 20
172.7901700428
 30
0.0
 11
113.7482538027
 21
172.7901700428
 31
0.0
  0
LINE
  5
95
330
1F
100
AcDbEntity
  8
SLD-0
  6
Continuous
 62
   179
100
AcDbLine
 10
113.7482538027
 20
172.7901700428
 30
0.0
 11
116.5482538027
 21
172.4901700428
 31
0.0
  0
LINE
  5
96
330
1F
100
AcDbEntity
  8
SLD-0
  6
Continuous
 62
   179
100
AcDbLine
 10
116.5482538027
 20
172.4901700428
 30
0.0
 11
116.5482538027
 21
170.9901700428
 31
0.0
  0
LINE
  5
97
330
1F
100
AcDbEntity
  8
SLD-0
  6
Continuous
 62
   179
100
AcDbLine
 10
109.0482538027
 20
169.4901700428
 30
0.0
 11
111.0482538027
 21
169.4901700428
 31
0.0
  0
LINE
  5
98
330
1F
100
AcDbEntity
  8
SLD-0
  6
Continuous
 62
   179
100
AcDbLine
 10
111.0482538027
 20
169.1901700428
 30
0.0
 11
111.2482538027
 21
169.1901700428
 31
0.0
  0
LINE
  5
99
330
1F
100
AcDbEntity
  8
SLD-0
  6
Continuous
 62
   179
100
AcDbLine
 10
111.2482538027
 20
169.1901700428
 30
0.0
 11
113.5482538027
 21
169.4901700428
 31
0.0
  0
LINE
  5
9A
330
1F
100
AcDbEntity
  8
SLD-0
  6
Continuous
 62
   179
100
AcDbLine
 10
113.5482538027
 20
169.1901700428
 30
0.0
 11
113.7482538027
 21
169.1901700428
 31
0.0
  0
LINE
  5
9B
330
1F
100
AcDbEntity
  8
SLD-0
  6
Continuous
 62
   179
100
AcDbLine
 10
113.7482538027
 20
169.1901700428
 30
0.0
 11
116.5482538027
 21
169.4901700428
 31
0.0
  0
LINE
  5
9C
330
1F
100
AcDbEntity
  8
SLD-0
  6
Continuous
 62
   179
100
AcDbLine
 10
116.5482538027
 20
169.4901700428
 30
0.0
 11
116.5482538027
 21
170.9901700428
 31
0.0
  0
LINE
  5
9D
330
1F
100
AcDbEntity
  8
SLD-0
  6
Continuous
 62
   179
100
AcDbLine
 10
111.0482538027
 20
172.7901700428
 30
0.0
 11
111.0482538027
 21
169.1901700428
 31
0.0
  0
LINE
  5
9E
330
1F
100
AcDbEntity
  8
SLD-0
  6
Continuous
 62
   179
100
AcDbLine
 10
111.2482538027
 20
172.7901700428
 30
0.0
 11
111.2482538027
 21
169.1901700428
 31
0.0
  0
LINE
  5
9F
330
1F
100
AcDbEntity
  8
SLD-0
  6
Continuous
 62
   179
100
AcDbLine
 10
113.5482538027
 20
172.7901700428
 30
0.0
 11
113.5482538027
 21
169.1901700428
 31
0.0
  0
LINE
  5
A0
330
1F
100
AcDbEntity
  8
SLD-0
  6
Continuous
 62
   179
100
AcDbLine
 10
113.7482538027
 20
172.7901700428
 30
0.0
 11
113.7482538027
 21
169.1901700428
 31
0.0
  0
LINE
  5
A1
330
1F
100
AcDbEntity
  8
SLD-0
  6
Continuous
 62
   179
100
AcDbLine
 10
105.1482538027
 20
173.9901700428
 30
0.0
 11
105.0482538027
 21
173.9901700428
 31
0.0
  0
LINE
  5
A2
330
1F
100
AcDbEntity
  8
SLD-0
  6
Continuous
 62
   179
100
AcDbLine
 10
105.0482538027
 20
174.6901700428
 30
0.0
 11
105.0482538027
 21
167.2901700428
 31
0.0
  0
LINE
  5
A3
330
1F
100
AcDbEntity
  8
SLD-0
  6
Continuous
 62
   179
100
AcDbLine
 10
105.0482538027
 20
167.9901700428
 30
0.0
 11
105.1482538027
 21
167.9901700428
 31
0.0
  0
LINE
  5
A4
330
1F
100
AcDbEntity
  8
SLD-0
  6
Continuous
 62
   179
100
AcDbLine
 10
101.6482538027
 20
174.9901700428
 30
0.0
 11
104.7482538027
 21
174.9901700428
 31
0.0
  0
LINE
  5
A5
330
1F
100
AcDbEntity
  8
SLD-0
  6
Continuous
 62
   179
100
AcDbLine
 10
104.7482538027
 20
166.9901700428
 30
0.0
 11
101.6482538027
 21
166.9901700428
 31
0.0
  0
LINE
  5
A6
330
1F
100
AcDbEntity
  8
SLD-0
  6
Continuous
 62
   179
100
AcDbLine
 10
104.7482538027
 20
174.9901700428
 30
0.0
 11
105.0482538027
 21
174.6901700428
 31
0.0
  0
LINE
  5
A7
330
1F
100
AcDbEntity
  8
SLD-0
  6
Continuous
 62
   179
100
AcDbLine
 10
105.0482538027
 20
167.2901700428
 30
0.0
 11
104.7482538027
 21
166.9901700428
 31
0.0
  0
LINE
  5
A8
330
1F
100
AcDbEntity
  8
SLD-0
  6
Continuous
 62
   179
100
AcDbLine
 10
104.7482538027
 20
174.9901700428
 30
0.0
 11
104.7482538027
 21
166.9901700428
 31
0.0
  0
LINE
  5
A9
330
1F
100
AcDbEntity
  8
SLD-0
  6
Continuous
 62
   179
100
AcDbLine
 10
103.1482538027
 20
158.8901700428
 30
0.0
 11
103.1482538027
 21
155.8901700428
 31
0.0
  0
LINE
  5
AA
330
1F
100
AcDbEntity
  8
SLD-0
  6
Continuous
 62
   179
100
AcDbLine
 10
101.1482538027
 20
158.3901700428
 30
0.0
 11
101.1482538027
 21
156.3901700428
 31
0.0
  0
LINE
  5
AB
330
1F
100
AcDbEntity
  8
SLD-0
  6
Continuous
 62
   179
100
AcDbLine
 10
103.1482538027
 20
156.3901700428
 30
0.0
 11
101.1482538027
 21
156.3901700428
 31
0.0
  0
LINE
  5
AC
330
1F
100
AcDbEntity
  8
SLD-0
  6
Continuous
 62
   179
100
AcDbLine
 10
103.1482538027
 20
158.3901700428
 30
0.0
 11
101.1482538027
 21
158.3901700428
 31
0.0
  0
LINE
  5
AD
330
1F
100
AcDbEntity
  8
SLD-0
  6
Continuous
 62
   179
100
AcDbLine
 10
113.1482538027
 20
158.8901700428
 30
0.0
 11
113.1482538027
 21
155.8901700428
 31
0.0
  0
LINE
  5
AE
330
1F
100
AcDbEntity
  8
SLD-0
  6
Continuous
 62
   179
100
AcDbLine
 10
105.1482538027
 20
158.8901700428
 30
0.0
 11
103.1482538027
 21
158.8901700428
 31
0.0
  0
LINE
  5
AF
330
1F
100
AcDbEntity
  8
SLD-0
  6
Continuous
 62
   179
100
AcDbLine
 10
113.1482538027
 20
158.8901700428
 30
0.0
 11
109.1482538027
 21
158.8901700428
 31
0.0
  0
LINE
  5
B0
330
1F
100
AcDbEntity
  8
SLD-0
  6
Continuous
 62
   179
100
AcDbLine
 10
105.1482538027
 20
158.6401700428
 30
0.0
 11
103.1482538027
 21
158.6401700428
 31
0.0
  0
LINE
  5
B1
330
1F
100
AcDbEntity
  8
SLD-0
  6
Continuous
 62
   179
100
AcDbLine
 10
113.1482538027
 20
158.6401700428
 30
0.0
 11
109.1482538027
 21
158.6401700428
 31
0.0
  0
LINE
  5
B2
330
1F
100
AcDbEntity
  8
SLD-0
  6
Continuous
 62
   179
100
AcDbLine
 10
113.1482538027
 20
156.1401700428
 30
0.0
 11
109.1482538027
 21
156.1401700428
 31
0.0
  0
LINE
  5
B3
330
1F
100
AcDbEntity
  8
SLD-0
  6
Continuous
 62
   179
100
AcDbLine
 10
113.1482538027
 20
155.8901700428
 30
0.0
 11
109.1482538027
 21
155.8901700428
 31
0.0
  0
LINE
  5
B4
330
1F
100
AcDbEntity
  8
SLD-0
  6
Continuous
 62
   179
100
AcDbLine
 10
105.1482538027
 20
155.8901700428
 30
0.0
 11
103.1482538027
 21
155.8901700428
 31
0.0
  0
LINE
  5
B5
330
1F
100
AcDbEntity
  8
SLD-0
  6
Continuous
 62
   179
100
AcDbLine
 10
105.1482538027
 20
156.1401700428
 30
0.0
 11
103.1482538027
 21
156.1401700428
 31
0.0
  0
LINE
  5
B6
330
1F
100
AcDbEntity
  8
SLD-0
  6
Continuous
 62
   179
100
AcDbLine
 10
109.1482538027
 20
159.5552340428
 30
0.0
 11
109.1482538027
 21
155.2251060428
 31
0.0
  0
LINE
  5
B7
330
1F
100
AcDbEntity
  8
SLD-0
  6
Continuous
 62
   179
100
AcDbLine
 10
108.5482538027
 20
154.5034190428
 30
0.0
 11
107.1482538027
 21
154.5034190428
 31
0.0
  0
LINE
  5
B8
330
1F
100
AcDbEntity
  8
SLD-0
  6
Continuous
 62
   179
100
AcDbLine
 10
108.5482536232
 20
155.9467940428
 30
0.0
 11
107.1482536232
 21
155.9467940428
 31
0.0
  0
LINE
  5
B9
330
1F
100
AcDbEntity
  8
SLD-0
  6
Continuous
 62
   179
100
AcDbLine
 10
108.5482536232
 20
158.8335460428
 30
0.0
 11
107.1482536232
 21
158.8335460428
 31
0.0
  0
LINE
  5
BA
330
1F
100
AcDbEntity
  8
SLD-0
  6
Continuous
 62
   179
100
AcDbLine
 10
108.5482538027
 20
160.2769210428
 30
0.0
 11
107.1482538027
 21
160.2769210428
 31
0.0
  0
LINE
  5
BB
330
1F
100
AcDbEntity
  8
SLD-0
  6
CENTER
 62
   179
100
AcDbLine
 10
97.6172538027
 20
185.9901700428
 30
0.0
 11
80.3762538027
 21
185.9901700428
 31
0.0
  0
LINE
  5
BC
330
1F
100
AcDbEntity
  8
SLD-0
  6
Continuous
 62
   179
100
AcDbLine
 10
87.1482538027
 20
189.0212590428
 30
0.0
 11
87.1482538027
 21
182.9590810428
 31
0.0
  0
LINE
  5
BD
330
1F
100
AcDbEntity
  8
SLD-0
  6
Continuous
 62
   179
100
AcDbLine
 10
86.1482538027
 20
181.9487180428
 30
0.0
 11
84.1482538027
 21
181.9487180428
 31
0.0
  0
LINE
  5
BE
330
1F
100
AcDbEntity
  8
SLD-0
  6
Continuous
 62
   179
100
AcDbLine
 10
86.1482538027
 20
183.9694440428
 30
0.0
 11
84.1482538027
 21
183.9694440428
 31
0.0
  0
LINE
  5
BF
330
1F
100
AcDbEntity
  8
SLD-0
  6
Continuous
 62
   179
100
AcDbLine
 10
86.1482538027
 20
188.0108960428
 30
0.0
 11
84.1482538027
 21
188.0108960428
 31
0.0
  0
LINE
  5
C0
330
1F
100
AcDbEntity
  8
SLD-0
  6
Continuous
 62
   179
100
AcDbLine
 10
86.1482538027
 20
190.0316220428
 30
0.0
 11
84.1482538027
 21
190.0316220428
 31
0.0
  0
LINE
  5
C1
330
1F
100
AcDbEntity
  8
SLD-0
  6
Continuous
 62
   179
100
AcDbLine
 10
87.1482538027
 20
187.4901700428
 30
0.0
 11
89.1482538027
 21
187.4901700428
 31
0.0
  0
LINE
  5
C2
330
1F
100
AcDbEntity
  8
SLD-0
  6
Continuous
 62
   179
100
AcDbLine
 10
89.1482538027
 20
187.7901700428
 30
0.0
 11
89.3482538027
 21
187.7901700428
 31
0.0
  0
LINE
  5
C3
330
1F
100
AcDbEntity
  8
SLD-0
  6
Continuous
 62
   179
100
AcDbLine
 10
89.3482538027
 20
187.7901700428
 30
0.0
 11
91.6482538027
 21
187.4901700428
 31
0.0
  0
LINE
  5
C4
330
1F
100
AcDbEntity
  8
SLD-0
  6
Continuous
 62
   179
100
AcDbLine
 10
91.6482538027
 20
187.7901700428
 30
0.0
 11
91.8482538027
 21
187.7901700428
 31
0.0
  0
LINE
  5
C5
330
1F
100
AcDbEntity
  8
SLD-0
  6
Continuous
 62
   179
100
AcDbLine
 10
91.8482538027
 20
187.7901700428
 30
0.0
 11
94.6482538027
 21
187.4901700428
 31
0.0
  0
LINE
  5
C6
330
1F
100
AcDbEntity
  8
SLD-0
  6
Continuous
 62
   179
100
AcDbLine
 10
94.6482538027
 20
187.4901700428
 30
0.0
 11
94.6482538027
 21
185.9901700428
 31
0.0
  0
LINE
  5
C7
330
1F
100
AcDbEntity
  8
SLD-0
  6
Continuous
 62
   179
100
AcDbLine
 10
87.1482538027
 20
184.4901700428
 30
0.0
 11
89.1482538027
 21
184.4901700428
 31
0.0
  0
LINE
  5
C8
330
1F
100
AcDbEntity
  8
SLD-0
  6
Continuous
 62
   179
100
AcDbLine
 10
89.1482538027
 20
184.1901700428
 30
0.0
 11
89.3482538027
 21
184.1901700428
 31
0.0
  0
LINE
  5
C9
330
1F
100
AcDbEntity
  8
SLD-0
  6
Continuous
 62
   179
100
AcDbLine
 10
89.3482538027
 20
184.1901700428
 30
0.0
 11
91.6482538027
 21
184.4901700428
 31
0.0
  0
LINE
  5
CA
330
1F
100
AcDbEntity
  8
SLD-0
  6
Continuous
 62
   179
100
AcDbLine
 10
91.6482538027
 20
184.1901700428
 30
0.0
 11
91.8482538027
 21
184.1901700428
 31
0.0
  0
LINE
  5
CB
330
1F
100
AcDbEntity
  8
SLD-0
  6
Continuous
 62
   179
100
AcDbLine
 10
91.8482538027
 20
184.1901700428
 30
0.0
 11
94.6482538027
 21
184.4901700428
 31
0.0
  0
LINE
  5
CC
330
1F
100
AcDbEntity
  8
SLD-0
  6
Continuous
 62
   179
100
AcDbLine
 10
94.6482538027
 20
184.4901700428
 30
0.0
 11
94.6482538027
 21
185.9901700428
 31
0.0
  0
LINE
  5
CD
330
1F
100
AcDbEntity
  8
SLD-0
  6
Continuous
 62
   179
100
AcDbLine
 10
89.1482538027
 20
187.7901700428
 30
0.0
 11
89.1482538027
 21
184.1901700428
 31
0.0
  0
LINE
  5
CE
330
1F
100
AcDbEntity
  8
SLD-0
  6
Continuous
 62
   179
100
AcDbLine
 10
89.3482538027
 20
187.7901700428
 30
0.0
 11
89.3482538027
 21
184.1901700428
 31
0.0
  0
LINE
  5
CF
330
1F
100
AcDbEntity
  8
SLD-0
  6
Continuous
 62
   179
100
AcDbLine
 10
91.6482538027
 20
187.7901700428
 30
0.0
 11
91.6482538027
 21
184.1901700428
 31
0.0
  0
LINE
  5
D0
330
1F
100
AcDbEntity
  8
SLD-0
  6
Continuous
 62
   179
100
AcDbLine
 10
91.8482538027
 20
184.1901700428
 30
0.0
 11
91.8482538027
 21
187.7901700428
 31
0.0
  0
LINE
  5
D1
330
1F
100
AcDbEntity
  8
SLD-0
  6
Continuous
 62
   179
100
AcDbLine
 10
45.1482538027
 20
218.9901700428
 30
0.0
 11
45.1482538027
 21
204.9901700428
 31
0.0
  0
LINE
  5
D2
330
1F
100
AcDbEntity
  8
SLD-0
  6
Continuous
 62
   179
100
AcDbLine
 10
45.1482538027
 20
204.9901700428
 30
0.0
 11
45.1482538027
 21
154.9901700428
 31
0.0
  0
LINE
  5
D3
330
1F
100
AcDbEntity
  8
SLD-0
  6
Continuous
 62
   179
100
AcDbLine
 10
47.1482538027
 20
154.9901700428
 30
0.0
 11
45.1482538027
 21
154.9901700428
 31
0.0
  0
LINE
  5
D4
330
1F
100
AcDbEntity
  8
SLD-0
  6
Continuous
 62
   179
100
AcDbLine
 10
45.1482538027
 20
218.9901700428
 30
0.0
 11
47.1482538027
 21
218.9901700428
 31
0.0
  0
LINE
  5
D5
330
1F
100
AcDbEntity
  8
SLD-0
  6
Continuous
 62
   179
100
AcDbLine
 10
49.1171648027
 20
151.4901700428
 30
0.0
 11
55.1793428027
 21
151.4901700428
 31
0.0
  0
LINE
  5
D6
330
1F
100
AcDbEntity
  8
SLD-0
  6
Continuous
 62
   179
100
AcDbLine
 10
56.1897058027
 20
152.4901700428
 30
0.0
 11
56.1897058027
 21
154.4901700428
 31
0.0
  0
LINE
  5
D7
330
1F
100
AcDbEntity
  8
SLD-0
  6
Continuous
 62
   179
100
AcDbLine
 10
54.1689798027
 20
152.4901700428
 30
0.0
 11
54.1689798027
 21
154.4901700428
 31
0.0
  0
LINE
  5
D8
330
1F
100
AcDbEntity
  8
SLD-0
  6
Continuous
 62
   179
100
AcDbLine
 10
50.1275278027
 20
152.4901700428
 30
0.0
 11
50.1275278027
 21
154.4901700428
 31
0.0
  0
LINE
  5
D9
330
1F
100
AcDbEntity
  8
SLD-0
  6
Continuous
 62
   179
100
AcDbLine
 10
48.1068018027
 20
152.4901700428
 30
0.0
 11
48.1068018027
 21
154.4901700428
 31
0.0
  0
LINE
  5
DA
330
1F
100
AcDbEntity
  8
SLD-0
  6
Continuous
 62
   179
100
AcDbLine
 10
47.1482538027
 20
221.4901700428
 30
0.0
 11
48.1482538027
 21
221.4901700428
 31
0.0
  0
LINE
  5
DB
330
1F
100
AcDbEntity
  8
SLD-0
  6
Continuous
 62
   179
100
AcDbLine
 10
53.1482539231
 20
234.9901700085
 30
0.0
 11
54.1482539231
 21
234.9901700085
 31
0.0
  0
LINE
  5
DC
330
1F
100
AcDbEntity
  8
SLD-0
  6
Continuous
 62
   179
100
AcDbLine
 10
54.1482539231
 20
234.9901700085
 30
0.0
 11
54.1482539231
 21
215.9901700085
 31
0.0
  0
LINE
  5
DD
330
1F
100
AcDbEntity
  8
SLD-0
  6
Continuous
 62
   179
100
AcDbLine
 10
50.1482538027
 20
223.4901700428
 30
0.0
 11
50.1482538027
 21
224.4545160428
 31
0.0
  0
LINE
  5
DE
330
1F
100
AcDbEntity
  8
SLD-0
  6
Continuous
 62
   179
100
AcDbLine
 10
151.1482538027
 20
204.9901700428
 30
0.0
 11
170.1482538027
 21
204.9901700428
 31
0.0
  0
LINE
  5
DF
330
1F
100
AcDbEntity
  8
SLD-0
  6
Continuous
 62
   179
100
AcDbLine
 10
170.1482538027
 20
204.9901700428
 30
0.0
 11
170.1482538027
 21
156.9901700428
 31
0.0
  0
LINE
  5
E0
330
1F
100
AcDbEntity
  8
SLD-0
  6
Continuous
 62
   179
100
AcDbLine
 10
151.1482538027
 20
156.9901700428
 30
0.0
 11
151.1482538027
 21
204.9901700428
 31
0.0
  0
LINE
  5
E1
330
1F
100
AcDbEntity
  8
SLD-0
  6
Continuous
 62
   179
100
AcDbLine
 10
170.1482538027
 20
156.9901700428
 30
0.0
 11
170.1482538027
 21
156.4901700428
 31
0.0
  0
LINE
  5
E2
330
1F
100
AcDbEntity
  8
SLD-0
  6
Continuous
 62
   179
100
AcDbLine
 10
151.1482538027
 20
156.4901700428
 30
0.0
 11
151.1482538027
 21
156.9901700428
 31
0.0
  0
LINE
  5
E3
330
1F
100
AcDbEntity
  8
SLD-0
  6
Continuous
 62
   179
100
AcDbLine
 10
170.1482538027
 20
156.4901700428
 30
0.0
 11
170.1482538027
 21
154.4901700428
 31
0.0
  0
LINE
  5
E4
330
1F
100
AcDbEntity
  8
SLD-0
  6
Continuous
 62
   179
100
AcDbLine
 10
151.1482538027
 20
154.4901700428
 30
0.0
 11
151.1482538027
 21
156.4901700428
 31
0.0
  0
LINE
  5
E5
330
1F
100
AcDbEntity
  8
SLD-0
  6
Continuous
 62
   179
100
AcDbLine
 10
151.1482538027
 20
147.8901698888
 30
0.0
 11
170.1482538027
 21
147.8901698888
 31
0.0
  0
LINE
  5
E6
330
1F
100
AcDbEntity
  8
SLD-0
  6
Continuous
 62
   179
100
AcDbLine
 10
170.1482538027
 20
149.8901698888
 30
0.0
 11
170.1482538027
 21
147.8901698888
 31
0.0
  0
LINE
  5
E7
330
1F
100
AcDbEntity
  8
SLD-0
  6
Continuous
 62
   179
100
AcDbLine
 10
151.1482538027
 20
149.8901698888
 30
0.0
 11
151.1482538027
 21
147.8901698888
 31
0.0
  0
LINE
  5
E8
330
1F
100
AcDbEntity
  8
SLD-0
  6
CENTER
 62
   179
100
AcDbLine
 10
170.1482538027
 20
170.9901700428
 30
0.0
 11
151.1482538027
 21
170.9901700428
 31
0.0
  0
LINE
  5
E9
330
1F
100
AcDbEntity
  8
SLD-0
  6
Continuous
 62
   179
100
AcDbLine
 10
151.1482538027
 20
149.8901698888
 30
0.0
 11
153.6950788027
 21
171.7984718888
 31
0.0
  0
LINE
  5
EA
330
1F
100
AcDbEntity
  8
SLD-0
  6
Continuous
 62
   179
100
AcDbLine
 10
170.1482538027
 20
149.8901698888
 30
0.0
 11
167.6014288027
 21
171.7984718888
 31
0.0
  0
LINE
  5
EB
330
1F
100
AcDbEntity
  8
SLD-0
  6
Continuous
 62
   179
100
AcDbLine
 10
158.7717138027
 20
173.3308108888
 30
0.0
 11
156.1544758027
 21
174.1612828888
 31
0.0
  0
LINE
  5
EC
330
1F
100
AcDbEntity
  8
SLD-0
  6
Continuous
 62
   179
100
AcDbLine
 10
158.7717138027
 20
168.6495288888
 30
0.0
 11
156.1544758027
 21
167.8190568888
 31
0.0
  0
LINE
  5
ED
330
1F
100
AcDbEntity
  8
SLD-0
  6
Continuous
 62
   179
100
AcDbLine
 10
163.4673319474
 20
172.0162299415
 30
0.0
 11
164.4070239474
 21
172.3582509415
 31
0.0
  0
LINE
  5
EE
330
1F
100
AcDbEntity
  8
SLD-0
  6
Continuous
 62
   179
100
AcDbLine
 10
163.4673319474
 20
169.9641098361
 30
0.0
 11
164.4070239474
 21
169.6220888361
 31
0.0
  0
LINE
  5
EF
330
1F
100
AcDbEntity
  8
SLD-0
  6
CENTER
 62
   179
100
AcDbLine
 10
160.6482538027
 20
174.9901697347
 30
0.0
 11
160.6482538027
 21
224.1101697347
 31
0.0
  0
LINE
  5
F0
330
1F
100
AcDbEntity
  8
SLD-0
  6
CENTER
 62
   179
100
AcDbLine
 10
160.6482538027
 20
145.8901700428
 30
0.0
 11
160.6482538027
 21
166.9901700428
 31
0.0
  0
LINE
  5
F1
330
1F
100
AcDbEntity
  8
SLD-0
  6
Continuous
 62
   179
100
AcDbLine
 10
160.6482538027
 20
167.9901700428
 30
0.0
 11
160.6482538027
 21
166.9901700428
 31
0.0
  0
LINE
  5
F2
330
1F
100
AcDbEntity
  8
SLD-0
  6
Continuous
 62
   179
100
AcDbLine
 10
160.6482538027
 20
173.9901700428
 30
0.0
 11
160.6482538027
 21
174.9901697347
 31
0.0
  0
LINE
  5
F3
330
1F
100
AcDbEntity
  8
SLD-0
  6
Continuous
 62
   179
100
AcDbLine
 10
170.1482538027
 20
156.9901700428
 30
0.0
 11
169.3228838027
 21
156.9901700428
 31
0.0
  0
LINE
  5
F4
330
1F
100
AcDbEntity
  8
SLD-0
  6
Continuous
 62
   179
100
AcDbLine
 10
151.9736238027
 20
156.9901700428
 30
0.0
 11
151.1482538027
 21
156.9901700428
 31
0.0
  0
LINE
  5
F5
330
1F
100
AcDbEntity
  8
SLD-0
  6
Continuous
 62
   179
100
AcDbLine
 10
151.9154988027
 20
156.4901700428
 30
0.0
 11
151.1482538027
 21
156.4901700428
 31
0.0
  0
LINE
  5
F6
330
1F
100
AcDbEntity
  8
SLD-0
  6
Continuous
 62
   179
100
AcDbLine
 10
170.1482538027
 20
156.4901700428
 30
0.0
 11
169.3810088027
 21
156.4901700428
 31
0.0
  0
LINE
  5
F7
330
1F
100
AcDbEntity
  8
SLD-0
  6
Continuous
 62
   179
100
AcDbLine
 10
170.1482538027
 20
154.4901700428
 30
0.0
 11
169.6135068027
 21
154.4901700428
 31
0.0
  0
LINE
  5
F8
330
1F
100
AcDbEntity
  8
SLD-0
  6
Continuous
 62
   179
100
AcDbLine
 10
151.6830008027
 20
154.4901700428
 30
0.0
 11
151.1482538027
 21
154.4901700428
 31
0.0
  0
LINE
  5
F9
330
1F
100
AcDbEntity
  8
SLD-0
  6
CENTER
 62
   179
100
AcDbLine
 10
156.4702538027
 20
157.3901700428
 30
0.0
 11
164.8278728027
 21
157.3901700428
 31
0.0
  0
LINE
  5
FA
330
1F
100
AcDbEntity
  8
SLD-0
  6
Continuous
 62
   179
100
AcDbLine
 10
160.6482538027
 20
160.2769210428
 30
0.0
 11
163.1482538027
 21
158.8335460428
 31
0.0
  0
LINE
  5
FB
330
1F
100
AcDbEntity
  8
SLD-0
  6
Continuous
 62
   179
100
AcDbLine
 10
163.1482538027
 20
158.8335460428
 30
0.0
 11
163.1482538027
 21
155.9467940428
 31
0.0
  0
LINE
  5
FC
330
1F
100
AcDbEntity
  8
SLD-0
  6
Continuous
 62
   179
100
AcDbLine
 10
163.1482538027
 20
155.9467940428
 30
0.0
 11
160.6482538027
 21
154.5034190428
 31
0.0
  0
LINE
  5
FD
330
1F
100
AcDbEntity
  8
SLD-0
  6
Continuous
 62
   179
100
AcDbLine
 10
160.6482538027
 20
154.5034190428
 30
0.0
 11
158.1482538027
 21
155.9467940428
 31
0.0
  0
LINE
  5
FE
330
1F
100
AcDbEntity
  8
SLD-0
  6
Continuous
 62
   179
100
AcDbLine
 10
158.1482538027
 20
155.9467940428
 30
0.0
 11
158.1482538027
 21
158.8335460428
 31
0.0
  0
LINE
  5
FF
330
1F
100
AcDbEntity
  8
SLD-0
  6
Continuous
 62
   179
100
AcDbLine
 10
158.1482538027
 20
158.8335460428
 30
0.0
 11
160.6482538027
 21
160.2769210428
 31
0.0
  0
LINE
  5
100
330
1F
100
AcDbEntity
  8
SLD-0
  6
Continuous
 62
   179
100
AcDbLine
 10
160.6482538027
 20
158.2561950428
 30
0.0
 11
161.3982538027
 21
157.8231830428
 31
0.0
  0
LINE
  5
101
330
1F
100
AcDbEntity
  8
SLD-0
  6
Continuous
 62
   179
100
AcDbLine
 10
161.3982538027
 20
157.8231830428
 30
0.0
 11
161.3982538027
 21
156.9571570428
 31
0.0
  0
LINE
  5
102
330
1F
100
AcDbEntity
  8
SLD-0
  6
Continuous
 62
   179
100
AcDbLine
 10
161.3982538027
 20
156.9571570428
 30
0.0
 11
160.6482538027
 21
156.5241450428
 31
0.0
  0
LINE
  5
103
330
1F
100
AcDbEntity
  8
SLD-0
  6
Continuous
 62
   179
100
AcDbLine
 10
160.6482538027
 20
156.5241450428
 30
0.0
 11
159.8982538027
 21
156.9571570428
 31
0.0
  0
LINE
  5
104
330
1F
100
AcDbEntity
  8
SLD-0
  6
Continuous
 62
   179
100
AcDbLine
 10
159.8982538027
 20
156.9571570428
 30
0.0
 11
159.8982538027
 21
157.8231830428
 31
0.0
  0
LINE
  5
105
330
1F
100
AcDbEntity
  8
SLD-0
  6
Continuous
 62
   179
100
AcDbLine
 10
159.8982538027
 20
157.8231830428
 30
0.0
 11
160.6482538027
 21
158.2561950428
 31
0.0
  0
LINE
  5
106
330
1F
100
AcDbEntity
  8
SLD-0
  6
CENTER
 62
   179
100
AcDbLine
 10
160.6482538027
 20
173.9901700428
 30
0.0
 11
160.6482538027
 21
167.9901700428
 31
0.0
  0
LINE
  5
107
330
1F
100
AcDbEntity
  8
SLD-0
  6
Continuous
 62
   179
100
AcDbLine
 10
166.1482538027
 20
190.0316220428
 30
0.0
 11
169.6482538027
 21
188.0108960428
 31
0.0
  0
LINE
  5
108
330
1F
100
AcDbEntity
  8
SLD-0
  6
Continuous
 62
   179
100
AcDbLine
 10
169.6482538027
 20
188.0108960428
 30
0.0
 11
169.6482538027
 21
183.9694440428
 31
0.0
  0
LINE
  5
109
330
1F
100
AcDbEntity
  8
SLD-0
  6
Continuous
 62
   179
100
AcDbLine
 10
169.6482538027
 20
183.9694440428
 30
0.0
 11
166.1482538027
 21
181.9487180428
 31
0.0
  0
LINE
  5
10A
330
1F
100
AcDbEntity
  8
SLD-0
  6
Continuous
 62
   179
100
AcDbLine
 10
166.1482538027
 20
181.9487180428
 30
0.0
 11
162.6482538027
 21
183.9694440428
 31
0.0
  0
LINE
  5
10B
330
1F
100
AcDbEntity
  8
SLD-0
  6
Continuous
 62
   179
100
AcDbLine
 10
162.6482538027
 20
183.9694440428
 30
0.0
 11
162.6482538027
 21
188.0108960428
 31
0.0
  0
LINE
  5
10C
330
1F
100
AcDbEntity
  8
SLD-0
  6
Continuous
 62
   179
100
AcDbLine
 10
162.6482538027
 20
188.0108960428
 30
0.0
 11
166.1482538027
 21
190.0316220428
 31
0.0
  0
LINE
  5
10D
330
1F
100
AcDbEntity
  8
SLD-0
  6
CENTER
 62
   179
100
AcDbLine
 10
166.1482538027
 20
190.9901700428
 30
0.0
 11
166.1482538027
 21
180.9901700428
 31
0.0
  0
LINE
  5
10E
330
1F
100
AcDbEntity
  8
SLD-0
  6
CENTER
 62
   179
100
AcDbLine
 10
161.1482538027
 20
185.9901700428
 30
0.0
 11
171.1482538027
 21
185.9901700428
 31
0.0
  0
LINE
  5
10F
330
1F
100
AcDbEntity
  8
SLD-0
  6
Continuous
 62
   179
100
AcDbLine
 10
151.1482538027
 20
204.9901700428
 30
0.0
 11
151.1482538027
 21
215.9901700428
 31
0.0
  0
LINE
  5
110
330
1F
100
AcDbEntity
  8
SLD-0
  6
Continuous
 62
   179
100
AcDbLine
 10
170.1482538027
 20
215.9901700428
 30
0.0
 11
170.1482538027
 21
204.9901700428
 31
0.0
  0
LINE
  5
111
330
1F
100
AcDbEntity
  8
SLD-0
  6
Continuous
 62
   179
100
AcDbLine
 10
151.1482538027
 20
209.9901700428
 30
0.0
 11
170.1482538027
 21
209.9901700428
 31
0.0
  0
LINE
  5
112
330
1F
100
AcDbEntity
  8
SLD-0
  6
CENTER
 62
   179
100
AcDbLine
 10
154.1482538027
 20
215.2916850428
 30
0.0
 11
154.1482538027
 21
207.5170820428
 31
0.0
  0
LINE
  5
113
330
1F
100
AcDbEntity
  8
SLD-0
  6
Continuous
 62
   179
100
AcDbLine
 10
151.1482538027
 20
213.7429470428
 30
0.0
 11
156.6482538027
 21
213.7429470428
 31
0.0
  0
LINE
  5
114
330
1F
100
AcDbEntity
  8
SLD-0
  6
Continuous
 62
   179
100
AcDbLine
 10
170.1482538027
 20
213.7429470428
 30
0.0
 11
164.6482538027
 21
213.7429470428
 31
0.0
  0
LINE
  5
115
330
1F
100
AcDbEntity
  8
SLD-0
  6
Continuous
 62
   179
100
AcDbLine
 10
157.6482538027
 20
212.7429470428
 30
0.0
 11
157.6482538027
 21
209.9901700428
 31
0.0
  0
LINE
  5
116
330
1F
100
AcDbEntity
  8
SLD-0
  6
Continuous
 62
   179
100
AcDbLine
 10
163.6482538027
 20
212.7429470428
 30
0.0
 11
163.6482538027
 21
209.9901700428
 31
0.0
  0
LINE
  5
117
330
1F
100
AcDbEntity
  8
SLD-0
  6
Continuous
 62
   179
100
AcDbLine
 10
170.1482538027
 20
210.4901700428
 30
0.0
 11
164.1482538027
 21
210.4901700428
 31
0.0
  0
LINE
  5
118
330
1F
100
AcDbEntity
  8
SLD-0
  6
Continuous
 62
   179
100
AcDbLine
 10
157.1482538027
 20
210.4901700428
 30
0.0
 11
151.1482538027
 21
210.4901700428
 31
0.0
  0
LINE
  5
119
330
1F
100
AcDbEntity
  8
SLD-0
  6
Continuous
 62
   179
100
AcDbLine
 10
157.1482538027
 20
210.4901700428
 30
0.0
 11
157.1482538027
 21
209.9901700428
 31
0.0
  0
LINE
  5
11A
330
1F
100
AcDbEntity
  8
SLD-0
  6
Continuous
 62
   179
100
AcDbLine
 10
164.1482538027
 20
210.4901700428
 30
0.0
 11
164.1482538027
 21
209.9901700428
 31
0.0
  0
LINE
  5
11B
330
1F
100
AcDbEntity
  8
SLD-0
  6
Continuous
 62
   179
100
AcDbLine
 10
157.1482538027
 20
210.4901700428
 30
0.0
 11
157.1482538027
 21
212.9901700428
 31
0.0
  0
LINE
  5
11C
330
1F
100
AcDbEntity
  8
SLD-0
  6
Continuous
 62
   179
100
AcDbLine
 10
151.6482538027
 20
213.4901700428
 30
0.0
 11
156.6482538027
 21
213.4901700428
 31
0.0
  0
LINE
  5
11D
330
1F
100
AcDbEntity
  8
SLD-0
  6
Continuous
 62
   179
100
AcDbLine
 10
169.6482538027
 20
213.4901700428
 30
0.0
 11
164.6482538027
 21
213.4901700428
 31
0.0
  0
LINE
  5
11E
330
1F
100
AcDbEntity
  8
SLD-0
  6
Continuous
 62
   179
100
AcDbLine
 10
164.1482538027
 20
212.9901700428
 30
0.0
 11
164.1482538027
 21
210.4901700428
 31
0.0
  0
LINE
  5
11F
330
1F
100
AcDbEntity
  8
SLD-0
  6
CENTER
 62
   179
100
AcDbLine
 10
167.1482538027
 20
215.2916850428
 30
0.0
 11
167.1482538027
 21
207.5170820428
 31
0.0
  0
LINE
  5
120
330
1F
100
AcDbEntity
  8
SLD-0
  6
Continuous
 62
   179
100
AcDbLine
 10
151.1482538027
 20
215.9901700428
 30
0.0
 11
170.1482538027
 21
215.9901700428
 31
0.0
  0
LINE
  5
121
330
1F
100
AcDbEntity
  8
SLD-0
  6
Continuous
 62
   179
100
AcDbLine
 10
154.1482538027
 20
218.9901700428
 30
0.0
 11
154.3870338027
 21
218.9901700428
 31
0.0
  0
LINE
  5
122
330
1F
100
AcDbEntity
  8
SLD-0
  6
Continuous
 62
   179
100
AcDbLine
 10
166.9094738027
 20
218.9901700428
 30
0.0
 11
167.1482538027
 21
218.9901700428
 31
0.0
  0
LINE
  5
123
330
1F
100
AcDbEntity
  8
SLD-0
  6
Continuous
 62
   179
100
AcDbLine
 10
107.1482538027
 20
94.9901700428
 30
0.0
 11
47.6482538027
 21
94.9901700428
 31
0.0
  0
LINE
  5
124
330
1F
100
AcDbEntity
  8
SLD-0
  6
Continuous
 62
   179
100
AcDbLine
 10
47.1482538027
 20
94.4901700428
 30
0.0
 11
47.1482538027
 21
76.4901700428
 31
0.0
  0
LINE
  5
125
330
1F
100
AcDbEntity
  8
SLD-0
  6
Continuous
 62
   179
100
AcDbLine
 10
47.6482538027
 20
75.9901700428
 30
0.0
 11
107.1482538027
 21
75.9901700428
 31
0.0
  0
LINE
  5
126
330
1F
100
AcDbEntity
  8
SLD-0
  6
Continuous
 62
   179
100
AcDbLine
 10
107.1482538027
 20
75.9901700428
 30
0.0
 11
107.1482538027
 21
94.9901700428
 31
0.0
  0
LINE
  5
127
330
1F
100
AcDbEntity
  8
SLD-0
  6
Continuous
 62
   179
100
AcDbLine
 10
57.6841518027
 20
94.9901700428
 30
0.0
 11
57.6841518027
 21
75.9901700428
 31
0.0
  0
LINE
  5
128
330
1F
100
AcDbEntity
  8
SLD-0
  6
Continuous
 62
   179
100
AcDbLine
 10
63.0535098027
 20
94.9901700428
 30
0.0
 11
63.0535098027
 21
75.9901700428
 31
0.0
  0
LINE
  5
129
330
1F
100
AcDbEntity
  8
SLD-0
  6
Continuous
 62
   179
100
AcDbLine
 10
81.7429978027
 20
94.9901700428
 30
0.0
 11
81.7429978027
 21
75.9901700428
 31
0.0
  0
LINE
  5
12A
330
1F
100
AcDbEntity
  8
SLD-0
  6
Continuous
 62
   179
100
AcDbLine
 10
87.1123558027
 20
94.9901700428
 30
0.0
 11
87.1123558027
 21
75.9901700428
 31
0.0
  0
LINE
  5
12B
330
1F
100
AcDbEntity
  8
SLD-0
  6
CENTER
 62
   179
100
AcDbLine
 10
68.6482538027
 20
97.1341700428
 30
0.0
 11
68.6482538027
 21
73.3027330428
 31
0.0
  0
LINE
  5
12C
330
1F
100
AcDbEntity
  8
SLD-0
  6
Continuous
 62
   179
100
AcDbLine
 10
72.1482538027
 20
94.7401700428
 30
0.0
 11
65.1482538027
 21
94.7401700428
 31
0.0
  0
LINE
  5
12D
330
1F
100
AcDbEntity
  8
SLD-0
  6
Continuous
 62
   179
100
AcDbLine
 10
64.1482538027
 20
93.7401700428
 30
0.0
 11
64.1482538027
 21
77.2401700428
 31
0.0
  0
LINE
  5
12E
330
1F
100
AcDbEntity
  8
SLD-0
  6
Continuous
 62
   179
100
AcDbLine
 10
65.1482538027
 20
76.2401700428
 30
0.0
 11
72.1482538027
 21
76.2401700428
 31
0.0
  0
LINE
  5
12F
330
1F
100
AcDbEntity
  8
SLD-0
  6
Continuous
 62
   179
100
AcDbLine
 10
73.1482538027
 20
77.2401700428
 30
0.0
 11
73.1482538027
 21
93.7401700428
 31
0.0
  0
LINE
  5
130
330
1F
100
AcDbEntity
  8
SLD-0
  6
CENTER
 62
   179
100
AcDbLine
 10
72.1282538027
 20
89.2401700428
 30
0.0
 11
65.0162538027
 21
89.2401700428
 31
0.0
  0
LINE
  5
131
330
1F
100
AcDbEntity
  8
SLD-0
  6
CENTER
 62
   179
100
AcDbLine
 10
72.1282538027
 20
81.7401700428
 30
0.0
 11
65.0162538027
 21
81.7401700428
 31
0.0
  0
LINE
  5
132
330
1F
100
AcDbEntity
  8
SLD-0
  6
CENTER
 62
   179
100
AcDbLine
 10
95.1482538027
 20
95.9901700428
 30
0.0
 11
95.1482538027
 21
88.9901700428
 31
0.0
  0
LINE
  5
133
330
1F
100
AcDbEntity
  8
SLD-0
  6
CENTER
 62
   179
100
AcDbLine
 10
91.6482538027
 20
92.4901700428
 30
0.0
 11
98.6482538027
 21
92.4901700428
 31
0.0
  0
LINE
  5
134
330
1F
100
AcDbEntity
  8
SLD-0
  6
CENTER
 62
   179
100
AcDbLine
 10
95.1482538027
 20
81.9901700428
 30
0.0
 11
95.1482538027
 21
74.9901700428
 31
0.0
  0
LINE
  5
135
330
1F
100
AcDbEntity
  8
SLD-0
  6
CENTER
 62
   179
100
AcDbLine
 10
91.6482538027
 20
78.4901700428
 30
0.0
 11
98.6482538027
 21
78.4901700428
 31
0.0
  0
LINE
  5
136
330
1F
100
AcDbEntity
  8
SLD-0
  6
CENTER
 62
   179
100
AcDbLine
 10
52.1482538027
 20
95.9901700428
 30
0.0
 11
52.1482538027
 21
88.9901700428
 31
0.0
  0
LINE
  5
137
330
1F
100
AcDbEntity
  8
SLD-0
  6
CENTER
 62
   179
100
AcDbLine
 10
48.6482538027
 20
92.4901700428
 30
0.0
 11
55.6482538027
 21
92.4901700428
 31
0.0
  0
LINE
  5
138
330
1F
100
AcDbEntity
  8
SLD-0
  6
CENTER
 62
   179
100
AcDbLine
 10
52.1482538027
 20
81.9901700428
 30
0.0
 11
52.1482538027
 21
74.9901700428
 31
0.0
  0
LINE
  5
139
330
1F
100
AcDbEntity
  8
SLD-0
  6
CENTER
 62
   179
100
AcDbLine
 10
48.6482538027
 20
78.4901700428
 30
0.0
 11
55.6482538027
 21
78.4901700428
 31
0.0
  0
LINE
  5
13A
330
1F
100
AcDbEntity
  8
SLD-0
  6
Continuous
 62
   179
100
AcDbLine
 10
47.6482538027
 20
94.9901700428
 30
0.0
 11
45.1482538027
 21
94.9901700428
 31
0.0
  0
LINE
  5
13B
330
1F
100
AcDbEntity
  8
SLD-0
  6
Continuous
 62
   179
100
AcDbLine
 10
45.1482538027
 20
94.9901700428
 30
0.0
 11
45.1482538027
 21
75.9901700428
 31
0.0
  0
LINE
  5
13C
330
1F
100
AcDbEntity
  8
SLD-0
  6
Continuous
 62
   179
100
AcDbLine
 10
45.1482538027
 20
75.9901700428
 30
0.0
 11
47.6482538027
 21
75.9901700428
 31
0.0
  0
LINE
  5
13D
330
1F
100
AcDbEntity
  8
SLD-0
  6
Continuous
 62
   179
100
AcDbLine
 10
47.6482538027
 20
94.9901700428
 30
0.0
 11
47.1482538027
 21
94.4901700428
 31
0.0
  0
LINE
  5
13E
330
1F
100
AcDbEntity
  8
SLD-0
  6
Continuous
 62
   179
100
AcDbLine
 10
47.1482538027
 20
76.4901700428
 30
0.0
 11
47.6482538027
 21
75.9901700428
 31
0.0
  0
LINE
  5
13F
330
1F
100
AcDbEntity
  8
SLD-0
  6
Continuous
 62
   179
100
AcDbLine
 10
109.1482538027
 20
86.7401700428
 30
0.0
 11
109.1482538027
 21
84.2401700428
 31
0.0
  0
LINE
  5
140
330
1F
100
AcDbEntity
  8
SLD-0
  6
Continuous
 62
   179
100
AcDbLine
 10
113.1482538027
 20
86.9901700428
 30
0.0
 11
109.1482538027
 21
86.9901700428
 31
0.0
  0
LINE
  5
141
330
1F
100
AcDbEntity
  8
SLD-0
  6
Continuous
 62
   179
100
AcDbLine
 10
113.1482538027
 20
86.7401700428
 30
0.0
 11
109.1482538027
 21
86.7401700428
 31
0.0
  0
LINE
  5
142
330
1F
100
AcDbEntity
  8
SLD-0
  6
Continuous
 62
   179
100
AcDbLine
 10
113.1482538027
 20
84.2401700428
 30
0.0
 11
109.1482538027
 21
84.2401700428
 31
0.0
  0
LINE
  5
143
330
1F
100
AcDbEntity
  8
SLD-0
  6
Continuous
 62
   179
100
AcDbLine
 10
113.1482538027
 20
86.9901700428
 30
0.0
 11
113.1482538027
 21
83.9901700428
 31
0.0
  0
LINE
  5
144
330
1F
100
AcDbEntity
  8
SLD-0
  6
Continuous
 62
   179
100
AcDbLine
 10
113.1482538027
 20
83.9901700428
 30
0.0
 11
109.1482538027
 21
83.9901700428
 31
0.0
  0
LINE
  5
145
330
1F
100
AcDbEntity
  8
SLD-0
  6
CENTER
 62
   179
100
AcDbLine
 10
42.7442538027
 20
85.4901700428
 30
0.0
 11
107.1482538027
 21
85.4901700428
 31
0.0
  0
LINE
  5
146
330
1F
100
AcDbEntity
  8
SLD-0
  6
CENTER
 62
   179
100
AcDbLine
 10
109.1482538027
 20
85.4901700428
 30
0.0
 11
115.2702538027
 21
85.4901700428
 31
0.0
  0
LINE
  5
147
330
1F
100
AcDbEntity
  8
SLD-0
  6
Continuous
 62
   179
100
AcDbLine
 10
107.1482538027
 20
85.4901700428
 30
0.0
 11
108.4815868027
 21
85.4901700428
 31
0.0
  0
LINE
  5
148
330
1F
100
AcDbEntity
  8
SLD-0
  6
Continuous
 62
   179
100
AcDbLine
 10
108.4815868027
 20
82.9901700428
 30
0.0
 11
107.1482538027
 21
82.9901700428
 31
0.0
  0
LINE
  5
149
330
1F
100
AcDbEntity
  8
SLD-0
  6
Continuous
 62
   179
100
AcDbLine
 10
108.4815868027
 20
87.9901700428
 30
0.0
 11
107.1482538027
 21
87.9901700428
 31
0.0
  0
LINE
  5
14A
330
1F
100
AcDbEntity
  8
SLD-0
  6
Continuous
 62
   179
100
AcDbLine
 10
163.2113412723
 20
234.8738585775
 30
0.0
 11
162.1482532723
 21
233.9412045775
 31
0.0
  0
LINE
  5
14B
330
1F
100
AcDbEntity
  8
SLD-0
  6
Continuous
 62
   179
100
AcDbLine
 10
159.1482542143
 20
233.9412049215
 30
0.0
 11
158.0851662143
 21
234.8738589215
 31
0.0
  0
LINE
  5
14C
330
1F
100
AcDbEntity
  8
SLD-0
  6
Continuous
 62
   179
100
AcDbLine
 10
157.6262383069
 20
234.2290854777
 30
0.0
 11
158.2710123069
 21
224.3636034777
 31
0.0
  0
LINE
  5
14D
330
1F
100
AcDbEntity
  8
SLD-0
  6
Continuous
 62
   179
100
AcDbLine
 10
163.6702688027
 20
234.2290850428
 30
0.0
 11
163.0254948027
 21
224.3636030428
 31
0.0
  0
LINE
  5
14E
330
1F
100
AcDbEntity
  8
SLD-0
  6
Continuous
 62
   179
100
AcDbLine
 10
155.4730518027
 20
221.1743380428
 30
0.0
 11
154.2257128027
 21
221.0928160428
 31
0.0
  0
LINE
  5
14F
330
1F
100
AcDbEntity
  8
SLD-0
  6
Continuous
 62
   179
100
AcDbLine
 10
165.8234553069
 20
221.1743376079
 30
0.0
 11
167.0707943069
 21
221.0928156079
 31
0.0
  0
LINE
  5
150
330
1F
100
AcDbEntity
  8
SLD-0
  6
Continuous
 62
   179
100
AcDbLine
 10
159.5623616839
 20
219.9384013869
 30
0.0
 11
159.4645356839
 21
221.4352083869
 31
0.0
  0
LINE
  5
151
330
1F
100
AcDbEntity
  8
SLD-0
  6
Continuous
 62
   179
100
AcDbLine
 10
161.8319718027
 20
221.4352080428
 30
0.0
 11
161.7341458027
 21
219.9384010428
 31
0.0
  0
LINE
  5
152
330
1F
100
AcDbEntity
  8
SLD-0
  6
Continuous
 62
   179
100
AcDbLine
 10
159.1482542143
 20
233.9412049215
 30
0.0
 11
159.9308632143
 21
221.9667519215
 31
0.0
  0
LINE
  5
153
330
1F
100
AcDbEntity
  8
SLD-0
  6
Continuous
 62
   179
100
AcDbLine
 10
162.1482532723
 20
233.9412045775
 30
0.0
 11
161.3656442723
 21
221.9667515775
 31
0.0
  0
LINE
  5
154
330
1F
100
AcDbEntity
  8
SLD-0
  6
Continuous
 62
   179
100
AcDbLine
 10
167.1073316839
 20
221.6518586988
 30
0.0
 11
166.7373036839
 21
215.9901696988
 31
0.0
  0
LINE
  5
155
330
1F
100
AcDbEntity
  8
SLD-0
  6
Continuous
 62
   179
100
AcDbLine
 10
154.1891758027
 20
221.6518590428
 30
0.0
 11
154.5592038027
 21
215.9901700428
 31
0.0
  0
LINE
  5
156
330
1F
100
AcDbEntity
  8
SLD-0
  6
CENTER
 62
   179
100
AcDbLine
 10
52.1482538027
 20
161.4901700428
 30
0.0
 11
52.1482538027
 21
168.4901700428
 31
0.0
  0
LINE
  5
157
330
1F
100
AcDbEntity
  8
SLD-0
  6
CENTER
 62
   179
100
AcDbLine
 10
48.6482538027
 20
164.9901700428
 30
0.0
 11
55.6482538027
 21
164.9901700428
 31
0.0
  0
LINE
  5
158
330
1F
100
AcDbEntity
  8
SLD-0
  6
Continuous
 62
   179
100
AcDbLine
 10
52.1482538027
 20
170.9901700428
 30
0.0
 11
52.1482538027
 21
169.9901700428
 31
0.0
  0
LINE
  5
159
330
1F
100
AcDbEntity
  8
SLD-0
  6
Continuous
 62
   179
100
AcDbLine
 10
56.1482538027
 20
164.9901700428
 30
0.0
 11
57.1482538027
 21
164.9901700428
 31
0.0
  0
LINE
  5
15A
330
1F
100
AcDbEntity
  8
SLD-0
  6
Continuous
 62
   179
100
AcDbLine
 10
58.1482538027
 20
164.9901700428
 30
0.0
 11
59.1482538027
 21
164.9901700428
 31
0.0
  0
LINE
  5
15B
330
1F
100
AcDbEntity
  8
SLD-0
  6
Continuous
 62
   179
100
AcDbLine
 10
59.1482538027
 20
164.9901700428
 30
0.0
 11
57.6482538027
 21
162.3920940428
 31
0.0
  0
LINE
  5
15C
330
1F
100
AcDbEntity
  8
SLD-0
  6
Continuous
 62
   179
100
AcDbLine
 10
56.1482538027
 20
164.9901700428
 30
0.0
 11
57.6482538027
 21
162.3920940428
 31
0.0
  0
LINE
  5
15D
330
1F
100
AcDbEntity
  8
SLD-0
  6
Continuous
 62
   179
100
AcDbLine
 10
52.1482538027
 20
166.1448710428
 30
0.0
 11
53.1482538027
 21
165.5675200428
 31
0.0
  0
LINE
  5
15E
330
1F
100
AcDbEntity
  8
SLD-0
  6
Continuous
 62
   179
100
AcDbLine
 10
53.1482538027
 20
165.5675200428
 30
0.0
 11
53.1482538027
 21
164.4128200428
 31
0.0
  0
LINE
  5
15F
330
1F
100
AcDbEntity
  8
SLD-0
  6
Continuous
 62
   179
100
AcDbLine
 10
53.1482538027
 20
164.4128200428
 30
0.0
 11
52.1482538027
 21
163.8354690428
 31
0.0
  0
LINE
  5
160
330
1F
100
AcDbEntity
  8
SLD-0
  6
Continuous
 62
   179
100
AcDbLine
 10
52.1482538027
 20
163.8354690428
 30
0.0
 11
51.1482538027
 21
164.4128200428
 31
0.0
  0
LINE
  5
161
330
1F
100
AcDbEntity
  8
SLD-0
  6
Continuous
 62
   179
100
AcDbLine
 10
51.1482538027
 20
164.4128200428
 30
0.0
 11
51.1482538027
 21
165.5675200428
 31
0.0
  0
LINE
  5
162
330
1F
100
AcDbEntity
  8
SLD-0
  6
Continuous
 62
   179
100
AcDbLine
 10
51.1482538027
 20
165.5675200428
 30
0.0
 11
52.1482538027
 21
166.1448710428
 31
0.0
  0
LINE
  5
163
330
1F
100
AcDbEntity
  8
SLD-0
  6
CENTER
 62
   179
100
AcDbLine
 10
54.5082538027
 20
210.9901700428
 30
0.0
 11
43.1582538027
 21
210.9901700428
 31
0.0
  0
LINE
  5
164
330
1F
100
AcDbEntity
  8
SLD-0
  6
CENTER
 62
   179
100
AcDbLine
 10
162.0842538027
 20
210.9901700428
 30
0.0
 11
159.1162538027
 21
210.9901700428
 31
0.0
  0
LINE
  5
165
330
1F
100
AcDbEntity
  8
SLD-0
  6
Continuous
 62
   179
100
AcDbLine
 10
68.6482538027
 20
148.8901700428
 30
0.0
 11
65.6482538027
 21
148.8901700428
 31
0.0
  0
LINE
  5
166
330
1F
100
AcDbEntity
  8
SLD-0
  6
Continuous
 62
   179
100
AcDbLine
 10
65.6482538027
 20
148.8901700428
 30
0.0
 11
65.1841518027
 21
149.1581190428
 31
0.0
  0
LINE
  5
167
330
1F
100
AcDbEntity
  8
SLD-0
  6
Continuous
 62
   179
100
AcDbLine
 10
65.1841518027
 20
149.1581190428
 30
0.0
 11
65.1841518027
 21
150.3901700428
 31
0.0
  0
LINE
  5
168
330
1F
100
AcDbEntity
  8
SLD-0
  6
Continuous
 62
   179
100
AcDbLine
 10
66.9162028378
 20
149.15811927
 30
0.0
 11
66.9162028378
 21
150.39017027
 31
0.0
  0
LINE
  5
169
330
1F
100
AcDbEntity
  8
SLD-0
  6
Continuous
 62
   179
100
AcDbLine
 10
68.6482538027
 20
148.8901700428
 30
0.0
 11
71.6482538027
 21
148.8901700428
 31
0.0
  0
LINE
  5
16A
330
1F
100
AcDbEntity
  8
SLD-0
  6
Continuous
 62
   179
100
AcDbLine
 10
71.6482538027
 20
148.8901700428
 30
0.0
 11
72.1123558027
 21
149.1581190428
 31
0.0
  0
LINE
  5
16B
330
1F
100
AcDbEntity
  8
SLD-0
  6
Continuous
 62
   179
100
AcDbLine
 10
72.1123558027
 20
149.1581190428
 30
0.0
 11
72.1123558027
 21
150.3901700428
 31
0.0
  0
LINE
  5
16C
330
1F
100
AcDbEntity
  8
SLD-0
  6
Continuous
 62
   179
100
AcDbLine
 10
70.3803047675
 20
149.15811927
 30
0.0
 11
70.3803047675
 21
150.39017027
 31
0.0
  0
LINE
  5
16D
330
1F
100
AcDbEntity
  8
SLD-0
  6
Continuous
 62
   179
100
AcDbLine
 10
15.0
 20
11.5
 30
0.0
 11
195.0
 21
11.5
 31
0.0
  0
LINE
  5
16E
330
1F
100
AcDbEntity
  8
SLD-0
  6
Continuous
 62
   179
100
AcDbLine
 10
195.0
 20
285.5
 30
0.0
 11
195.0
 21
11.5
 31
0.0
  0
LINE
  5
16F
330
1F
100
AcDbEntity
  8
SLD-0
  6
Continuous
 62
   179
100
AcDbLine
 10
15.0
 20
285.5
 30
0.0
 11
15.0
 21
11.5
 31
0.0
  0
LINE
  5
170
330
1F
100
AcDbEntity
  8
SLD-0
  6
Continuous
 62
   179
100
AcDbLine
 10
15.0
 20
285.5
 30
0.0
 11
195.0
 21
285.5
 31
0.0
  0
LINE
  5
171
330
1F
100
AcDbEntity
  8
SLD-0
  6
Continuous
 62
   179
100
AcDbLine
 10
120.0
 20
50.0
 30
0.0
 11
120.0
 21
11.5
 31
0.0
  0
LINE
  5
172
330
1F
100
AcDbEntity
  8
SLD-0
  6
Continuous
 62
   179
100
AcDbLine
 10
120.0
 20
24.0
 30
0.0
 11
195.0
 21
24.0
 31
0.0
  0
LINE
  5
173
330
1F
100
AcDbEntity
  8
SLD-0
  6
Continuous
 62
   179
100
AcDbLine
 10
120.0
 20
36.5
 30
0.0
 11
195.0
 21
36.5
 31
0.0
  0
LINE
  5
174
330
1F
100
AcDbEntity
  8
SLD-0
  6
Continuous
 62
   179
100
AcDbLine
 10
120.0
 20
50.0
 30
0.0
 11
195.0
 21
50.0
 31
0.0
  0
LINE
  5
175
330
1F
100
AcDbEntity
  8
SLD-0
  6
Continuous
 62
   179
100
AcDbLine
 10
14.8
 20
11.3
 30
0.0
 11
195.2
 21
11.3
 31
0.0
  0
LINE
  5
176
330
1F
100
AcDbEntity
  8
SLD-0
  6
Continuous
 62
   179
100
AcDbLine
 10
14.8
 20
285.7
 30
0.0
 11
14.8
 21
11.3
 31
0.0
  0
LINE
  5
177
330
1F
100
AcDbEntity
  8
SLD-0
  6
Continuous
 62
   179
100
AcDbLine
 10
14.8
 20
285.7
 30
0.0
 11
195.2
 21
285.7
 31
0.0
  0
LINE
  5
178
330
1F
100
AcDbEntity
  8
SLD-0
  6
Continuous
 62
   179
100
AcDbLine
 10
195.2
 20
285.7
 30
0.0
 11
195.2
 21
11.3
 31
0.0
  0
ARC
  5
179
330
1F
100
AcDbEntity
  8
SLD-0
  6
Continuous
 62
   179
100
AcDbCircle
 10
57.1482538027
 20
212.9901700428
 30
0.0
 40
0.5
100
AcDbArc
 50
90.0
 51
180.0
  0
ARC
  5
17A
330
1F
100
AcDbEntity
  8
SLD-0
  6
Continuous
 62
   179
100
AcDbCircle
 10
62.1482538027
 20
212.9901700428
 30
0.0
 40
0.5000000000000071
100
AcDbArc
 50
0.0
 51
90.0
  0
ARC
  5
17B
330
1F
100
AcDbEntity
  8
SLD-0
  6
Continuous
 62
   179
100
AcDbCircle
 10
78.6482538027
 20
212.9901700428
 30
0.0
 40
0.5
100
AcDbArc
 50
90.0
 51
180.0
  0
ARC
  5
17C
330
1F
100
AcDbEntity
  8
SLD-0
  6
Continuous
 62
   179
100
AcDbCircle
 10
83.6482538027
 20
212.9901700428
 30
0.0
 40
0.5
100
AcDbArc
 50
0.0
 51
90.0
  0
ARC
  5
17D
330
1F
100
AcDbEntity
  8
SLD-0
  6
Continuous
 62
   179
100
AcDbCircle
 10
96.1482538027
 20
156.4901700428
 30
0.0
 40
2.000000000000028
100
AcDbArc
 50
270.0
 51
0.0
  0
ARC
  5
17E
330
1F
100
AcDbEntity
  8
SLD-0
  6
Continuous
 62
   179
100
AcDbCircle
 10
95.1482538027
 20
157.4901700428
 30
0.0
 40
1.0
100
AcDbArc
 50
270.0
 51
0.0
  0
ARC
  5
17F
330
1F
100
AcDbEntity
  8
SLD-0
  6
Continuous
 62
   179
100
AcDbCircle
 10
105.1482538027
 20
149.8901700428
 30
0.0
 40
2.000000000000028
100
AcDbArc
 50
270.0
 51
0.0
  0
ARC
  5
180
330
1F
100
AcDbEntity
  8
SLD-0
  6
Continuous
 62
   179
100
AcDbCircle
 10
104.1482538027
 20
150.8901700428
 30
0.0
 40
1.0
100
AcDbArc
 50
270.0
 51
0.0
  0
ARC
  5
181
330
1F
100
AcDbEntity
  8
SLD-0
  6
Continuous
 62
   179
100
AcDbCircle
 10
108.4142257129
 20
155.2251065261
 30
0.0
 40
0.7340274875236357
100
AcDbArc
 50
280.520816108
 51
79.4791981445
  0
ARC
  5
182
330
1F
100
AcDbEntity
  8
SLD-0
  6
Continuous
 62
   179
100
AcDbCircle
 10
107.1121426232
 20
157.3901700428
 30
0.0
 40
2.03611126456709
100
AcDbArc
 50
314.8554419746
 51
45.1445580254
  0
ARC
  5
183
330
1F
100
AcDbEntity
  8
SLD-0
  6
Continuous
 62
   179
100
AcDbCircle
 10
108.4142257129
 20
159.5552335595
 30
0.0
 40
0.7340274875236915
100
AcDbArc
 50
280.5208018555
 51
79.479183892
  0
ARC
  5
184
330
1F
100
AcDbEntity
  8
SLD-0
  6
Continuous
 62
   179
100
AcDbCircle
 10
86.1378368027
 20
182.9590810428
 30
0.0
 40
1.010416699019778
100
AcDbArc
 50
270.5907074866
 51
89.4092925134
  0
ARC
  5
185
330
1F
100
AcDbEntity
  8
SLD-0
  6
Continuous
 62
   179
100
AcDbCircle
 10
84.6065868027
 20
185.9901700428
 30
0.0
 40
2.541666914834646
100
AcDbArc
 50
307.3409981999
 51
52.6590018001
  0
ARC
  5
186
330
1F
100
AcDbEntity
  8
SLD-0
  6
Continuous
 62
   179
100
AcDbCircle
 10
86.1378368027
 20
189.0212590428
 30
0.0
 40
1.010416699019778
100
AcDbArc
 50
270.5907074866
 51
89.4092925134
  0
ARC
  5
187
330
1F
100
AcDbEntity
  8
SLD-0
  6
Continuous
 62
   179
100
AcDbCircle
 10
49.1171648027
 20
152.5005870428
 30
0.0
 40
1.010416699019778
100
AcDbArc
 50
180.5907074868
 51
359.4092925134
  0
ARC
  5
188
330
1F
100
AcDbEntity
  8
SLD-0
  6
Continuous
 62
   179
100
AcDbCircle
 10
52.1482538027
 20
154.0318370428
 30
0.0
 40
2.541666914834623
100
AcDbArc
 50
217.3409981999
 51
322.6590018001
  0
ARC
  5
189
330
1F
100
AcDbEntity
  8
SLD-0
  6
Continuous
 62
   179
100
AcDbCircle
 10
55.1793428027
 20
152.5005870428
 30
0.0
 40
1.010416699019785
100
AcDbArc
 50
180.5907074866
 51
359.4092925132
  0
ARC
  5
18A
330
1F
100
AcDbEntity
  8
SLD-0
  6
Continuous
 62
   179
100
AcDbCircle
 10
70.1482538678
 20
224.4545160428
 30
0.0
 40
20.00000006509645
100
AcDbArc
 50
148.2116687811
 51
180.0
  0
ARC
  5
18B
330
1F
100
AcDbEntity
  8
SLD-0
  6
Continuous
 62
   179
100
AcDbCircle
 10
48.1482538027
 20
223.4901700428
 30
0.0
 40
2.0
100
AcDbArc
 50
270.0
 51
0.0
  0
ARC
  5
18C
330
1F
100
AcDbEntity
  8
SLD-0
  6
Continuous
 62
   179
100
AcDbCircle
 10
160.6482538027
 20
170.9901698888
 30
0.0
 40
6.999999621702049
100
AcDbArc
 50
6.6308339054
 51
173.3691660946
  0
CIRCLE
  5
18D
330
1F
100
AcDbEntity
  8
SLD-0
  6
Continuous
 62
   179
100
AcDbCircle
 10
160.6482538027
 20
170.9901698888
 30
0.0
 40
3.000000000000004
  0
CIRCLE
  5
18E
330
1F
100
AcDbEntity
  8
SLD-0
  6
Continuous
 62
   179
100
AcDbCircle
 10
160.6482538027
 20
170.9901698888
 30
0.0
 40
1.79999999999999
  0
CIRCLE
  5
18F
330
1F
100
AcDbEntity
  8
SLD-0
  6
Continuous
 62
   179
100
AcDbCircle
 10
160.6482538027
 20
170.9901698888
 30
0.0
 40
1.500000000000008
  0
CIRCLE
  5
190
330
1F
100
AcDbEntity
  8
SLD-0
  6
Continuous
 62
   179
100
AcDbCircle
 10
160.6482538027
 20
170.9901698888
 30
0.0
 40
1.000000000000012
  0
ARC
  5
191
330
1F
100
AcDbEntity
  8
SLD-0
  6
Continuous
 62
   179
100
AcDbCircle
 10
160.6482538027
 20
170.9901698888
 30
0.0
 40
5.499999852004827
100
AcDbArc
 50
215.2093751431
 51
144.7906248569
  0
ARC
  5
192
330
1F
100
AcDbEntity
  8
SLD-0
  6
Continuous
 62
   179
100
AcDbCircle
 10
160.6482538027
 20
170.9901698888
 30
0.0
 40
3.9999998459663
100
AcDbArc
 50
20.0000081104
 51
90.0
  0
ARC
  5
193
330
1F
100
AcDbEntity
  8
SLD-0
  6
Continuous
 62
   179
100
AcDbCircle
 10
160.6482538027
 20
170.9901698888
 30
0.0
 40
3.999999845966329
100
AcDbArc
 50
270.0
 51
339.9999918897
  0
CIRCLE
  5
194
330
1F
100
AcDbEntity
  8
SLD-0
  6
Continuous
 62
   179
100
AcDbCircle
 10
160.6482538027
 20
157.3901700428
 30
0.0
 40
1.5
  0
CIRCLE
  5
195
330
1F
100
AcDbEntity
  8
SLD-0
  6
Continuous
 62
   179
100
AcDbCircle
 10
160.6482538027
 20
157.3901700428
 30
0.0
 40
1.25
  0
CIRCLE
  5
196
330
1F
100
AcDbEntity
  8
SLD-0
  6
Continuous
 62
   179
100
AcDbCircle
 10
160.6482538027
 20
157.3901700428
 30
0.0
 40
2.5
  0
CIRCLE
  5
197
330
1F
100
AcDbEntity
  8
SLD-0
  6
Continuous
 62
   179
100
AcDbCircle
 10
166.1482538027
 20
185.9901700428
 30
0.0
 40
1.800000000000011
  0
CIRCLE
  5
198
330
1F
100
AcDbEntity
  8
SLD-0
  6
Continuous
 62
   179
100
AcDbCircle
 10
166.1482538027
 20
185.9901700428
 30
0.0
 40
1.5
  0
CIRCLE
  5
199
330
1F
100
AcDbEntity
  8
SLD-0
  6
Continuous
 62
   179
100
AcDbCircle
 10
166.1482538027
 20
185.9901700428
 30
0.0
 40
1.0
  0
CIRCLE
  5
19A
330
1F
100
AcDbEntity
  8
SLD-0
  6
Continuous
 62
   179
100
AcDbCircle
 10
166.1482538027
 20
185.9901700428
 30
0.0
 40
3.5
  0
CIRCLE
  5
19B
330
1F
100
AcDbEntity
  8
SLD-0
  6
Continuous
 62
   179
100
AcDbCircle
 10
160.6482538027
 20
207.9901700428
 30
0.0
 40
0.5
  0
ARC
  5
19C
330
1F
100
AcDbEntity
  8
SLD-0
  6
Continuous
 62
   179
100
AcDbCircle
 10
156.6482538027
 20
212.7429470428
 30
0.0
 40
1.0
100
AcDbArc
 50
0.0
 51
90.0
  0
ARC
  5
19D
330
1F
100
AcDbEntity
  8
SLD-0
  6
Continuous
 62
   179
100
AcDbCircle
 10
164.6482538027
 20
212.7429470428
 30
0.0
 40
1.0
100
AcDbArc
 50
90.0
 51
180.0
  0
ARC
  5
19E
330
1F
100
AcDbEntity
  8
SLD-0
  6
Continuous
 62
   179
100
AcDbCircle
 10
156.6482538027
 20
212.9901700428
 30
0.0
 40
0.5
100
AcDbArc
 50
0.0
 51
90.0
  0
ARC
  5
19F
330
1F
100
AcDbEntity
  8
SLD-0
  6
Continuous
 62
   179
100
AcDbCircle
 10
164.6482538027
 20
212.9901700428
 30
0.0
 40
0.5
100
AcDbArc
 50
90.0
 51
180.0
  0
ARC
  5
1A0
330
1F
100
AcDbEntity
  8
SLD-0
  6
Continuous
 62
   179
100
AcDbCircle
 10
169.6482538027
 20
212.9901700428
 30
0.0
 40
0.5
100
AcDbArc
 50
0.0
 51
90.0
  0
ARC
  5
1A1
330
1F
100
AcDbEntity
  8
SLD-0
  6
Continuous
 62
   179
100
AcDbCircle
 10
151.6482538027
 20
212.9901700428
 30
0.0
 40
0.5
100
AcDbArc
 50
90.0
 51
180.0
  0
ARC
  5
1A2
330
1F
100
AcDbEntity
  8
SLD-0
  6
Continuous
 62
   179
100
AcDbCircle
 10
154.1482538027
 20
215.9901700428
 30
0.0
 40
3.000000000000028
100
AcDbArc
 50
90.0
 51
180.0
  0
ARC
  5
1A3
330
1F
100
AcDbEntity
  8
SLD-0
  6
Continuous
 62
   179
100
AcDbCircle
 10
167.1482538027
 20
215.9901700428
 30
0.0
 40
3.000000000000028
100
AcDbArc
 50
0.0
 51
90.0
  0
ARC
  5
1A4
330
1F
100
AcDbEntity
  8
SLD-0
  6
Continuous
 62
   179
100
AcDbCircle
 10
72.1482538027
 20
93.7401700428
 30
0.0
 40
1.0
100
AcDbArc
 50
0.0
 51
90.0
  0
ARC
  5
1A5
330
1F
100
AcDbEntity
  8
SLD-0
  6
Continuous
 62
   179
100
AcDbCircle
 10
65.1482538027
 20
93.7401700428
 30
0.0
 40
1.0
100
AcDbArc
 50
90.0
 51
180.0
  0
ARC
  5
1A6
330
1F
100
AcDbEntity
  8
SLD-0
  6
Continuous
 62
   179
100
AcDbCircle
 10
65.1482538027
 20
77.2401700428
 30
0.0
 40
1.0
100
AcDbArc
 50
180.0
 51
270.0
  0
ARC
  5
1A7
330
1F
100
AcDbEntity
  8
SLD-0
  6
Continuous
 62
   179
100
AcDbCircle
 10
72.1482538027
 20
77.2401700428
 30
0.0
 40
1.0
100
AcDbArc
 50
270.0
 51
0.0
  0
CIRCLE
  5
1A8
330
1F
100
AcDbEntity
  8
SLD-0
  6
Continuous
 62
   179
100
AcDbCircle
 10
95.1482538027
 20
92.4901700428
 30
0.0
 40
1.5
  0
CIRCLE
  5
1A9
330
1F
100
AcDbEntity
  8
SLD-0
  6
Continuous
 62
   179
100
AcDbCircle
 10
95.1482538027
 20
92.4901700428
 30
0.0
 40
1.25
  0
CIRCLE
  5
1AA
330
1F
100
AcDbEntity
  8
SLD-0
  6
Continuous
 62
   179
100
AcDbCircle
 10
95.1482538027
 20
78.4901700428
 30
0.0
 40
1.5
  0
CIRCLE
  5
1AB
330
1F
100
AcDbEntity
  8
SLD-0
  6
Continuous
 62
   179
100
AcDbCircle
 10
95.1482538027
 20
78.4901700428
 30
0.0
 40
1.25
  0
CIRCLE
  5
1AC
330
1F
100
AcDbEntity
  8
SLD-0
  6
Continuous
 62
   179
100
AcDbCircle
 10
52.1482538027
 20
92.4901700428
 30
0.0
 40
1.5
  0
CIRCLE
  5
1AD
330
1F
100
AcDbEntity
  8
SLD-0
  6
Continuous
 62
   179
100
AcDbCircle
 10
52.1482538027
 20
92.4901700428
 30
0.0
 40
1.25
  0
CIRCLE
  5
1AE
330
1F
100
AcDbEntity
  8
SLD-0
  6
Continuous
 62
   179
100
AcDbCircle
 10
52.1482538027
 20
78.4901700428
 30
0.0
 40
1.5
  0
CIRCLE
  5
1AF
330
1F
100
AcDbEntity
  8
SLD-0
  6
Continuous
 62
   179
100
AcDbCircle
 10
52.1482538027
 20
78.4901700428
 30
0.0
 40
1.25
  0
ARC
  5
1B0
330
1F
100
AcDbEntity
  8
SLD-0
  6
Continuous
 62
   179
100
AcDbCircle
 10
107.6430458027
 20
84.2401700428
 30
0.0
 40
1.505207961937818
100
AcDbArc
 50
303.8550050542
 51
56.1449949458
  0
ARC
  5
1B1
330
1F
100
AcDbEntity
  8
SLD-0
  6
Continuous
 62
   179
100
AcDbCircle
 10
107.6430458027
 20
86.7401700428
 30
0.0
 40
1.505207961937806
100
AcDbArc
 50
303.8550050542
 51
56.1449949458
  0
ARC
  5
1B2
330
1F
100
AcDbEntity
  8
SLD-0
  6
Continuous
 62
   179
100
AcDbCircle
 10
147.1499104558
 20
222.9562067137
 30
0.0
 40
19.99999964546514
100
AcDbArc
 50
356.26066416
 51
36.5755765246
  0
ARC
  5
1B3
330
1F
100
AcDbEntity
  8
SLD-0
  6
Continuous
 62
   179
100
AcDbCircle
 10
174.1465970307
 20
222.9562070577
 30
0.0
 40
19.99999964546513
100
AcDbArc
 50
143.4244234754
 51
183.73933584
  0
ARC
  5
1B4
330
1F
100
AcDbEntity
  8
SLD-0
  6
Continuous
 62
   179
100
AcDbCircle
 10
166.0191083373
 20
224.1679510732
 30
0.0
 40
3.000000281356494
100
AcDbArc
 50
176.2606690303
 51
266.2606487268
  0
ARC
  5
1B5
330
1F
100
AcDbEntity
  8
SLD-0
  6
Continuous
 62
   179
100
AcDbCircle
 10
155.2773987723
 20
224.1679515081
 30
0.0
 40
3.000000281356522
100
AcDbArc
 50
273.7393512732
 51
3.7393309697
  0
ARC
  5
1B6
330
1F
100
AcDbEntity
  8
SLD-0
  6
Continuous
 62
   179
100
AcDbCircle
 10
160.6482540716
 20
210.9901708288
 30
0.0
 40
8.5
100
AcDbArc
 50
43.692211
 51
93.739335
  0
ARC
  5
1B7
330
1F
100
AcDbEntity
  8
SLD-0
  6
Continuous
 62
   179
100
AcDbCircle
 10
160.6482540716
 20
210.9901708288
 30
0.0
 40
9.000000000000021
100
AcDbArc
 50
46.551648
 51
83.080835
  0
ARC
  5
1B8
330
1F
100
AcDbEntity
  8
SLD-0
  6
Continuous
 62
   179
100
AcDbCircle
 10
160.0612970987
 20
219.971010414
 30
0.0
 40
0.4999998968154606
100
AcDbArc
 50
183.7393740678
 51
273.7393917484
  0
ARC
  5
1B9
330
1F
100
AcDbEntity
  8
SLD-0
  6
Continuous
 62
   179
100
AcDbCircle
 10
161.2352105438
 20
219.9710100597
 30
0.0
 40
0.4999997405528673
100
AcDbArc
 50
266.260665
 51
356.2606259321
  0
ARC
  5
1BA
330
1F
100
AcDbEntity
  8
SLD-0
  6
Continuous
 62
   179
100
AcDbCircle
 10
161.3330363048
 20
221.4678160754
 30
0.0
 40
0.4999999148242898
100
AcDbArc
 50
356.2607402799
 51
86.2607477531
  0
ARC
  5
1BB
330
1F
100
AcDbEntity
  8
SLD-0
  6
Continuous
 62
   179
100
AcDbCircle
 10
159.9634711818
 20
221.4678164194
 30
0.0
 40
0.4999999148242538
100
AcDbArc
 50
93.7392522469
 51
183.7392597201
  0
CIRCLE
  5
1BC
330
1F
100
AcDbEntity
  8
SLD-0
  6
Continuous
 62
   179
100
AcDbCircle
 10
52.1482538027
 20
164.9901700428
 30
0.0
 40
2.099999999999994
  0
CIRCLE
  5
1BD
330
1F
100
AcDbEntity
  8
SLD-0
  6
Continuous
 62
   179
100
AcDbCircle
 10
52.1482538027
 20
164.9901700428
 30
0.0
 40
2.5
  0
ARC
  5
1BE
330
1F
100
AcDbEntity
  8
SLD-0
  6
Continuous
 62
   179
100
AcDbCircle
 10
52.1482538027
 20
164.9901700428
 30
0.0
 40
6.000000000000007
100
AcDbArc
 50
0.0
 51
90.0
  0
ARC
  5
1BF
330
1F
100
AcDbEntity
  8
SLD-0
  6
Continuous
 62
   179
100
AcDbCircle
 10
52.1482538027
 20
164.9901700428
 30
0.0
 40
5.0
100
AcDbArc
 50
0.0
 51
90.0
  0
ARC
  5
1C0
330
1F
100
AcDbEntity
  8
SLD-0
  6
Continuous
 62
   179
100
AcDbCircle
 10
68.6482538027
 20
154.6222211591
 30
0.0
 40
5.732051116293578
100
AcDbArc
 50
252.4120455549
 51
270.0
  0
ARC
  5
1C1
330
1F
100
AcDbEntity
  8
SLD-0
  6
Continuous
 62
   179
100
AcDbCircle
 10
66.050177801
 20
150.4236643238
 30
0.0
 40
1.533493934726494
100
AcDbArc
 50
270.0
 51
304.3842235521
  0
ARC
  5
1C2
330
1F
100
AcDbEntity
  8
SLD-0
  6
Continuous
 62
   179
100
AcDbCircle
 10
68.6482538027
 20
154.6222211591
 30
0.0
 40
5.732051116293581
100
AcDbArc
 50
270.0
 51
287.5879544451
  0
ARC
  5
1C3
330
1F
100
AcDbEntity
  8
SLD-0
  6
Continuous
 62
   179
100
AcDbCircle
 10
71.2463298044
 20
150.4236643238
 30
0.0
 40
1.533493934726494
100
AcDbArc
 50
235.6157764479
 51
270.0
  0
CIRCLE
  5
1C4
330
1F
100
AcDbEntity
  8
SLD-0
  6
Continuous
 62
   179
100
AcDbCircle
 10
68.6482538027
 20
89.2401700428
 30
0.0
 40
3.0
  0
CIRCLE
  5
1C5
330
1F
100
AcDbEntity
  8
SLD-0
  6
Continuous
 62
   179
100
AcDbCircle
 10
68.6482538027
 20
81.7401700428
 30
0.0
 40
3.0
  0
POINT
  5
1C6
330
1F
100
AcDbEntity
  8
SLD-0
100
AcDbPoint
 10
15.0
 20
285.5
 30
0.0
  0
POINT
  5
1C7
330
1F
100
AcDbEntity
  8
SLD-0
100
AcDbPoint
 10
15.0
 20
11.5
 30
0.0
  0
POINT
  5
1C8
330
1F
100
AcDbEntity
  8
SLD-0
100
AcDbPoint
 10
195.0
 20
11.5
 30
0.0
  0
POINT
  5
1C9
330
1F
100
AcDbEntity
  8
SLD-0
100
AcDbPoint
 10
195.0
 20
285.5
 30
0.0
  0
POINT
  5
1CA
330
1F
100
AcDbEntity
  8
SLD-0
100
AcDbPoint
 10
195.0
 20
11.5
 30
0.0
  0
MTEXT
  5
1CC
330
1F
100
AcDbEntity
  8
SLD-0
 62
     7
100
AcDbMText
 10
58.3982537845
 20
170.9845697639
 30
0.0
 40
1.5
 41
0.0
 71
     1
 72
     1
  1
ＬＯＣＫ
  7
SLDTEXTSTYLE2
 73
     1
 44
1.0
  0
MTEXT
  5
1CE
330
1F
100
AcDbEntity
  8
SLD-0
 62
     7
100
AcDbMText
 10
142.3638956038
 20
48.2155203477
 30
0.0
 40
4.8000001907
 41
0.0
 71
     1
 72
     1
  1
エアニッパー
  7
SLDTEXTSTYLE3
 73
     1
 44
1.0
  0
MTEXT
  5
1D0
330
1F
100
AcDbEntity
  8
SLD-0
 62
     7
100
AcDbMText
 10
127.0349402826
 20
41.8289416967
 30
0.0
 40
4.8000001907
 41
0.0
 71
     1
 72
     1
  1
（スライドタイプタテ型）
  7
SLDTEXTSTYLE4
 73
     1
 44
1.0
  0
MTEXT
  5
1D2
330
1F
100
AcDbEntity
  8
SLD-0
 62
     7
100
AcDbMText
 10
121.9250940825
 20
31.726535467
 30
0.0
 40
4.8000001907
 41
0.0
 71
     1
 72
     1
  1
ＧＴ－ＮＴ０３　　０６０２０７
  7
SLDTEXTSTYLE5
 73
     1
 44
1.0
  0
MTEXT
  5
1D3
330
1F
100
AcDbEntity
  8
SLD-0
 62
     7
100
AcDbMText
 10
121.9250940825
 20
18.7211389413
 30
0.0
 40
4.8000001907
 41
0.0
 71
     1
 72
     1
  1
ＧＴ－ＮＴ０３Ｒ　０６０２２４
  7
SLDTEXTSTYLE5
 73
     1
 44
1.0
  0
INSERT
  5
1D4
330
1F
100
AcDbEntity
  8
0
  6
Continuous
 62
     7
370
     0
100
AcDbBlockReference
  2
KOZU0001
 10
95.6782852633
 20
93.8934043963
 30
0.0
  0
ENDSEC
  0
SECTION
  2
OBJECTS
  0
DICTIONARY
  5
C
330
0
100
AcDbDictionary
281
     1
  3
ACAD_GROUP
350
D
  3
ACAD_LAYOUT
350
1A
  3
ACAD_MLINESTYLE
350
17
  3
ACAD_PLOTSETTINGS
350
19
  3
ACAD_PLOTSTYLENAME
350
E
  0
DICTIONARY
  5
D
102
{ACAD_REACTORS
330
C
102
}
330
C
100
AcDbDictionary
281
     1
  0
DICTIONARY
  5
1A
102
{ACAD_REACTORS
330
C
102
}
330
C
100
AcDbDictionary
281
     1
  3
Layout1
350
1E
  3
Layout2
350
26
  3
Model
350
22
  0
DICTIONARY
  5
17
102
{ACAD_REACTORS
330
C
102
}
330
C
100
AcDbDictionary
281
     1
  3
Standard
350
18
  0
DICTIONARY
  5
19
102
{ACAD_REACTORS
330
C
102
}
330
C
100
AcDbDictionary
281
     1
  0
ACDBDICTIONARYWDFLT
  5
E
102
{ACAD_REACTORS
330
C
102
}
330
C
100
AcDbDictionary
281
     1
  3
Normal
350
F
100
AcDbDictionaryWithDefault
340
F
  0
LAYOUT
  5
1E
102
{ACAD_REACTORS
330
1A
102
}
330
1A
100
AcDbPlotSettings
  1

  2

  4

  6

 40
0.0
 41
0.0
 42
0.0
 43
0.0
 44
0.0
 45
0.0
 46
0.0
 47
0.0
 48
0.0
 49
0.0
140
0.0
141
0.0
142
1.0
143
1.0
 70
   688
 72
     0
 73
     0
 74
     5
  7

 75
    16
147
1.0
148
0.0
149
0.0
100
AcDbLayout
  1
Layout1
 70
     1
 71
     1
 10
0.0
 20
0.0
 11
0.0
 21
0.0
 12
0.0
 22
0.0
 32
0.0
 14
0.0
 24
0.0
 34
0.0
 15
0.0
 25
0.0
 35
0.0
146
0.0
 13
0.0
 23
0.0
 33
0.0
 16
1.0
 26
0.0
 36
0.0
 17
0.0
 27
1.0
 37
0.0
 76
     0
330
1B
  0
LAYOUT
  5
26
102
{ACAD_REACTORS
330
1A
102
}
330
1A
100
AcDbPlotSettings
  1

  2

  4

  6

 40
0.0
 41
0.0
 42
0.0
 43
0.0
 44
0.0
 45
0.0
 46
0.0
 47
0.0
 48
0.0
 49
0.0
140
0.0
141
0.0
142
1.0
143
1.0
 70
   688
 72
     0
 73
     0
 74
     5
  7

 75
    16
147
1.0
148
0.0
149
0.0
100
AcDbLayout
  1
Layout2
 70
     1
 71
     2
 10
0.0
 20
0.0
 11
0.0
 21
0.0
 12
0.0
 22
0.0
 32
0.0
 14
0.0
 24
0.0
 34
0.0
 15
0.0
 25
0.0
 35
0.0
146
0.0
 13
0.0
 23
0.0
 33
0.0
 16
1.0
 26
0.0
 36
0.0
 17
0.0
 27
1.0
 37
0.0
 76
     0
330
23
  0
LAYOUT
  5
22
102
{ACAD_REACTORS
330
1A
102
}
330
1A
100
AcDbPlotSettings
  1

  2

  4

  6

 40
0.0
 41
0.0
 42
0.0
 43
0.0
 44
0.0
 45
0.0
 46
0.0
 47
0.0
 48
0.0
 49
0.0
140
0.0
141
0.0
142
1.0
143
1.0
 70
  1712
 72
     0
 73
     0
 74
     0
  7

 75
     0
147
1.0
148
0.0
149
0.0
100
AcDbLayout
  1
Model
 70
     1
 71
     0
 10
0.0
 20
0.0
 11
0.0
 21
0.0
 12
0.0
 22
0.0
 32
0.0
 14
0.0
 24
0.0
 34
0.0
 15
210.0
 25
297.0
 35
0.0
146
0.0
 13
0.0
 23
0.0
 33
0.0
 16
1.0
 26
0.0
 36
0.0
 17
0.0
 27
1.0
 37
0.0
 76
     0
330
1F
  0
MLINESTYLE
  5
18
102
{ACAD_REACTORS
330
17
102
}
330
17
100
AcDbMlineStyle
  2
Standard
 70
     0
  3

 62
   256
 51
90.0
 52
90.0
 71
     2
 49
0.5
 62
   256
  6
BYLAYER
 49
-0.5
 62
   256
  6
BYLAYER
  0
ACDBPLACEHOLDER
  5
F
102
{ACAD_REACTORS
330
E
102
}
330
E
  0
ENDSEC
  0
EOF
