  0
SECTION
  2
HEADER
  9
$ACADVER
  1
AC1015
  9
$ACADMAINTVER
 70
     6
  9
$DWGCODEPAGE
  3
DOS932
  9
$INSBASE
 10
0.0
 20
0.0
 30
0.0
  9
$EXTMIN
 10
0.0
 20
0.0
 30
0.0
  9
$EXTMAX
 10
210.0
 20
297.0
 30
0.0
  9
$LIMMIN
 10
0.0
 20
0.0
  9
$LIMMAX
 10
0.0
 20
0.0
  9
$ORTHOMODE
 70
     0
  9
$REGENMODE
 70
     1
  9
$FILLMODE
 70
     1
  9
$QTEXTMODE
 70
     0
  9
$MIRRTEXT
 70
     1
  9
$LTSCALE
 40
1.0
  9
$ATTMODE
 70
     1
  9
$TEXTSIZE
 40
3.5
  9
$TRACEWID
 40
1.0
  9
$TEXTSTYLE
  7
Standard
  9
$CLAYER
  8
0
  9
$CELTYPE
  6
ByLayer
  9
$CECOLOR
 62
   256
  9
$CELTSCALE
 40
1.0
  9
$DISPSILH
 70
     0
  9
$DIMSCALE
 40
1.0
  9
$DIMASZ
 40
3.0
  9
$DIMEXO
 40
1.0
  9
$DIMDLI
 40
3.75
  9
$DIMRND
 40
0.0
  9
$DIMDLE
 40
0.0
  9
$DIMEXE
 40
1.0
  9
$DIMTP
 40
0.0
  9
$DIMTM
 40
0.0
  9
$DIMTXT
 40
3.2000000477
  9
$DIMCEN
 40
2.5
  9
$DIMTSZ
 40
0.0
  9
$DIMTOL
 70
     0
  9
$DIMLIM
 70
     0
  9
$DIMTIH
 70
     1
  9
$DIMTOH
 70
     1
  9
$DIMSE1
 70
     0
  9
$DIMSE2
 70
     0
  9
$DIMTAD
 70
     1
  9
$DIMZIN
 70
     1
  9
$DIMBLK
  1

  9
$DIMASO
 70
     1
  9
$DIMSHO
 70
     1
  9
$DIMPOST
  1

  9
$DIMAPOST
  1

  9
$DIMALT
 70
     0
  9
$DIMALTD
 70
     3
  9
$DIMALTF
 40
0.0393700787
  9
$DIMLFAC
 40
1.0
  9
$DIMTOFL
 70
     1
  9
$DIMTVP
 40
0.0
  9
$DIMTIX
 70
     0
  9
$DIMSOXD
 70
     0
  9
$DIMSAH
 70
     0
  9
$DIMBLK1
  1

  9
$DIMBLK2
  1

  9
$DIMSTYLE
  2
ISO-25
  9
$DIMCLRD
 70
     0
  9
$DIMCLRE
 70
     0
  9
$DIMCLRT
 70
     0
  9
$DIMTFAC
 40
1.0
  9
$DIMGAP
 40
1.524
  9
$DIMJUST
 70
     0
  9
$DIMSD1
 70
     0
  9
$DIMSD2
 70
     0
  9
$DIMTOLJ
 70
     0
  9
$DIMTZIN
 70
     1
  9
$DIMALTZ
 70
     0
  9
$DIMALTTZ
 70
     0
  9
$DIMUPT
 70
     0
  9
$DIMDEC
 70
     2
  9
$DIMTDEC
 70
     2
  9
$DIMALTU
 70
     2
  9
$DIMALTTD
 70
     3
  9
$DIMTXSTY
  7
Standard
  9
$DIMAUNIT
 70
     0
  9
$DIMADEC
 70
     0
  9
$DIMALTRND
 40
0.0
  9
$DIMAZIN
 70
     0
  9
$DIMDSEP
 70
    44
  9
$DIMATFIT
 70
     3
  9
$DIMFRAC
 70
     0
  9
$DIMLDRBLK
  1

  9
$DIMLUNIT
 70
     2
  9
$DIMLWD
 70
    -2
  9
$DIMLWE
 70
    -2
  9
$DIMTMOVE
 70
     0
  9
$LUNITS
 70
     2
  9
$LUPREC
 70
     4
  9
$SKETCHINC
 40
1.0
  9
$FILLETRAD
 40
10.0
  9
$AUNITS
 70
     0
  9
$AUPREC
 70
     0
  9
$MENU
  1
.
  9
$ELEVATION
 40
0.0
  9
$PELEVATION
 40
0.0
  9
$THICKNESS
 40
0.0
  9
$LIMCHECK
 70
     0
  9
$CHAMFERA
 40
10.0
  9
$CHAMFERB
 40
10.0
  9
$CHAMFERC
 40
20.0
  9
$CHAMFERD
 40
0.0
  9
$SKPOLY
 70
     0
  9
$TDCREATE
 40
2454307.485073959
  9
$TDUCREATE
 40
2454307.110073959
  9
$TDUPDATE
 40
2454307.48507397
  9
$TDUUPDATE
 40
2454307.11007397
  9
$TDINDWG
 40
0.0000000116
  9
$TDUSRTIMER
 40
0.0000000116
  9
$USRTIMER
 70
     1
  9
$ANGBASE
 50
0.0
  9
$ANGDIR
 70
     0
  9
$PDMODE
 70
     0
  9
$PDSIZE
 40
-1.0
  9
$PLINEWID
 40
0.0
  9
$SPLFRAME
 70
     0
  9
$SPLINETYPE
 70
     6
  9
$SPLINESEGS
 70
     8
  9
$HANDSEED
  5
1EB
  9
$SURFTAB1
 70
     6
  9
$SURFTAB2
 70
     6
  9
$SURFTYPE
 70
     6
  9
$SURFU
 70
     6
  9
$SURFV
 70
     6
  9
$UCSBASE
  2

  9
$UCSNAME
  2

  9
$UCSORG
 10
0.0
 20
0.0
 30
0.0
  9
$UCSXDIR
 10
1.0
 20
0.0
 30
0.0
  9
$UCSYDIR
 10
0.0
 20
1.0
 30
0.0
  9
$UCSORTHOREF
  2

  9
$UCSORTHOVIEW
 70
     0
  9
$UCSORGTOP
 10
0.0
 20
0.0
 30
0.0
  9
$UCSORGBOTTOM
 10
0.0
 20
0.0
 30
0.0
  9
$UCSORGLEFT
 10
0.0
 20
0.0
 30
0.0
  9
$UCSORGRIGHT
 10
0.0
 20
0.0
 30
0.0
  9
$UCSORGFRONT
 10
0.0
 20
0.0
 30
0.0
  9
$UCSORGBACK
 10
0.0
 20
0.0
 30
0.0
  9
$PUCSBASE
  2

  9
$PUCSNAME
  2

  9
$PUCSORG
 10
0.0
 20
0.0
 30
0.0
  9
$PUCSXDIR
 10
1.0
 20
0.0
 30
0.0
  9
$PUCSYDIR
 10
0.0
 20
1.0
 30
0.0
  9
$PUCSORTHOREF
  2

  9
$PUCSORTHOVIEW
 70
     0
  9
$PUCSORGTOP
 10
0.0
 20
0.0
 30
0.0
  9
$PUCSORGBOTTOM
 10
0.0
 20
0.0
 30
0.0
  9
$PUCSORGLEFT
 10
0.0
 20
0.0
 30
0.0
  9
$PUCSORGRIGHT
 10
0.0
 20
0.0
 30
0.0
  9
$PUCSORGFRONT
 10
0.0
 20
0.0
 30
0.0
  9
$PUCSORGBACK
 10
0.0
 20
0.0
 30
0.0
  9
$USERI1
 70
     0
  9
$USERI2
 70
     0
  9
$USERI3
 70
     0
  9
$USERI4
 70
     0
  9
$USERI5
 70
     0
  9
$USERR1
 40
0.0
  9
$USERR2
 40
0.0
  9
$USERR3
 40
0.0
  9
$USERR4
 40
0.0
  9
$USERR5
 40
0.0
  9
$WORLDVIEW
 70
     1
  9
$SHADEDGE
 70
     3
  9
$SHADEDIF
 70
    70
  9
$TILEMODE
 70
     1
  9
$MAXACTVP
 70
    64
  9
$PINSBASE
 10
0.0
 20
0.0
 30
0.0
  9
$PLIMCHECK
 70
     0
  9
$PEXTMIN
 10
1.0000000000E+20
 20
1.0000000000E+20
 30
1.0000000000E+20
  9
$PEXTMAX
 10
-1.0000000000E+20
 20
-1.0000000000E+20
 30
-1.0000000000E+20
  9
$PLIMMIN
 10
0.0
 20
0.0
  9
$PLIMMAX
 10
420.0
 20
297.0
  9
$UNITMODE
 70
     0
  9
$VISRETAIN
 70
     1
  9
$PLINEGEN
 70
     0
  9
$PSLTSCALE
 70
     1
  9
$TREEDEPTH
 70
  3020
  9
$CMLSTYLE
  2
Standard
  9
$CMLJUST
 70
     0
  9
$CMLSCALE
 40
20.0
  9
$PROXYGRAPHICS
 70
     1
  9
$MEASUREMENT
 70
     1
  9
$CELWEIGHT
370
    -1
  9
$ENDCAPS
280
     0
  9
$JOINSTYLE
280
     0
  9
$LWDISPLAY
290
     1
  9
$INSUNITS
 70
     4
  9
$HYPERLINKBASE
  1

  9
$STYLESHEET
  1

  9
$XEDIT
290
     1
  9
$CEPSNTYPE
380
     0
  9
$PSTYLEMODE
290
     1
  9
$FINGERPRINTGUID
  2
{4DBB028B-7400-4503-98BB-66CBC8890515}
  9
$VERSIONGUID
  2
{FAEB1C32-E019-11D5-929B-00C0DF256EC4}
  9
$EXTNAMES
290
     1
  9
$PSVPSCALE
 40
0.0
  9
$OLESTARTUP
290
     0
  0
ENDSEC
  0
SECTION
  2
CLASSES
  0
CLASS
  1
ACDBDICTIONARYWDFLT
  2
AcDbDictionaryWithDefault
  3
ObjectDBX Classes
 90
        0
280
     0
281
     0
  0
CLASS
  1
ACDBPLACEHOLDER
  2
AcDbPlaceHolder
  3
ObjectDBX Classes
 90
        0
280
     0
281
     0
  0
CLASS
  1
LAYOUT
  2
AcDbLayout
  3
ObjectDBX Classes
 90
        0
280
     0
281
     0
  0
ENDSEC
  0
SECTION
  2
TABLES
  0
TABLE
  2
VPORT
  5
8
330
0
100
AcDbSymbolTable
 70
     1
  0
VPORT
  5
29
330
8
100
AcDbSymbolTableRecord
100
AcDbViewportTableRecord
  2
*Active
 70
     0
 10
0.0
 20
0.0
 11
1.0
 21
1.0
 12
105.0
 22
148.5
 13
0.0
 23
0.0
 14
10.0
 24
10.0
 15
10.0
 25
10.0
 16
0.0
 26
0.0
 36
1.0
 17
0.0
 27
0.0
 37
0.0
 40
297.0
 41
1.9729729729
 42
50.0
 43
0.0
 44
0.0
 50
0.0
 51
0.0
 71
     0
 72
  2000
 73
     1
 74
     3
 75
     0
 76
     0
 77
     0
 78
     0
281
     0
 65
     1
110
0.0
120
0.0
130
0.0
111
1.0
121
0.0
131
0.0
112
0.0
122
1.0
132
0.0
 79
     0
146
0.0
  0
ENDTAB
  0
TABLE
  2
LTYPE
  5
5
330
0
100
AcDbSymbolTable
 70
     6
  0
LTYPE
  5
14
330
5
100
AcDbSymbolTableRecord
100
AcDbLinetypeTableRecord
  2
ByBlock
 70
     0
  3

 72
    65
 73
     0
 40
0.0
  0
LTYPE
  5
15
330
5
100
AcDbSymbolTableRecord
100
AcDbLinetypeTableRecord
  2
ByLayer
 70
     0
  3

 72
    65
 73
     0
 40
0.0
  0
LTYPE
  5
16
330
5
100
AcDbSymbolTableRecord
100
AcDbLinetypeTableRecord
  2
Continuous
 70
     0
  3
Solid line
 72
    65
 73
     0
 40
0.0
  0
LTYPE
  5
2A
330
5
100
AcDbSymbolTableRecord
100
AcDbLinetypeTableRecord
  2
HIDDEN
 70
     0
  3
Hidden __ __ __ __ __ __ __ __ __ __ __ __ __ __
 72
    65
 73
     2
 40
1.905
 49
1.27
 74
     0
 49
-0.635
 74
     0
  0
LTYPE
  5
2B
330
5
100
AcDbSymbolTableRecord
100
AcDbLinetypeTableRecord
  2
PHANTOM
 70
     0
  3
Phantom ______  __  __  ______  __  __  ______
 72
    65
 73
     6
 40
12.7
 49
6.35
 74
     0
 49
-1.27
 74
     0
 49
1.27
 74
     0
 49
-1.27
 74
     0
 49
1.27
 74
     0
 49
-1.27
 74
     0
  0
LTYPE
  5
2C
330
5
100
AcDbSymbolTableRecord
100
AcDbLinetypeTableRecord
  2
CENTER
 70
     0
  3
Center ____ _ ____ _ ____ _ ____ _ ____ _ ____
 72
    65
 73
     4
 40
10.16
 49
6.35
 74
     0
 49
-1.27
 74
     0
 49
1.27
 74
     0
 49
-1.27
 74
     0
  0
LTYPE
  5
2D
330
5
100
AcDbSymbolTableRecord
100
AcDbLinetypeTableRecord
  2
CENTERX2
 70
     0
  3
Center (2x) ________  __  ________  __  _____
 72
    65
 73
     4
 40
20.32
 49
12.7
 74
     0
 49
-2.54
 74
     0
 49
2.54
 74
     0
 49
-2.54
 74
     0
  0
LTYPE
  5
2E
330
5
100
AcDbSymbolTableRecord
100
AcDbLinetypeTableRecord
  2
DOT2
 70
     0
  3
Dot (.5x) ........................................
 72
    65
 73
     2
 40
0.635
 49
0.0
 74
     0
 49
-0.635
 74
     0
  0
ENDTAB
  0
TABLE
  2
LAYER
  5
2
330
0
100
AcDbSymbolTable
 70
     2
  0
LAYER
  5
10
330
2
100
AcDbSymbolTableRecord
100
AcDbLayerTableRecord
  2
0
 70
     0
 62
     7
  6
Continuous
370
    -3
390
F
  0
LAYER
  5
2F
330
2
100
AcDbSymbolTableRecord
100
AcDbLayerTableRecord
  2
SLD-0
 70
     0
 62
   179
  6
Continuous
370
     0
390
F
  0
ENDTAB
  0
TABLE
  2
STYLE
  5
3
330
0
100
AcDbSymbolTable
 70
     7
  0
STYLE
  5
11
330
3
100
AcDbSymbolTableRecord
100
AcDbTextStyleTableRecord
  2
Standard
 70
     0
 40
0.0
 41
1.0
 50
0.0
 71
     0
 42
2.5
  3
txt
  4
bigfont
  0
STYLE
  5
33
330
3
100
AcDbSymbolTableRecord
100
AcDbTextStyleTableRecord
  2
SLDTEXTSTYLE0
 70
     0
 40
0.0
 41
0.7
 50
0.0
 71
     0
 42
0.2
  3
TXT
  4
bigfont
  0
STYLE
  5
3E
330
3
100
AcDbSymbolTableRecord
100
AcDbTextStyleTableRecord
  2
SLDTEXTSTYLE1
 70
     0
 40
0.0
 41
0.6272516078
 50
0.0
 71
     0
 42
0.2
  3
TXT
  4
bigfont
  0
STYLE
  5
1E1
330
3
100
AcDbSymbolTableRecord
100
AcDbTextStyleTableRecord
  2
SLDTEXTSTYLE2
 70
     0
 40
0.0
 41
0.8842104897
 50
0.0
 71
     0
 42
0.2
  3
TXT
  4
bigfont
  0
STYLE
  5
1E3
330
3
100
AcDbSymbolTableRecord
100
AcDbTextStyleTableRecord
  2
SLDTEXTSTYLE3
 70
     0
 40
0.0
 41
0.6244080302
 50
0.0
 71
     0
 42
0.2
  3
TXT
  4
bigfont
  0
STYLE
  5
1E5
330
3
100
AcDbSymbolTableRecord
100
AcDbTextStyleTableRecord
  2
SLDTEXTSTYLE4
 70
     0
 40
0.0
 41
0.6217270197
 50
0.0
 71
     0
 42
0.2
  3
TXT
  4
bigfont
  0
STYLE
  5
1E7
330
3
100
AcDbSymbolTableRecord
100
AcDbTextStyleTableRecord
  2
SLDTEXTSTYLE5
 70
     0
 40
0.0
 41
0.6212090972
 50
0.0
 71
     0
 42
0.2
  3
TXT
  4
bigfont
  0
ENDTAB
  0
TABLE
  2
VIEW
  5
6
330
0
100
AcDbSymbolTable
 70
     0
  0
ENDTAB
  0
TABLE
  2
UCS
  5
7
330
0
100
AcDbSymbolTable
 70
     0
  0
ENDTAB
  0
TABLE
  2
APPID
  5
9
330
0
100
AcDbSymbolTable
 70
     1
  0
APPID
  5
12
330
9
100
AcDbSymbolTableRecord
100
AcDbRegAppTableRecord
  2
ACAD
 70
     0
  0
ENDTAB
  0
TABLE
  2
DIMSTYLE
  5
A
330
0
100
AcDbSymbolTable
 70
     1
100
AcDbDimStyleTable
  0
DIMSTYLE
105
27
330
A
100
AcDbSymbolTableRecord
100
AcDbDimStyleTableRecord
  2
ISO-25
 70
     0
 41
2.5
 42
0.625
 43
3.75
 44
1.25
 73
     0
 74
     0
 77
     1
 78
     8
140
2.5
141
2.5
143
0.0393700787
147
0.625
171
     3
172
     1
271
     2
272
     2
274
     3
278
    44
283
     0
284
     8
340
11
  0
ENDTAB
  0
TABLE
  2
BLOCK_RECORD
  5
1
330
0
100
AcDbSymbolTable
 70
     3
  0
BLOCK_RECORD
  5
1F
330
1
100
AcDbSymbolTableRecord
100
AcDbBlockTableRecord
  2
*Model_Space
340
22
  0
BLOCK_RECORD
  5
1B
330
1
100
AcDbSymbolTableRecord
100
AcDbBlockTableRecord
  2
*Paper_Space
340
1E
  0
BLOCK_RECORD
  5
23
330
1
100
AcDbSymbolTableRecord
100
AcDbBlockTableRecord
  2
*Paper_Space0
340
26
  0
BLOCK_RECORD
  5
30
330
1
100
AcDbSymbolTableRecord
100
AcDbBlockTableRecord
  2
注記
340
0
  0
BLOCK_RECORD
  5
36
330
1
100
AcDbSymbolTableRecord
100
AcDbBlockTableRecord
  2
KOZU0001
340
0
102
{BLKREFS
331
1EA
102
}
  0
ENDTAB
  0
ENDSEC
  0
SECTION
  2
BLOCKS
  0
BLOCK
  5
20
330
1F
100
AcDbEntity
  8
0
100
AcDbBlockBegin
  2
*Model_Space
 70
     0
 71
     0
 10
0.0
 20
0.0
 30
0.0
  3
*Model_Space
  1

  0
ENDBLK
  5
21
330
1F
100
AcDbEntity
  8
0
100
AcDbBlockEnd
  0
BLOCK
  5
1C
330
1B
100
AcDbEntity
 67
     1
  8
0
100
AcDbBlockBegin
  2
*Paper_Space
 70
     0
 71
     0
 10
0.0
 20
0.0
 30
0.0
  3
*Paper_Space
  1

  0
ENDBLK
  5
1D
330
1B
100
AcDbEntity
 67
     1
  8
0
100
AcDbBlockEnd
  0
BLOCK
  5
24
330
23
100
AcDbEntity
  8
0
100
AcDbBlockBegin
  2
*Paper_Space0
 70
     0
 71
     0
 10
0.0
 20
0.0
 30
0.0
  3
*Paper_Space0
  1

  0
ENDBLK
  5
25
330
23
100
AcDbEntity
  8
0
100
AcDbBlockEnd
  0
BLOCK
  5
31
330
30
100
AcDbEntity
  8
0
100
AcDbBlockBegin
  2
注記
 70
     0
 71
     0
 10
0.0
 20
0.0
 30
0.0
  3
注記
  1

  0
MTEXT
  5
34
330
30
100
AcDbEntity
  8
0
  6
Continuous
 62
     7
370
     0
100
AcDbMText
 10
0.2636785918
 20
9.0739778448
 30
0.0
 40
3.5
 41
0.0
 71
     1
 72
     1
  1
１．特記ナキ角部ハ、バリ　カエリノ無キコト。
  7
SLDTEXTSTYLE0
 73
     1
 44
1.0
  0
MTEXT
  5
35
330
30
100
AcDbEntity
  8
0
  6
Continuous
 62
     7
370
     0
100
AcDbMText
 10
0.2636785918
 20
3.5759549983
 30
0.0
 40
3.5
 41
0.0
 71
     1
 72
     1
  1
２．特記ナキ隅部ハ、Ｒ０．４ＭＡＸトスル。
  7
SLDTEXTSTYLE0
 73
     1
 44
1.0
  0
ENDBLK
  5
32
330
30
100
AcDbEntity
  8
0
100
AcDbBlockEnd
  0
BLOCK
  5
37
330
36
100
AcDbEntity
  8
0
100
AcDbBlockBegin
  2
KOZU0001
 70
     0
 71
     0
 10
0.0
 20
0.0
 30
0.0
  3
KOZU0001
  1

  0
LINE
  5
39
330
36
100
AcDbEntity
  8
SLD-0
  6
Continuous
 62
   179
100
AcDbLine
 10
0.0
 20
0.0
 30
0.0
 11
4.8848180763
 21
10.3499366537
 31
0.0
  0
LINE
  5
3A
330
36
100
AcDbEntity
  8
SLD-0
  6
Continuous
 62
   179
100
AcDbLine
 10
0.0
 20
0.0
 30
0.0
 11
0.8268450025
 21
3.0686405848
 31
0.0
  0
LINE
  5
3B
330
36
100
AcDbEntity
  8
SLD-0
  6
Continuous
 62
   179
100
AcDbLine
 10
0.0
 20
0.0
 30
0.0
 11
1.8433210112
 21
2.5888984813
 31
0.0
  0
LINE
  5
3C
330
36
100
AcDbEntity
  8
SLD-0
  6
Continuous
 62
   179
100
AcDbLine
 10
0.0
 20
0.0
 30
0.0
 11
4.8848180763
 21
10.3499366537
 31
0.0
  0
LINE
  5
3D
330
36
100
AcDbEntity
  8
SLD-0
  6
Continuous
 62
   179
100
AcDbLine
 10
4.8848180763
 20
10.3499366537
 30
0.0
 11
22.5078223257
 21
10.3499366537
 31
0.0
  0
MTEXT
  5
3F
330
36
100
AcDbEntity
  8
SLD-0
100
AcDbMText
 10
8.7938223987
 20
13.8046560814
 30
0.0
 40
3.2000000477
 41
0.0
 71
     1
 72
     1
  1
４－Ｍ４
  7
SLDTEXTSTYLE1
 73
     1
 44
1.0
  0
ENDBLK
  5
38
330
36
100
AcDbEntity
  8
0
100
AcDbBlockEnd
  0
ENDSEC
  0
SECTION
  2
ENTITIES
  0
LINE
  5
40
330
1F
100
AcDbEntity
  8
SLD-0
  6
Continuous
 62
   179
100
AcDbLine
 10
64.7343186456
 20
89.7870406923
 30
0.0
 11
60.7343186456
 21
92.0964416923
 31
0.0
  0
LINE
  5
41
330
1F
100
AcDbEntity
  8
SLD-0
  6
Continuous
 62
   179
100
AcDbLine
 10
60.7343186456
 20
92.0964416923
 30
0.0
 11
56.7343186456
 21
89.7870406923
 31
0.0
  0
LINE
  5
42
330
1F
100
AcDbEntity
  8
SLD-0
  6
Continuous
 62
   179
100
AcDbLine
 10
56.7343186456
 20
89.7870406923
 30
0.0
 11
56.7343186456
 21
85.1682386923
 31
0.0
  0
LINE
  5
43
330
1F
100
AcDbEntity
  8
SLD-0
  6
Continuous
 62
   179
100
AcDbLine
 10
56.7343186456
 20
85.1682386923
 30
0.0
 11
60.7343186456
 21
82.8588376923
 31
0.0
  0
LINE
  5
44
330
1F
100
AcDbEntity
  8
SLD-0
  6
Continuous
 62
   179
100
AcDbLine
 10
60.7343186456
 20
82.8588376923
 30
0.0
 11
64.7343186456
 21
85.1682386923
 31
0.0
  0
LINE
  5
45
330
1F
100
AcDbEntity
  8
SLD-0
  6
Continuous
 62
   179
100
AcDbLine
 10
64.7343186456
 20
85.1682386923
 30
0.0
 11
64.7343186456
 21
89.7870406923
 31
0.0
  0
LINE
  5
46
330
1F
100
AcDbEntity
  8
SLD-0
  6
Continuous
 62
   179
100
AcDbLine
 10
64.7343186456
 20
71.7870406923
 30
0.0
 11
60.7343186456
 21
74.0964416923
 31
0.0
  0
LINE
  5
47
330
1F
100
AcDbEntity
  8
SLD-0
  6
Continuous
 62
   179
100
AcDbLine
 10
60.7343186456
 20
74.0964416923
 30
0.0
 11
56.7343186456
 21
71.7870406923
 31
0.0
  0
LINE
  5
48
330
1F
100
AcDbEntity
  8
SLD-0
  6
Continuous
 62
   179
100
AcDbLine
 10
56.7343186456
 20
71.7870406923
 30
0.0
 11
56.7343186456
 21
67.1682386923
 31
0.0
  0
LINE
  5
49
330
1F
100
AcDbEntity
  8
SLD-0
  6
Continuous
 62
   179
100
AcDbLine
 10
56.7343186456
 20
67.1682386923
 30
0.0
 11
60.7343186456
 21
64.8588376923
 31
0.0
  0
LINE
  5
4A
330
1F
100
AcDbEntity
  8
SLD-0
  6
Continuous
 62
   179
100
AcDbLine
 10
60.7343186456
 20
64.8588376923
 30
0.0
 11
64.7343186456
 21
67.1682386923
 31
0.0
  0
LINE
  5
4B
330
1F
100
AcDbEntity
  8
SLD-0
  6
Continuous
 62
   179
100
AcDbLine
 10
64.7343186456
 20
67.1682386923
 30
0.0
 11
64.7343186456
 21
71.7870406923
 31
0.0
  0
LINE
  5
4C
330
1F
100
AcDbEntity
  8
SLD-0
  6
Continuous
 62
   179
100
AcDbLine
 10
60.7343186456
 20
141.8776396923
 30
0.0
 11
56.7343186456
 21
141.8776396923
 31
0.0
  0
LINE
  5
4D
330
1F
100
AcDbEntity
  8
SLD-0
  6
Continuous
 62
   179
100
AcDbLine
 10
58.4249175859
 20
142.2349053066
 30
0.0
 11
58.4249175859
 21
143.8776393066
 31
0.0
  0
LINE
  5
4E
330
1F
100
AcDbEntity
  8
SLD-0
  6
Continuous
 62
   179
100
AcDbLine
 10
56.1155166456
 20
142.2349056923
 30
0.0
 11
56.1155166456
 21
143.8776396923
 31
0.0
  0
LINE
  5
4F
330
1F
100
AcDbEntity
  8
SLD-0
  6
Continuous
 62
   179
100
AcDbLine
 10
56.7343186456
 20
141.8776396923
 30
0.0
 11
56.1155166456
 21
142.2349056923
 31
0.0
  0
LINE
  5
50
330
1F
100
AcDbEntity
  8
SLD-0
  6
Continuous
 62
   179
100
AcDbLine
 10
60.7343186456
 20
141.8776396923
 30
0.0
 11
64.7343186456
 21
141.8776396923
 31
0.0
  0
LINE
  5
51
330
1F
100
AcDbEntity
  8
SLD-0
  6
Continuous
 62
   179
100
AcDbLine
 10
63.0437197052
 20
142.2349053066
 30
0.0
 11
63.0437197052
 21
143.8776393066
 31
0.0
  0
LINE
  5
52
330
1F
100
AcDbEntity
  8
SLD-0
  6
Continuous
 62
   179
100
AcDbLine
 10
65.3531206456
 20
142.2349056923
 30
0.0
 11
65.3531206456
 21
143.8776396923
 31
0.0
  0
LINE
  5
53
330
1F
100
AcDbEntity
  8
SLD-0
  6
Continuous
 62
   179
100
AcDbLine
 10
64.7343186456
 20
141.8776396923
 30
0.0
 11
65.3531206456
 21
142.2349056923
 31
0.0
  0
LINE
  5
54
330
1F
100
AcDbEntity
  8
SLD-0
  6
Continuous
 62
   179
100
AcDbLine
 10
38.7343186456
 20
147.9776396923
 30
0.0
 11
38.7343186456
 21
201.4776396923
 31
0.0
  0
LINE
  5
55
330
1F
100
AcDbEntity
  8
SLD-0
  6
Continuous
 62
   179
100
AcDbLine
 10
77.2343186456
 20
201.4776396923
 30
0.0
 11
77.2343186456
 21
147.9776396923
 31
0.0
  0
LINE
  5
56
330
1F
100
AcDbEntity
  8
SLD-0
  6
Continuous
 62
   179
100
AcDbLine
 10
77.2343186456
 20
150.4776396923
 30
0.0
 11
38.7343186456
 21
150.4776396923
 31
0.0
  0
LINE
  5
57
330
1F
100
AcDbEntity
  8
SLD-0
  6
Continuous
 62
   179
100
AcDbLine
 10
77.2343186456
 20
206.4776396923
 30
0.0
 11
77.2343186456
 21
201.4776396923
 31
0.0
  0
LINE
  5
58
330
1F
100
AcDbEntity
  8
SLD-0
  6
Continuous
 62
   179
100
AcDbLine
 10
66.8420136456
 20
212.4776396923
 30
0.0
 11
38.7343186456
 21
212.4776396923
 31
0.0
  0
LINE
  5
59
330
1F
100
AcDbEntity
  8
SLD-0
  6
Continuous
 62
   179
100
AcDbLine
 10
38.7343186456
 20
218.4776396923
 30
0.0
 11
38.7343186456
 21
201.4776396923
 31
0.0
  0
LINE
  5
5A
330
1F
100
AcDbEntity
  8
SLD-0
  6
Continuous
 62
   179
100
AcDbLine
 10
77.2343186456
 20
201.4776396923
 30
0.0
 11
38.7343186456
 21
201.4776396923
 31
0.0
  0
LINE
  5
5B
330
1F
100
AcDbEntity
  8
SLD-0
  6
Continuous
 62
   179
100
AcDbLine
 10
77.2343186456
 20
206.4776396923
 30
0.0
 11
70.2343186456
 21
206.4776396923
 31
0.0
  0
LINE
  5
5C
330
1F
100
AcDbEntity
  8
SLD-0
  6
Continuous
 62
   179
100
AcDbLine
 10
70.2343186456
 20
210.5190916923
 30
0.0
 11
70.2343186456
 21
206.4776396923
 31
0.0
  0
LINE
  5
5D
330
1F
100
AcDbEntity
  8
SLD-0
  6
Continuous
 62
   179
100
AcDbLine
 10
55.2343186456
 20
212.4776396923
 30
0.0
 11
55.2343186456
 21
206.4776396923
 31
0.0
  0
LINE
  5
5E
330
1F
100
AcDbEntity
  8
SLD-0
  6
Continuous
 62
   179
100
AcDbLine
 10
55.2343186456
 20
206.4776396923
 30
0.0
 11
48.2343186456
 21
206.4776396923
 31
0.0
  0
LINE
  5
5F
330
1F
100
AcDbEntity
  8
SLD-0
  6
Continuous
 62
   179
100
AcDbLine
 10
48.2343186456
 20
212.4776396923
 30
0.0
 11
48.2343186456
 21
206.4776396923
 31
0.0
  0
LINE
  5
60
330
1F
100
AcDbEntity
  8
SLD-0
  6
CENTER
 62
   179
100
AcDbLine
 10
51.7343186456
 20
215.0676396923
 30
0.0
 11
51.7343186456
 21
198.1850736923
 31
0.0
  0
LINE
  5
61
330
1F
100
AcDbEntity
  8
SLD-0
  6
CENTER
 62
   179
100
AcDbLine
 10
73.7343186456
 20
215.0676396923
 30
0.0
 11
73.7343186456
 21
198.1850736923
 31
0.0
  0
LINE
  5
62
330
1F
100
AcDbEntity
  8
SLD-0
  6
Continuous
 62
   179
100
AcDbLine
 10
92.2343186456
 20
152.4776396923
 30
0.0
 11
92.2343186456
 21
179.9776396923
 31
0.0
  0
LINE
  5
63
330
1F
100
AcDbEntity
  8
SLD-0
  6
Continuous
 62
   179
100
AcDbLine
 10
92.2343186456
 20
175.4776396923
 30
0.0
 11
94.7343186456
 21
175.4776396923
 31
0.0
  0
LINE
  5
64
330
1F
100
AcDbEntity
  8
SLD-0
  6
Continuous
 62
   179
100
AcDbLine
 10
95.7343186456
 20
174.4776396923
 30
0.0
 11
95.7343186456
 21
166.4776396923
 31
0.0
  0
LINE
  5
65
330
1F
100
AcDbEntity
  8
SLD-0
  6
Continuous
 62
   179
100
AcDbLine
 10
77.2343186456
 20
180.9776396923
 30
0.0
 11
77.7343186456
 21
181.4776396923
 31
0.0
  0
LINE
  5
66
330
1F
100
AcDbEntity
  8
SLD-0
  6
Continuous
 62
   179
100
AcDbLine
 10
94.7343186456
 20
175.4776396923
 30
0.0
 11
95.7343186456
 21
174.4776396923
 31
0.0
  0
LINE
  5
67
330
1F
100
AcDbEntity
  8
SLD-0
  6
Continuous
 62
   179
100
AcDbLine
 10
77.7343186456
 20
151.4776396923
 30
0.0
 11
90.7343186456
 21
151.4776396923
 31
0.0
  0
LINE
  5
68
330
1F
100
AcDbEntity
  8
SLD-0
  6
Continuous
 62
   179
100
AcDbLine
 10
92.2343186456
 20
157.4776396923
 30
0.0
 11
94.7343186456
 21
157.4776396923
 31
0.0
  0
LINE
  5
69
330
1F
100
AcDbEntity
  8
SLD-0
  6
Continuous
 62
   179
100
AcDbLine
 10
95.7343186456
 20
158.4776396923
 30
0.0
 11
95.7343186456
 21
166.4776396923
 31
0.0
  0
LINE
  5
6A
330
1F
100
AcDbEntity
  8
SLD-0
  6
Continuous
 62
   179
100
AcDbLine
 10
77.2343186456
 20
151.9776396923
 30
0.0
 11
77.7343186456
 21
151.4776396923
 31
0.0
  0
LINE
  5
6B
330
1F
100
AcDbEntity
  8
SLD-0
  6
Continuous
 62
   179
100
AcDbLine
 10
94.7343186456
 20
157.4776396923
 30
0.0
 11
95.7343186456
 21
158.4776396923
 31
0.0
  0
LINE
  5
6C
330
1F
100
AcDbEntity
  8
SLD-0
  6
Continuous
 62
   179
100
AcDbLine
 10
90.7343186456
 20
151.4776396923
 30
0.0
 11
92.2343186456
 21
152.9776396923
 31
0.0
  0
LINE
  5
6D
330
1F
100
AcDbEntity
  8
SLD-0
  6
CENTER
 62
   179
100
AcDbLine
 10
74.2763186456
 20
166.4776396923
 30
0.0
 11
114.1383186456
 21
166.4776396923
 31
0.0
  0
LINE
  5
6E
330
1F
100
AcDbEntity
  8
SLD-0
  6
Continuous
 62
   179
100
AcDbLine
 10
90.7343186456
 20
181.4776396923
 30
0.0
 11
77.7343186456
 21
181.4776396923
 31
0.0
  0
LINE
  5
6F
330
1F
100
AcDbEntity
  8
SLD-0
  6
Continuous
 62
   179
100
AcDbLine
 10
92.2343186456
 20
179.9776396923
 30
0.0
 11
90.7343186456
 21
181.4776396923
 31
0.0
  0
LINE
  5
70
330
1F
100
AcDbEntity
  8
SLD-0
  6
Continuous
 62
   179
100
AcDbLine
 10
94.7343186456
 20
175.4776396923
 30
0.0
 11
94.7343186456
 21
157.4776396923
 31
0.0
  0
LINE
  5
71
330
1F
100
AcDbEntity
  8
SLD-0
  6
Continuous
 62
   179
100
AcDbLine
 10
77.7343186456
 20
181.4776396923
 30
0.0
 11
77.7343186456
 21
151.4776396923
 31
0.0
  0
LINE
  5
72
330
1F
100
AcDbEntity
  8
SLD-0
  6
Continuous
 62
   179
100
AcDbLine
 10
85.2343186456
 20
173.0159876923
 30
0.0
 11
85.2343186456
 21
159.9392916923
 31
0.0
  0
LINE
  5
73
330
1F
100
AcDbEntity
  8
SLD-0
  6
Continuous
 62
   179
100
AcDbLine
 10
90.7343186456
 20
159.9392916923
 30
0.0
 11
85.2343186456
 21
159.9392916923
 31
0.0
  0
LINE
  5
74
330
1F
100
AcDbEntity
  8
SLD-0
  6
Continuous
 62
   179
100
AcDbLine
 10
90.7343186456
 20
173.0159876923
 30
0.0
 11
85.2343186456
 21
173.0159876923
 31
0.0
  0
LINE
  5
75
330
1F
100
AcDbEntity
  8
SLD-0
  6
Continuous
 62
   179
100
AcDbLine
 10
90.7343186456
 20
181.4776396923
 30
0.0
 11
90.7343186456
 21
173.0159876923
 31
0.0
  0
LINE
  5
76
330
1F
100
AcDbEntity
  8
SLD-0
  6
Continuous
 62
   179
100
AcDbLine
 10
90.7343186456
 20
159.9392916923
 30
0.0
 11
90.7343186456
 21
151.4776396923
 31
0.0
  0
LINE
  5
77
330
1F
100
AcDbEntity
  8
SLD-0
  6
CENTER
 62
   179
100
AcDbLine
 10
110.6513186456
 20
154.4776396923
 30
0.0
 11
89.2733186456
 21
154.4776396923
 31
0.0
  0
LINE
  5
78
330
1F
100
AcDbEntity
  8
SLD-0
  6
Continuous
 62
   179
100
AcDbLine
 10
92.2343186456
 20
152.4776396923
 30
0.0
 11
93.7343186456
 21
152.4776396923
 31
0.0
  0
LINE
  5
79
330
1F
100
AcDbEntity
  8
SLD-0
  6
Continuous
 62
   179
100
AcDbLine
 10
92.2343186456
 20
156.4776396923
 30
0.0
 11
93.7343186456
 21
156.4776396923
 31
0.0
  0
LINE
  5
7A
330
1F
100
AcDbEntity
  8
SLD-0
  6
Continuous
 62
   179
100
AcDbLine
 10
94.2343186456
 20
152.9776396923
 30
0.0
 11
94.2343186456
 21
155.9776396923
 31
0.0
  0
LINE
  5
7B
330
1F
100
AcDbEntity
  8
SLD-0
  6
Continuous
 62
   179
100
AcDbLine
 10
93.7343186456
 20
156.4776396923
 30
0.0
 11
94.2343186456
 21
155.9776396923
 31
0.0
  0
LINE
  5
7C
330
1F
100
AcDbEntity
  8
SLD-0
  6
Continuous
 62
   179
100
AcDbLine
 10
93.7343186456
 20
152.4776396923
 30
0.0
 11
94.2343186456
 21
152.9776396923
 31
0.0
  0
LINE
  5
7D
330
1F
100
AcDbEntity
  8
SLD-0
  6
Continuous
 62
   179
100
AcDbLine
 10
93.7343186456
 20
156.4776396923
 30
0.0
 11
93.7343186456
 21
152.4776396923
 31
0.0
  0
LINE
  5
7E
330
1F
100
AcDbEntity
  8
SLD-0
  6
Continuous
 62
   179
100
AcDbLine
 10
38.7343186456
 20
149.9776396923
 30
0.0
 11
77.2343186456
 21
149.9776396923
 31
0.0
  0
LINE
  5
7F
330
1F
100
AcDbEntity
  8
SLD-0
  6
Continuous
 62
   179
100
AcDbLine
 10
77.2343186456
 20
147.9776396923
 30
0.0
 11
38.7343186456
 21
147.9776396923
 31
0.0
  0
LINE
  5
80
330
1F
100
AcDbEntity
  8
SLD-0
  6
Continuous
 62
   179
100
AcDbLine
 10
67.7343186456
 20
147.9776396923
 30
0.0
 11
67.7343186456
 21
146.3776396923
 31
0.0
  0
LINE
  5
81
330
1F
100
AcDbEntity
  8
SLD-0
  6
Continuous
 62
   179
100
AcDbLine
 10
53.7343186456
 20
147.9776396923
 30
0.0
 11
53.7343186456
 21
146.3776396923
 31
0.0
  0
LINE
  5
82
330
1F
100
AcDbEntity
  8
SLD-0
  6
Continuous
 62
   179
100
AcDbLine
 10
100.7343186456
 20
174.3776396923
 30
0.0
 11
98.7343186456
 21
174.3776396923
 31
0.0
  0
LINE
  5
83
330
1F
100
AcDbEntity
  8
SLD-0
  6
Continuous
 62
   179
100
AcDbLine
 10
38.7343186456
 20
141.3776396923
 30
0.0
 11
38.7343186456
 21
143.3776396923
 31
0.0
  0
LINE
  5
84
330
1F
100
AcDbEntity
  8
SLD-0
  6
Continuous
 62
   179
100
AcDbLine
 10
97.7343186456
 20
143.3776396923
 30
0.0
 11
81.2343186456
 21
143.3776396923
 31
0.0
  0
LINE
  5
85
330
1F
100
AcDbEntity
  8
SLD-0
  6
Continuous
 62
   179
100
AcDbLine
 10
81.2343186456
 20
143.3776396923
 30
0.0
 11
76.0381666456
 21
146.3776396923
 31
0.0
  0
LINE
  5
86
330
1F
100
AcDbEntity
  8
SLD-0
  6
Continuous
 62
   179
100
AcDbLine
 10
76.0381666456
 20
146.3776396923
 30
0.0
 11
53.7343186456
 21
146.3776396923
 31
0.0
  0
LINE
  5
87
330
1F
100
AcDbEntity
  8
SLD-0
  6
Continuous
 62
   179
100
AcDbLine
 10
38.7343186456
 20
143.3776396923
 30
0.0
 11
48.7343186456
 21
143.3776396923
 31
0.0
  0
LINE
  5
88
330
1F
100
AcDbEntity
  8
SLD-0
  6
Continuous
 62
   179
100
AcDbLine
 10
48.7343186456
 20
143.3776396923
 30
0.0
 11
53.9304706456
 21
146.3776396923
 31
0.0
  0
LINE
  5
89
330
1F
100
AcDbEntity
  8
SLD-0
  6
Continuous
 62
   179
100
AcDbLine
 10
49.2702166456
 20
141.3776396923
 30
0.0
 11
54.6395746456
 21
144.4776396923
 31
0.0
  0
LINE
  5
8A
330
1F
100
AcDbEntity
  8
SLD-0
  6
Continuous
 62
   179
100
AcDbLine
 10
54.6395746456
 20
144.4776396923
 30
0.0
 11
75.3290626456
 21
144.4776396923
 31
0.0
  0
LINE
  5
8B
330
1F
100
AcDbEntity
  8
SLD-0
  6
Continuous
 62
   179
100
AcDbLine
 10
75.3290626456
 20
144.4776396923
 30
0.0
 11
80.6984206456
 21
141.3776396923
 31
0.0
  0
LINE
  5
8C
330
1F
100
AcDbEntity
  8
SLD-0
  6
Continuous
 62
   179
100
AcDbLine
 10
38.7343186456
 20
141.3776396923
 30
0.0
 11
49.2702166456
 21
141.3776396923
 31
0.0
  0
LINE
  5
8D
330
1F
100
AcDbEntity
  8
SLD-0
  6
CENTER
 62
   179
100
AcDbLine
 10
88.7343186456
 20
145.3776396923
 30
0.0
 11
88.7343186456
 21
139.3776396923
 31
0.0
  0
LINE
  5
8E
330
1F
100
AcDbEntity
  8
SLD-0
  6
CENTER
 62
   179
100
AcDbLine
 10
43.7343186456
 20
145.3776396923
 30
0.0
 11
43.7343186456
 21
139.3776396923
 31
0.0
  0
LINE
  5
8F
330
1F
100
AcDbEntity
  8
SLD-0
  6
Continuous
 62
   179
100
AcDbLine
 10
99.2343186456
 20
141.3776396923
 30
0.0
 11
80.6984206456
 21
141.3776396923
 31
0.0
  0
LINE
  5
90
330
1F
100
AcDbEntity
  8
SLD-0
  6
Continuous
 62
   179
100
AcDbLine
 10
54.7343186456
 20
209.4776396923
 30
0.0
 11
54.7343186456
 21
206.4776396923
 31
0.0
  0
LINE
  5
91
330
1F
100
AcDbEntity
  8
SLD-0
  6
Continuous
 62
   179
100
AcDbLine
 10
48.7343186456
 20
206.9776396923
 30
0.0
 11
54.7343186456
 21
206.9776396923
 31
0.0
  0
LINE
  5
92
330
1F
100
AcDbEntity
  8
SLD-0
  6
Continuous
 62
   179
100
AcDbLine
 10
48.7343186456
 20
206.4776396923
 30
0.0
 11
48.7343186456
 21
209.4776396923
 31
0.0
  0
LINE
  5
93
330
1F
100
AcDbEntity
  8
SLD-0
  6
Continuous
 62
   179
100
AcDbLine
 10
70.7343186456
 20
206.4776396923
 30
0.0
 11
70.7343186456
 21
209.4776396923
 31
0.0
  0
LINE
  5
94
330
1F
100
AcDbEntity
  8
SLD-0
  6
Continuous
 62
   179
100
AcDbLine
 10
70.7343186456
 20
206.9776396923
 30
0.0
 11
76.7343186456
 21
206.9776396923
 31
0.0
  0
LINE
  5
95
330
1F
100
AcDbEntity
  8
SLD-0
  6
Continuous
 62
   179
100
AcDbLine
 10
76.7343186456
 20
209.4776396923
 30
0.0
 11
76.7343186456
 21
206.4776396923
 31
0.0
  0
LINE
  5
96
330
1F
100
AcDbEntity
  8
SLD-0
  6
Continuous
 62
   179
100
AcDbLine
 10
71.2343186456
 20
209.9776396923
 30
0.0
 11
76.2343186456
 21
209.9776396923
 31
0.0
  0
LINE
  5
97
330
1F
100
AcDbEntity
  8
SLD-0
  6
Continuous
 62
   179
100
AcDbLine
 10
49.2343186456
 20
209.9776396923
 30
0.0
 11
54.2343186456
 21
209.9776396923
 31
0.0
  0
LINE
  5
98
330
1F
100
AcDbEntity
  8
SLD-0
  6
Continuous
 62
   179
100
AcDbLine
 10
71.1721406503
 20
209.9776397005
 30
0.0
 11
66.8420136456
 21
212.4776396923
 31
0.0
  0
LINE
  5
99
330
1F
100
AcDbEntity
  8
SLD-0
  6
Continuous
 62
   179
100
AcDbLine
 10
77.2343186456
 20
206.4776396923
 30
0.0
 11
76.7343186456
 21
206.7663146923
 31
0.0
  0
LINE
  5
9A
330
1F
100
AcDbEntity
  8
SLD-0
  6
Continuous
 62
   179
100
AcDbLine
 10
100.7343186456
 20
168.9776396923
 30
0.0
 11
101.5343186456
 21
168.9776396923
 31
0.0
  0
LINE
  5
9B
330
1F
100
AcDbEntity
  8
SLD-0
  6
Continuous
 62
   179
100
AcDbLine
 10
101.5343186456
 20
169.4776396923
 30
0.0
 11
102.5343186456
 21
169.4776396923
 31
0.0
  0
LINE
  5
9C
330
1F
100
AcDbEntity
  8
SLD-0
  6
Continuous
 62
   179
100
AcDbLine
 10
102.8343186456
 20
167.9776396923
 30
0.0
 11
104.8343186456
 21
167.9776396923
 31
0.0
  0
LINE
  5
9D
330
1F
100
AcDbEntity
  8
SLD-0
  6
Continuous
 62
   179
100
AcDbLine
 10
104.8343186456
 20
168.2776396923
 30
0.0
 11
105.0343186456
 21
168.2776396923
 31
0.0
  0
LINE
  5
9E
330
1F
100
AcDbEntity
  8
SLD-0
  6
Continuous
 62
   179
100
AcDbLine
 10
105.0343186456
 20
168.2776396923
 30
0.0
 11
107.3343186456
 21
167.9776396923
 31
0.0
  0
LINE
  5
9F
330
1F
100
AcDbEntity
  8
SLD-0
  6
Continuous
 62
   179
100
AcDbLine
 10
107.3343186456
 20
168.2776396923
 30
0.0
 11
107.5343186456
 21
168.2776396923
 31
0.0
  0
LINE
  5
A0
330
1F
100
AcDbEntity
  8
SLD-0
  6
Continuous
 62
   179
100
AcDbLine
 10
107.5343186456
 20
168.2776396923
 30
0.0
 11
110.3343186456
 21
167.9776396923
 31
0.0
  0
LINE
  5
A1
330
1F
100
AcDbEntity
  8
SLD-0
  6
Continuous
 62
   179
100
AcDbLine
 10
102.5343186456
 20
169.4776396923
 30
0.0
 11
102.8343186456
 21
169.1776396923
 31
0.0
  0
LINE
  5
A2
330
1F
100
AcDbEntity
  8
SLD-0
  6
Continuous
 62
   179
100
AcDbLine
 10
95.7343186456
 20
162.4776396923
 30
0.0
 11
98.7343186456
 21
162.4776396923
 31
0.0
  0
LINE
  5
A3
330
1F
100
AcDbEntity
  8
SLD-0
  6
Continuous
 62
   179
100
AcDbLine
 10
100.7343186456
 20
163.9776396923
 30
0.0
 11
101.5343186456
 21
163.9776396923
 31
0.0
  0
LINE
  5
A4
330
1F
100
AcDbEntity
  8
SLD-0
  6
Continuous
 62
   179
100
AcDbLine
 10
101.5343186456
 20
163.4776396923
 30
0.0
 11
102.5343186456
 21
163.4776396923
 31
0.0
  0
LINE
  5
A5
330
1F
100
AcDbEntity
  8
SLD-0
  6
Continuous
 62
   179
100
AcDbLine
 10
102.8343186456
 20
164.9776396923
 30
0.0
 11
104.8343186456
 21
164.9776396923
 31
0.0
  0
LINE
  5
A6
330
1F
100
AcDbEntity
  8
SLD-0
  6
Continuous
 62
   179
100
AcDbLine
 10
104.8343186456
 20
164.6776396923
 30
0.0
 11
105.0343186456
 21
164.6776396923
 31
0.0
  0
LINE
  5
A7
330
1F
100
AcDbEntity
  8
SLD-0
  6
Continuous
 62
   179
100
AcDbLine
 10
105.0343186456
 20
164.6776396923
 30
0.0
 11
107.3343186456
 21
164.9776396923
 31
0.0
  0
LINE
  5
A8
330
1F
100
AcDbEntity
  8
SLD-0
  6
Continuous
 62
   179
100
AcDbLine
 10
107.3343186456
 20
164.6776396923
 30
0.0
 11
107.5343186456
 21
164.6776396923
 31
0.0
  0
LINE
  5
A9
330
1F
100
AcDbEntity
  8
SLD-0
  6
Continuous
 62
   179
100
AcDbLine
 10
107.5343186456
 20
164.6776396923
 30
0.0
 11
110.3343186456
 21
164.9776396923
 31
0.0
  0
LINE
  5
AA
330
1F
100
AcDbEntity
  8
SLD-0
  6
Continuous
 62
   179
100
AcDbLine
 10
102.5343186456
 20
163.4776396923
 30
0.0
 11
102.8343186456
 21
163.7776396923
 31
0.0
  0
LINE
  5
AB
330
1F
100
AcDbEntity
  8
SLD-0
  6
Continuous
 62
   179
100
AcDbLine
 10
95.7343186456
 20
170.4776396923
 30
0.0
 11
98.7343186456
 21
170.4776396923
 31
0.0
  0
LINE
  5
AC
330
1F
100
AcDbEntity
  8
SLD-0
  6
Continuous
 62
   179
100
AcDbLine
 10
107.5343186456
 20
168.2776396923
 30
0.0
 11
107.5343186456
 21
164.6776396923
 31
0.0
  0
LINE
  5
AD
330
1F
100
AcDbEntity
  8
SLD-0
  6
Continuous
 62
   179
100
AcDbLine
 10
105.0343186456
 20
168.2776396923
 30
0.0
 11
105.0343186456
 21
164.6776396923
 31
0.0
  0
LINE
  5
AE
330
1F
100
AcDbEntity
  8
SLD-0
  6
Continuous
 62
   179
100
AcDbLine
 10
102.5343186456
 20
169.4776396923
 30
0.0
 11
102.5343186456
 21
163.4776396923
 31
0.0
  0
LINE
  5
AF
330
1F
100
AcDbEntity
  8
SLD-0
  6
Continuous
 62
   179
100
AcDbLine
 10
110.3343186456
 20
167.9776396923
 30
0.0
 11
110.3343186456
 21
164.9776396923
 31
0.0
  0
LINE
  5
B0
330
1F
100
AcDbEntity
  8
SLD-0
  6
Continuous
 62
   179
100
AcDbLine
 10
107.3343186456
 20
164.6776396923
 30
0.0
 11
107.3343186456
 21
168.2776396923
 31
0.0
  0
LINE
  5
B1
330
1F
100
AcDbEntity
  8
SLD-0
  6
Continuous
 62
   179
100
AcDbLine
 10
104.8343186456
 20
168.2776396923
 30
0.0
 11
104.8343186456
 21
164.6776396923
 31
0.0
  0
LINE
  5
B2
330
1F
100
AcDbEntity
  8
SLD-0
  6
Continuous
 62
   179
100
AcDbLine
 10
101.5343186456
 20
169.4776396923
 30
0.0
 11
101.5343186456
 21
163.4776396923
 31
0.0
  0
LINE
  5
B3
330
1F
100
AcDbEntity
  8
SLD-0
  6
Continuous
 62
   179
100
AcDbLine
 10
102.8343186456
 20
163.7776396923
 30
0.0
 11
102.8343186456
 21
169.1776396923
 31
0.0
  0
LINE
  5
B4
330
1F
100
AcDbEntity
  8
SLD-0
  6
Continuous
 62
   179
100
AcDbLine
 10
98.7343186456
 20
174.3776396923
 30
0.0
 11
98.7343186456
 21
144.3776396923
 31
0.0
  0
LINE
  5
B5
330
1F
100
AcDbEntity
  8
SLD-0
  6
Continuous
 62
   179
100
AcDbLine
 10
100.7343186456
 20
142.8776396923
 30
0.0
 11
100.7343186456
 21
174.3776396923
 31
0.0
  0
LINE
  5
B6
330
1F
100
AcDbEntity
  8
SLD-0
  6
CENTER
 62
   179
100
AcDbLine
 10
74.2763186456
 20
186.4776396923
 30
0.0
 11
89.8443186456
 21
186.4776396923
 31
0.0
  0
LINE
  5
B7
330
1F
100
AcDbEntity
  8
SLD-0
  6
Continuous
 62
   179
100
AcDbLine
 10
80.2343186456
 20
189.3640156923
 30
0.0
 11
80.2343186456
 21
183.5912636923
 31
0.0
  0
LINE
  5
B8
330
1F
100
AcDbEntity
  8
SLD-0
  6
Continuous
 62
   179
100
AcDbLine
 10
79.2343186456
 20
182.4361876923
 30
0.0
 11
77.2343186456
 21
182.4361876923
 31
0.0
  0
LINE
  5
B9
330
1F
100
AcDbEntity
  8
SLD-0
  6
Continuous
 62
   179
100
AcDbLine
 10
79.2343186456
 20
184.4569136923
 30
0.0
 11
77.2343186456
 21
184.4569136923
 31
0.0
  0
LINE
  5
BA
330
1F
100
AcDbEntity
  8
SLD-0
  6
Continuous
 62
   179
100
AcDbLine
 10
79.2343186456
 20
188.4983656923
 30
0.0
 11
77.2343186456
 21
188.4983656923
 31
0.0
  0
LINE
  5
BB
330
1F
100
AcDbEntity
  8
SLD-0
  6
Continuous
 62
   179
100
AcDbLine
 10
79.2343186456
 20
190.5190916923
 30
0.0
 11
77.2343186456
 21
190.5190916923
 31
0.0
  0
LINE
  5
BC
330
1F
100
AcDbEntity
  8
SLD-0
  6
Continuous
 62
   179
100
AcDbLine
 10
80.2343186456
 20
187.9776396923
 30
0.0
 11
82.2343186456
 21
187.9776396923
 31
0.0
  0
LINE
  5
BD
330
1F
100
AcDbEntity
  8
SLD-0
  6
Continuous
 62
   179
100
AcDbLine
 10
82.2343186456
 20
188.2776396923
 30
0.0
 11
82.4343186456
 21
188.2776396923
 31
0.0
  0
LINE
  5
BE
330
1F
100
AcDbEntity
  8
SLD-0
  6
Continuous
 62
   179
100
AcDbLine
 10
82.4343186456
 20
188.2776396923
 30
0.0
 11
84.7343186456
 21
187.9776396923
 31
0.0
  0
LINE
  5
BF
330
1F
100
AcDbEntity
  8
SLD-0
  6
Continuous
 62
   179
100
AcDbLine
 10
84.7343186456
 20
188.2776396923
 30
0.0
 11
84.9343186456
 21
188.2776396923
 31
0.0
  0
LINE
  5
C0
330
1F
100
AcDbEntity
  8
SLD-0
  6
Continuous
 62
   179
100
AcDbLine
 10
84.9343186456
 20
188.2776396923
 30
0.0
 11
87.7343186456
 21
187.9776396923
 31
0.0
  0
LINE
  5
C1
330
1F
100
AcDbEntity
  8
SLD-0
  6
Continuous
 62
   179
100
AcDbLine
 10
80.2343186456
 20
184.9776396923
 30
0.0
 11
82.2343186456
 21
184.9776396923
 31
0.0
  0
LINE
  5
C2
330
1F
100
AcDbEntity
  8
SLD-0
  6
Continuous
 62
   179
100
AcDbLine
 10
82.2343186456
 20
184.6776396923
 30
0.0
 11
82.4343186456
 21
184.6776396923
 31
0.0
  0
LINE
  5
C3
330
1F
100
AcDbEntity
  8
SLD-0
  6
Continuous
 62
   179
100
AcDbLine
 10
82.4343186456
 20
184.6776396923
 30
0.0
 11
84.7343186456
 21
184.9776396923
 31
0.0
  0
LINE
  5
C4
330
1F
100
AcDbEntity
  8
SLD-0
  6
Continuous
 62
   179
100
AcDbLine
 10
84.7343186456
 20
184.6776396923
 30
0.0
 11
84.9343186456
 21
184.6776396923
 31
0.0
  0
LINE
  5
C5
330
1F
100
AcDbEntity
  8
SLD-0
  6
Continuous
 62
   179
100
AcDbLine
 10
84.9343186456
 20
184.6776396923
 30
0.0
 11
87.7343186456
 21
184.9776396923
 31
0.0
  0
LINE
  5
C6
330
1F
100
AcDbEntity
  8
SLD-0
  6
Continuous
 62
   179
100
AcDbLine
 10
84.9343186456
 20
188.2776396923
 30
0.0
 11
84.9343186456
 21
184.6776396923
 31
0.0
  0
LINE
  5
C7
330
1F
100
AcDbEntity
  8
SLD-0
  6
Continuous
 62
   179
100
AcDbLine
 10
82.4343186456
 20
188.2776396923
 30
0.0
 11
82.4343186456
 21
184.6776396923
 31
0.0
  0
LINE
  5
C8
330
1F
100
AcDbEntity
  8
SLD-0
  6
Continuous
 62
   179
100
AcDbLine
 10
87.7343186456
 20
187.9776396923
 30
0.0
 11
87.7343186456
 21
184.9776396923
 31
0.0
  0
LINE
  5
C9
330
1F
100
AcDbEntity
  8
SLD-0
  6
Continuous
 62
   179
100
AcDbLine
 10
84.7343186456
 20
184.6776396923
 30
0.0
 11
84.7343186456
 21
188.2776396923
 31
0.0
  0
LINE
  5
CA
330
1F
100
AcDbEntity
  8
SLD-0
  6
Continuous
 62
   179
100
AcDbLine
 10
82.2343186456
 20
188.2776396923
 30
0.0
 11
82.2343186456
 21
184.6776396923
 31
0.0
  0
LINE
  5
CB
330
1F
100
AcDbEntity
  8
SLD-0
  6
Continuous
 62
   179
100
AcDbLine
 10
107.7343186456
 20
156.1276396923
 30
0.0
 11
107.7343186456
 21
152.8276396923
 31
0.0
  0
LINE
  5
CC
330
1F
100
AcDbEntity
  8
SLD-0
  6
Continuous
 62
   179
100
AcDbLine
 10
95.7343186456
 20
155.7276396923
 30
0.0
 11
98.7343186456
 21
155.7276396923
 31
0.0
  0
LINE
  5
CD
330
1F
100
AcDbEntity
  8
SLD-0
  6
Continuous
 62
   179
100
AcDbLine
 10
95.7343186456
 20
155.7276396923
 30
0.0
 11
95.7343186456
 21
153.2276396923
 31
0.0
  0
LINE
  5
CE
330
1F
100
AcDbEntity
  8
SLD-0
  6
Continuous
 62
   179
100
AcDbLine
 10
95.7343186456
 20
153.2276396923
 30
0.0
 11
98.7343186456
 21
153.2276396923
 31
0.0
  0
LINE
  5
CF
330
1F
100
AcDbEntity
  8
SLD-0
  6
Continuous
 62
   179
100
AcDbLine
 10
107.7343186456
 20
156.1276396923
 30
0.0
 11
107.3843186456
 21
156.4776396923
 31
0.0
  0
LINE
  5
D0
330
1F
100
AcDbEntity
  8
SLD-0
  6
Continuous
 62
   179
100
AcDbLine
 10
107.7343186456
 20
152.8276396923
 30
0.0
 11
107.3843186456
 21
152.4776396923
 31
0.0
  0
LINE
  5
D1
330
1F
100
AcDbEntity
  8
SLD-0
  6
Continuous
 62
   179
100
AcDbLine
 10
103.7343186456
 20
157.5040836923
 30
0.0
 11
103.7343186456
 21
151.4569136923
 31
0.0
  0
LINE
  5
D2
330
1F
100
AcDbEntity
  8
SLD-0
  6
Continuous
 62
   179
100
AcDbLine
 10
102.7343186456
 20
158.5190916923
 30
0.0
 11
100.7343186456
 21
158.5190916923
 31
0.0
  0
LINE
  5
D3
330
1F
100
AcDbEntity
  8
SLD-0
  6
Continuous
 62
   179
100
AcDbLine
 10
102.7343186456
 20
150.4361876923
 30
0.0
 11
100.7343186456
 21
150.4361876923
 31
0.0
  0
LINE
  5
D4
330
1F
100
AcDbEntity
  8
SLD-0
  6
Continuous
 62
   179
100
AcDbLine
 10
103.7343186456
 20
156.1276396923
 30
0.0
 11
107.7343186456
 21
156.1276396923
 31
0.0
  0
LINE
  5
D5
330
1F
100
AcDbEntity
  8
SLD-0
  6
Continuous
 62
   179
100
AcDbLine
 10
103.7343186456
 20
152.8276396923
 30
0.0
 11
107.7343186456
 21
152.8276396923
 31
0.0
  0
LINE
  5
D6
330
1F
100
AcDbEntity
  8
SLD-0
  6
Continuous
 62
   179
100
AcDbLine
 10
107.3843186456
 20
156.4776396923
 30
0.0
 11
103.7343186456
 21
156.4776396923
 31
0.0
  0
LINE
  5
D7
330
1F
100
AcDbEntity
  8
SLD-0
  6
Continuous
 62
   179
100
AcDbLine
 10
102.7343186456
 20
156.4776396923
 30
0.0
 11
100.7343186456
 21
156.4776396923
 31
0.0
  0
LINE
  5
D8
330
1F
100
AcDbEntity
  8
SLD-0
  6
Continuous
 62
   179
100
AcDbLine
 10
107.3843186456
 20
152.4776396923
 30
0.0
 11
103.7343186456
 21
152.4776396923
 31
0.0
  0
LINE
  5
D9
330
1F
100
AcDbEntity
  8
SLD-0
  6
Continuous
 62
   179
100
AcDbLine
 10
102.7343186456
 20
152.4776396923
 30
0.0
 11
100.7343186456
 21
152.4776396923
 31
0.0
  0
LINE
  5
DA
330
1F
100
AcDbEntity
  8
SLD-0
  6
Continuous
 62
   179
100
AcDbLine
 10
36.7343186456
 20
216.4776396923
 30
0.0
 11
36.7343186456
 21
201.4776396923
 31
0.0
  0
LINE
  5
DB
330
1F
100
AcDbEntity
  8
SLD-0
  6
Continuous
 62
   179
100
AcDbLine
 10
36.7343186456
 20
201.4776396923
 30
0.0
 11
36.7343186456
 21
148.4776396923
 31
0.0
  0
LINE
  5
DC
330
1F
100
AcDbEntity
  8
SLD-0
  6
Continuous
 62
   179
100
AcDbLine
 10
38.7343186456
 20
148.4776396923
 30
0.0
 11
36.7343186456
 21
148.4776396923
 31
0.0
  0
LINE
  5
DD
330
1F
100
AcDbEntity
  8
SLD-0
  6
Continuous
 62
   179
100
AcDbLine
 10
36.7343186456
 20
216.4776396923
 30
0.0
 11
38.7343186456
 21
216.4776396923
 31
0.0
  0
LINE
  5
DE
330
1F
100
AcDbEntity
  8
SLD-0
  6
Continuous
 62
   179
100
AcDbLine
 10
40.6928666456
 20
145.9206396923
 30
0.0
 11
40.6928666456
 21
147.9776396923
 31
0.0
  0
LINE
  5
DF
330
1F
100
AcDbEntity
  8
SLD-0
  6
Continuous
 62
   179
100
AcDbLine
 10
42.7135926456
 20
147.9776396923
 30
0.0
 11
42.7135926456
 21
145.9776396923
 31
0.0
  0
LINE
  5
E0
330
1F
100
AcDbEntity
  8
SLD-0
  6
Continuous
 62
   179
100
AcDbLine
 10
46.7550446456
 20
147.9776396923
 30
0.0
 11
46.7550446456
 21
145.9776396923
 31
0.0
  0
LINE
  5
E1
330
1F
100
AcDbEntity
  8
SLD-0
  6
Continuous
 62
   179
100
AcDbLine
 10
41.7032306456
 20
144.9776396923
 30
0.0
 11
47.7654076456
 21
144.9776396923
 31
0.0
  0
LINE
  5
E2
330
1F
100
AcDbEntity
  8
SLD-0
  6
Continuous
 62
   179
100
AcDbLine
 10
48.7757706456
 20
145.9776396923
 30
0.0
 11
48.7757706456
 21
147.9776396923
 31
0.0
  0
LINE
  5
E3
330
1F
100
AcDbEntity
  8
SLD-0
  6
Continuous
 62
   179
100
AcDbLine
 10
45.734318837
 20
236.4776397236
 30
0.0
 11
44.734318837
 21
236.4776397236
 31
0.0
  0
LINE
  5
E4
330
1F
100
AcDbEntity
  8
SLD-0
  6
Continuous
 62
   179
100
AcDbLine
 10
45.734318837
 20
236.4776397236
 30
0.0
 11
45.734318837
 21
212.4776397236
 31
0.0
  0
LINE
  5
E5
330
1F
100
AcDbEntity
  8
SLD-0
  6
Continuous
 62
   179
100
AcDbLine
 10
142.7343186456
 20
201.4776396923
 30
0.0
 11
174.7343186456
 21
201.4776396923
 31
0.0
  0
LINE
  5
E6
330
1F
100
AcDbEntity
  8
SLD-0
  6
Continuous
 62
   179
100
AcDbLine
 10
174.7343186456
 20
201.4776396923
 30
0.0
 11
174.7343186456
 21
150.4776396923
 31
0.0
  0
LINE
  5
E7
330
1F
100
AcDbEntity
  8
SLD-0
  6
Continuous
 62
   179
100
AcDbLine
 10
142.7343186456
 20
150.4776396923
 30
0.0
 11
142.7343186456
 21
201.4776396923
 31
0.0
  0
LINE
  5
E8
330
1F
100
AcDbEntity
  8
SLD-0
  6
Continuous
 62
   179
100
AcDbLine
 10
174.7343186456
 20
150.4776396923
 30
0.0
 11
174.7343186456
 21
149.9776396923
 31
0.0
  0
LINE
  5
E9
330
1F
100
AcDbEntity
  8
SLD-0
  6
Continuous
 62
   179
100
AcDbLine
 10
142.7343186456
 20
149.9776396923
 30
0.0
 11
142.7343186456
 21
150.4776396923
 31
0.0
  0
LINE
  5
EA
330
1F
100
AcDbEntity
  8
SLD-0
  6
Continuous
 62
   179
100
AcDbLine
 10
174.7343186456
 20
149.9776396923
 30
0.0
 11
174.7343186456
 21
147.9776396923
 31
0.0
  0
LINE
  5
EB
330
1F
100
AcDbEntity
  8
SLD-0
  6
Continuous
 62
   179
100
AcDbLine
 10
142.7343186456
 20
147.9776396923
 30
0.0
 11
142.7343186456
 21
149.9776396923
 31
0.0
  0
LINE
  5
EC
330
1F
100
AcDbEntity
  8
SLD-0
  6
Continuous
 62
   179
100
AcDbLine
 10
174.2343186456
 20
147.9776396923
 30
0.0
 11
174.2343186456
 21
146.3776396923
 31
0.0
  0
LINE
  5
ED
330
1F
100
AcDbEntity
  8
SLD-0
  6
Continuous
 62
   179
100
AcDbLine
 10
143.2343186456
 20
146.3776396923
 30
0.0
 11
143.2343186456
 21
147.9776396923
 31
0.0
  0
LINE
  5
EE
330
1F
100
AcDbEntity
  8
SLD-0
  6
Continuous
 62
   179
100
AcDbLine
 10
142.7343186456
 20
141.3776395383
 30
0.0
 11
174.7343186456
 21
141.3776395383
 31
0.0
  0
LINE
  5
EF
330
1F
100
AcDbEntity
  8
SLD-0
  6
Continuous
 62
   179
100
AcDbLine
 10
142.7343186456
 20
141.3776395383
 30
0.0
 11
142.7343186456
 21
143.3776395383
 31
0.0
  0
LINE
  5
F0
330
1F
100
AcDbEntity
  8
SLD-0
  6
Continuous
 62
   179
100
AcDbLine
 10
174.7343186456
 20
141.3776395383
 30
0.0
 11
174.7343186456
 21
143.3776395383
 31
0.0
  0
LINE
  5
F1
330
1F
100
AcDbEntity
  8
SLD-0
  6
Continuous
 62
   179
100
AcDbLine
 10
142.7343186456
 20
143.3776395383
 30
0.0
 11
151.1331166456
 21
168.9719785383
 31
0.0
  0
LINE
  5
F2
330
1F
100
AcDbEntity
  8
SLD-0
  6
Continuous
 62
   179
100
AcDbLine
 10
174.7343186456
 20
143.3776395383
 30
0.0
 11
166.3355206456
 21
168.9719785383
 31
0.0
  0
LINE
  5
F3
330
1F
100
AcDbEntity
  8
SLD-0
  6
Continuous
 62
   179
100
AcDbLine
 10
172.4044496456
 20
150.4776396923
 30
0.0
 11
174.7343186456
 21
150.4776396923
 31
0.0
  0
LINE
  5
F4
330
1F
100
AcDbEntity
  8
SLD-0
  6
Continuous
 62
   179
100
AcDbLine
 10
174.7343186456
 20
149.9776396923
 30
0.0
 11
172.5685246456
 21
149.9776396923
 31
0.0
  0
LINE
  5
F5
330
1F
100
AcDbEntity
  8
SLD-0
  6
Continuous
 62
   179
100
AcDbLine
 10
174.7343186456
 20
147.9776396923
 30
0.0
 11
173.2248256456
 21
147.9776396923
 31
0.0
  0
LINE
  5
F6
330
1F
100
AcDbEntity
  8
SLD-0
  6
Continuous
 62
   179
100
AcDbLine
 10
174.2343186456
 20
146.3776396923
 30
0.0
 11
173.7498666456
 21
146.3776396923
 31
0.0
  0
LINE
  5
F7
330
1F
100
AcDbEntity
  8
SLD-0
  6
Continuous
 62
   179
100
AcDbLine
 10
144.2438116456
 20
147.9776396923
 30
0.0
 11
142.7343186456
 21
147.9776396923
 31
0.0
  0
LINE
  5
F8
330
1F
100
AcDbEntity
  8
SLD-0
  6
Continuous
 62
   179
100
AcDbLine
 10
144.9001126456
 20
149.9776396923
 30
0.0
 11
142.7343186456
 21
149.9776396923
 31
0.0
  0
LINE
  5
F9
330
1F
100
AcDbEntity
  8
SLD-0
  6
Continuous
 62
   179
100
AcDbLine
 10
142.7343186456
 20
150.4776396923
 30
0.0
 11
145.0641876456
 21
150.4776396923
 31
0.0
  0
LINE
  5
FA
330
1F
100
AcDbEntity
  8
SLD-0
  6
Continuous
 62
   179
100
AcDbLine
 10
143.7187706456
 20
146.3776396923
 30
0.0
 11
143.2343186456
 21
146.3776396923
 31
0.0
  0
LINE
  5
FB
330
1F
100
AcDbEntity
  8
SLD-0
  6
Continuous
 62
   179
100
AcDbLine
 10
172.2343186456
 20
159.9392916923
 30
0.0
 11
172.2343186456
 21
173.0159876923
 31
0.0
  0
LINE
  5
FC
330
1F
100
AcDbEntity
  8
SLD-0
  6
Continuous
 62
   179
100
AcDbLine
 10
145.2343186456
 20
159.9392916923
 30
0.0
 11
145.2343186456
 21
173.0159876923
 31
0.0
  0
LINE
  5
FD
330
1F
100
AcDbEntity
  8
SLD-0
  6
Continuous
 62
   179
100
AcDbLine
 10
158.7343186456
 20
158.5190916923
 30
0.0
 11
162.2343186456
 21
156.4983656923
 31
0.0
  0
LINE
  5
FE
330
1F
100
AcDbEntity
  8
SLD-0
  6
Continuous
 62
   179
100
AcDbLine
 10
162.2343186456
 20
156.4983656923
 30
0.0
 11
162.2343186456
 21
152.4569136923
 31
0.0
  0
LINE
  5
FF
330
1F
100
AcDbEntity
  8
SLD-0
  6
Continuous
 62
   179
100
AcDbLine
 10
162.2343186456
 20
152.4569136923
 30
0.0
 11
158.7343186456
 21
150.4361876923
 31
0.0
  0
LINE
  5
100
330
1F
100
AcDbEntity
  8
SLD-0
  6
Continuous
 62
   179
100
AcDbLine
 10
158.7343186456
 20
150.4361876923
 30
0.0
 11
155.2343186456
 21
152.4569136923
 31
0.0
  0
LINE
  5
101
330
1F
100
AcDbEntity
  8
SLD-0
  6
Continuous
 62
   179
100
AcDbLine
 10
155.2343186456
 20
152.4569136923
 30
0.0
 11
155.2343186456
 21
156.4983656923
 31
0.0
  0
LINE
  5
102
330
1F
100
AcDbEntity
  8
SLD-0
  6
Continuous
 62
   179
100
AcDbLine
 10
155.2343186456
 20
156.4983656923
 30
0.0
 11
158.7343186456
 21
158.5190916923
 31
0.0
  0
LINE
  5
103
330
1F
100
AcDbEntity
  8
SLD-0
  6
Continuous
 62
   179
100
AcDbLine
 10
158.7343186456
 20
155.6323406923
 30
0.0
 11
159.7343186456
 21
155.0549896923
 31
0.0
  0
LINE
  5
104
330
1F
100
AcDbEntity
  8
SLD-0
  6
Continuous
 62
   179
100
AcDbLine
 10
159.7343186456
 20
155.0549896923
 30
0.0
 11
159.7343186456
 21
153.9002896923
 31
0.0
  0
LINE
  5
105
330
1F
100
AcDbEntity
  8
SLD-0
  6
Continuous
 62
   179
100
AcDbLine
 10
159.7343186456
 20
153.9002896923
 30
0.0
 11
158.7343186456
 21
153.3229386923
 31
0.0
  0
LINE
  5
106
330
1F
100
AcDbEntity
  8
SLD-0
  6
Continuous
 62
   179
100
AcDbLine
 10
158.7343186456
 20
153.3229386923
 30
0.0
 11
157.7343186456
 21
153.9002896923
 31
0.0
  0
LINE
  5
107
330
1F
100
AcDbEntity
  8
SLD-0
  6
Continuous
 62
   179
100
AcDbLine
 10
157.7343186456
 20
153.9002896923
 30
0.0
 11
157.7343186456
 21
155.0549896923
 31
0.0
  0
LINE
  5
108
330
1F
100
AcDbEntity
  8
SLD-0
  6
Continuous
 62
   179
100
AcDbLine
 10
157.7343186456
 20
155.0549896923
 30
0.0
 11
158.7343186456
 21
155.6323406923
 31
0.0
  0
LINE
  5
109
330
1F
100
AcDbEntity
  8
SLD-0
  6
CENTER
 62
   179
100
AcDbLine
 10
151.7343186456
 20
166.4776396923
 30
0.0
 11
165.7343186456
 21
166.4776396923
 31
0.0
  0
LINE
  5
10A
330
1F
100
AcDbEntity
  8
SLD-0
  6
CENTER
 62
   179
100
AcDbLine
 10
151.7343186456
 20
154.4776396923
 30
0.0
 11
165.7343186456
 21
154.4776396923
 31
0.0
  0
LINE
  5
10B
330
1F
100
AcDbEntity
  8
SLD-0
  6
Continuous
 62
   179
100
AcDbLine
 10
170.7343186456
 20
190.5190916923
 30
0.0
 11
174.2343186456
 21
188.4983656923
 31
0.0
  0
LINE
  5
10C
330
1F
100
AcDbEntity
  8
SLD-0
  6
Continuous
 62
   179
100
AcDbLine
 10
174.2343186456
 20
188.4983656923
 30
0.0
 11
174.2343186456
 21
184.4569136923
 31
0.0
  0
LINE
  5
10D
330
1F
100
AcDbEntity
  8
SLD-0
  6
Continuous
 62
   179
100
AcDbLine
 10
174.2343186456
 20
184.4569136923
 30
0.0
 11
170.7343186456
 21
182.4361876923
 31
0.0
  0
LINE
  5
10E
330
1F
100
AcDbEntity
  8
SLD-0
  6
Continuous
 62
   179
100
AcDbLine
 10
170.7343186456
 20
182.4361876923
 30
0.0
 11
167.2343186456
 21
184.4569136923
 31
0.0
  0
LINE
  5
10F
330
1F
100
AcDbEntity
  8
SLD-0
  6
Continuous
 62
   179
100
AcDbLine
 10
167.2343186456
 20
184.4569136923
 30
0.0
 11
167.2343186456
 21
188.4983656923
 31
0.0
  0
LINE
  5
110
330
1F
100
AcDbEntity
  8
SLD-0
  6
Continuous
 62
   179
100
AcDbLine
 10
167.2343186456
 20
188.4983656923
 30
0.0
 11
170.7343186456
 21
190.5190916923
 31
0.0
  0
LINE
  5
111
330
1F
100
AcDbEntity
  8
SLD-0
  6
CENTER
 62
   179
100
AcDbLine
 10
163.7343186456
 20
186.4776396923
 30
0.0
 11
177.7343186456
 21
186.4776396923
 31
0.0
  0
LINE
  5
112
330
1F
100
AcDbEntity
  8
SLD-0
  6
CENTER
 62
   179
100
AcDbLine
 10
170.7343186456
 20
179.4776396923
 30
0.0
 11
170.7343186456
 21
193.4776396923
 31
0.0
  0
LINE
  5
113
330
1F
100
AcDbEntity
  8
SLD-0
  6
Continuous
 62
   179
100
AcDbLine
 10
174.7343186456
 20
201.4776396923
 30
0.0
 11
174.7343186456
 21
206.4776396923
 31
0.0
  0
LINE
  5
114
330
1F
100
AcDbEntity
  8
SLD-0
  6
Continuous
 62
   179
100
AcDbLine
 10
174.7343186456
 20
206.4776396923
 30
0.0
 11
142.7343186456
 21
206.4776396923
 31
0.0
  0
LINE
  5
115
330
1F
100
AcDbEntity
  8
SLD-0
  6
Continuous
 62
   179
100
AcDbLine
 10
142.7343186456
 20
206.4776396923
 30
0.0
 11
142.7343186456
 21
201.4776396923
 31
0.0
  0
LINE
  5
116
330
1F
100
AcDbEntity
  8
SLD-0
  6
Continuous
 62
   179
100
AcDbLine
 10
174.7343186456
 20
206.4776396923
 30
0.0
 11
174.7343186456
 21
212.4776396923
 31
0.0
  0
LINE
  5
117
330
1F
100
AcDbEntity
  8
SLD-0
  6
Continuous
 62
   179
100
AcDbLine
 10
174.7343186456
 20
212.4776396923
 30
0.0
 11
142.7343186456
 21
212.4776396923
 31
0.0
  0
LINE
  5
118
330
1F
100
AcDbEntity
  8
SLD-0
  6
Continuous
 62
   179
100
AcDbLine
 10
142.7343186456
 20
212.4776396923
 30
0.0
 11
142.7343186456
 21
206.4776396923
 31
0.0
  0
LINE
  5
119
330
1F
100
AcDbEntity
  8
SLD-0
  6
Continuous
 62
   179
100
AcDbLine
 10
142.7343186456
 20
210.5190916923
 30
0.0
 11
147.7343186456
 21
210.5190916923
 31
0.0
  0
LINE
  5
11A
330
1F
100
AcDbEntity
  8
SLD-0
  6
Continuous
 62
   179
100
AcDbLine
 10
174.7343186456
 20
210.5190916923
 30
0.0
 11
169.7343186456
 21
210.5190916923
 31
0.0
  0
LINE
  5
11B
330
1F
100
AcDbEntity
  8
SLD-0
  6
Continuous
 62
   179
100
AcDbLine
 10
149.7343186456
 20
208.5190916923
 30
0.0
 11
149.7343186456
 21
206.4776396923
 31
0.0
  0
LINE
  5
11C
330
1F
100
AcDbEntity
  8
SLD-0
  6
Continuous
 62
   179
100
AcDbLine
 10
167.7343186456
 20
208.5190916923
 30
0.0
 11
167.7343186456
 21
206.4776396923
 31
0.0
  0
LINE
  5
11D
330
1F
100
AcDbEntity
  8
SLD-0
  6
CENTER
 62
   179
100
AcDbLine
 10
146.2343186456
 20
215.0676396923
 30
0.0
 11
146.2343186456
 21
198.1850736923
 31
0.0
  0
LINE
  5
11E
330
1F
100
AcDbEntity
  8
SLD-0
  6
Continuous
 62
   179
100
AcDbLine
 10
143.2343186456
 20
206.4776396923
 30
0.0
 11
143.2343186456
 21
209.4776396923
 31
0.0
  0
LINE
  5
11F
330
1F
100
AcDbEntity
  8
SLD-0
  6
Continuous
 62
   179
100
AcDbLine
 10
143.2343186456
 20
206.9776396923
 30
0.0
 11
149.2343186456
 21
206.9776396923
 31
0.0
  0
LINE
  5
120
330
1F
100
AcDbEntity
  8
SLD-0
  6
Continuous
 62
   179
100
AcDbLine
 10
149.2343186456
 20
209.4776396923
 30
0.0
 11
149.2343186456
 21
206.4776396923
 31
0.0
  0
LINE
  5
121
330
1F
100
AcDbEntity
  8
SLD-0
  6
Continuous
 62
   179
100
AcDbLine
 10
143.7343186456
 20
209.9776396923
 30
0.0
 11
148.7343186456
 21
209.9776396923
 31
0.0
  0
LINE
  5
122
330
1F
100
AcDbEntity
  8
SLD-0
  6
CENTER
 62
   179
100
AcDbLine
 10
171.2343186456
 20
215.0676396923
 30
0.0
 11
171.2343186456
 21
198.1850736923
 31
0.0
  0
LINE
  5
123
330
1F
100
AcDbEntity
  8
SLD-0
  6
Continuous
 62
   179
100
AcDbLine
 10
168.2343186456
 20
206.4776396923
 30
0.0
 11
168.2343186456
 21
209.4776396923
 31
0.0
  0
LINE
  5
124
330
1F
100
AcDbEntity
  8
SLD-0
  6
Continuous
 62
   179
100
AcDbLine
 10
168.2343186456
 20
206.9776396923
 30
0.0
 11
174.2343186456
 21
206.9776396923
 31
0.0
  0
LINE
  5
125
330
1F
100
AcDbEntity
  8
SLD-0
  6
Continuous
 62
   179
100
AcDbLine
 10
174.2343186456
 20
209.4776396923
 30
0.0
 11
174.2343186456
 21
206.4776396923
 31
0.0
  0
LINE
  5
126
330
1F
100
AcDbEntity
  8
SLD-0
  6
Continuous
 62
   179
100
AcDbLine
 10
168.7343186456
 20
209.9776396923
 30
0.0
 11
173.7343186456
 21
209.9776396923
 31
0.0
  0
LINE
  5
127
330
1F
100
AcDbEntity
  8
SLD-0
  6
CENTER
 62
   179
100
AcDbLine
 10
161.7343186456
 20
204.4776396923
 30
0.0
 11
155.7343186456
 21
204.4776396923
 31
0.0
  0
LINE
  5
128
330
1F
100
AcDbEntity
  8
SLD-0
  6
Continuous
 62
   179
100
AcDbLine
 10
44.7343186456
 20
159.1323406923
 30
0.0
 11
45.7343186456
 21
158.5549896923
 31
0.0
  0
LINE
  5
129
330
1F
100
AcDbEntity
  8
SLD-0
  6
Continuous
 62
   179
100
AcDbLine
 10
45.7343186456
 20
158.5549896923
 30
0.0
 11
45.7343186456
 21
157.4002896923
 31
0.0
  0
LINE
  5
12A
330
1F
100
AcDbEntity
  8
SLD-0
  6
Continuous
 62
   179
100
AcDbLine
 10
45.7343186456
 20
157.4002896923
 30
0.0
 11
44.7343186456
 21
156.8229386923
 31
0.0
  0
LINE
  5
12B
330
1F
100
AcDbEntity
  8
SLD-0
  6
Continuous
 62
   179
100
AcDbLine
 10
44.7343186456
 20
156.8229386923
 30
0.0
 11
43.7343186456
 21
157.4002896923
 31
0.0
  0
LINE
  5
12C
330
1F
100
AcDbEntity
  8
SLD-0
  6
Continuous
 62
   179
100
AcDbLine
 10
43.7343186456
 20
157.4002896923
 30
0.0
 11
43.7343186456
 21
158.5549896923
 31
0.0
  0
LINE
  5
12D
330
1F
100
AcDbEntity
  8
SLD-0
  6
Continuous
 62
   179
100
AcDbLine
 10
43.7343186456
 20
158.5549896923
 30
0.0
 11
44.7343186456
 21
159.1323406923
 31
0.0
  0
LINE
  5
12E
330
1F
100
AcDbEntity
  8
SLD-0
  6
CENTER
 62
   179
100
AcDbLine
 10
44.7343186456
 20
144.3836396923
 30
0.0
 11
44.7343186456
 21
151.2016396923
 31
0.0
  0
LINE
  5
12F
330
1F
100
AcDbEntity
  8
SLD-0
  6
Continuous
 62
   179
100
AcDbLine
 10
48.7343186456
 20
157.9776396923
 30
0.0
 11
49.7343186456
 21
157.9776396923
 31
0.0
  0
LINE
  5
130
330
1F
100
AcDbEntity
  8
SLD-0
  6
Continuous
 62
   179
100
AcDbLine
 10
50.7343186456
 20
157.9776396923
 30
0.0
 11
51.7343186456
 21
157.9776396923
 31
0.0
  0
LINE
  5
131
330
1F
100
AcDbEntity
  8
SLD-0
  6
Continuous
 62
   179
100
AcDbLine
 10
51.7343186456
 20
157.9776396923
 30
0.0
 11
50.2343186456
 21
155.3795636923
 31
0.0
  0
LINE
  5
132
330
1F
100
AcDbEntity
  8
SLD-0
  6
Continuous
 62
   179
100
AcDbLine
 10
48.7343186456
 20
157.9776396923
 30
0.0
 11
50.2343186456
 21
155.3795636923
 31
0.0
  0
LINE
  5
133
330
1F
100
AcDbEntity
  8
SLD-0
  6
Continuous
 62
   179
100
AcDbLine
 10
44.7343186456
 20
163.9776396923
 30
0.0
 11
44.7343186456
 21
162.9776396923
 31
0.0
  0
LINE
  5
134
330
1F
100
AcDbEntity
  8
SLD-0
  6
Continuous
 62
   179
100
AcDbLine
 10
100.7343186456
 20
94.4776396923
 30
0.0
 11
36.7343186456
 21
94.4776396923
 31
0.0
  0
LINE
  5
135
330
1F
100
AcDbEntity
  8
SLD-0
  6
Continuous
 62
   179
100
AcDbLine
 10
38.7343186456
 20
93.4776396923
 30
0.0
 11
38.7343186456
 21
63.4776396923
 31
0.0
  0
LINE
  5
136
330
1F
100
AcDbEntity
  8
SLD-0
  6
Continuous
 62
   179
100
AcDbLine
 10
36.7343186456
 20
62.4776396923
 30
0.0
 11
100.7343186456
 21
62.4776396923
 31
0.0
  0
LINE
  5
137
330
1F
100
AcDbEntity
  8
SLD-0
  6
Continuous
 62
   179
100
AcDbLine
 10
100.7343186456
 20
62.4776396923
 30
0.0
 11
100.7343186456
 21
94.4776396923
 31
0.0
  0
LINE
  5
138
330
1F
100
AcDbEntity
  8
SLD-0
  6
Continuous
 62
   179
100
AcDbLine
 10
80.6984206456
 20
94.4776396923
 30
0.0
 11
80.6984206456
 21
62.4776396923
 31
0.0
  0
LINE
  5
139
330
1F
100
AcDbEntity
  8
SLD-0
  6
Continuous
 62
   179
100
AcDbLine
 10
75.3290626456
 20
94.4776396923
 30
0.0
 11
75.3290626456
 21
62.4776396923
 31
0.0
  0
LINE
  5
13A
330
1F
100
AcDbEntity
  8
SLD-0
  6
Continuous
 62
   179
100
AcDbLine
 10
54.6395746456
 20
94.4776396923
 30
0.0
 11
54.6395746456
 21
62.4776396923
 31
0.0
  0
LINE
  5
13B
330
1F
100
AcDbEntity
  8
SLD-0
  6
Continuous
 62
   179
100
AcDbLine
 10
49.2702166456
 20
94.4776396923
 30
0.0
 11
49.2702166456
 21
62.4776396923
 31
0.0
  0
LINE
  5
13C
330
1F
100
AcDbEntity
  8
SLD-0
  6
Continuous
 62
   179
100
AcDbLine
 10
36.7343186456
 20
94.4776396923
 30
0.0
 11
36.7343186456
 21
62.4776396923
 31
0.0
  0
LINE
  5
13D
330
1F
100
AcDbEntity
  8
SLD-0
  6
Continuous
 62
   179
100
AcDbLine
 10
39.7343186456
 20
94.4776396923
 30
0.0
 11
38.7343186456
 21
93.4776396923
 31
0.0
  0
LINE
  5
13E
330
1F
100
AcDbEntity
  8
SLD-0
  6
Continuous
 62
   179
100
AcDbLine
 10
38.7343186456
 20
63.4776396923
 30
0.0
 11
39.7343186456
 21
62.4776396923
 31
0.0
  0
LINE
  5
13F
330
1F
100
AcDbEntity
  8
SLD-0
  6
CENTER
 62
   179
100
AcDbLine
 10
88.7343186456
 20
92.4776396923
 30
0.0
 11
88.7343186456
 21
84.4776396923
 31
0.0
  0
LINE
  5
140
330
1F
100
AcDbEntity
  8
SLD-0
  6
CENTER
 62
   179
100
AcDbLine
 10
84.7343186456
 20
88.4776396923
 30
0.0
 11
92.7343186456
 21
88.4776396923
 31
0.0
  0
LINE
  5
141
330
1F
100
AcDbEntity
  8
SLD-0
  6
CENTER
 62
   179
100
AcDbLine
 10
88.7343186456
 20
72.4776396923
 30
0.0
 11
88.7343186456
 21
64.4776396923
 31
0.0
  0
LINE
  5
142
330
1F
100
AcDbEntity
  8
SLD-0
  6
CENTER
 62
   179
100
AcDbLine
 10
84.7343186456
 20
68.4776396923
 30
0.0
 11
92.7343186456
 21
68.4776396923
 31
0.0
  0
LINE
  5
143
330
1F
100
AcDbEntity
  8
SLD-0
  6
CENTER
 62
   179
100
AcDbLine
 10
43.7343186456
 20
92.4776396923
 30
0.0
 11
43.7343186456
 21
84.4776396923
 31
0.0
  0
LINE
  5
144
330
1F
100
AcDbEntity
  8
SLD-0
  6
CENTER
 62
   179
100
AcDbLine
 10
39.7343186456
 20
88.4776396923
 30
0.0
 11
47.7343186456
 21
88.4776396923
 31
0.0
  0
LINE
  5
145
330
1F
100
AcDbEntity
  8
SLD-0
  6
CENTER
 62
   179
100
AcDbLine
 10
43.7343186456
 20
72.4776396923
 30
0.0
 11
43.7343186456
 21
64.4776396923
 31
0.0
  0
LINE
  5
146
330
1F
100
AcDbEntity
  8
SLD-0
  6
CENTER
 62
   179
100
AcDbLine
 10
39.7343186456
 20
68.4776396923
 30
0.0
 11
47.7343186456
 21
68.4776396923
 31
0.0
  0
LINE
  5
147
330
1F
100
AcDbEntity
  8
SLD-0
  6
CENTER
 62
   179
100
AcDbLine
 10
54.6395746456
 20
87.4776396923
 30
0.0
 11
67.4543186456
 21
87.4776396923
 31
0.0
  0
LINE
  5
148
330
1F
100
AcDbEntity
  8
SLD-0
  6
CENTER
 62
   179
100
AcDbLine
 10
67.1463186456
 20
69.4776396923
 30
0.0
 11
54.6395746456
 21
69.4776396923
 31
0.0
  0
LINE
  5
149
330
1F
100
AcDbEntity
  8
SLD-0
  6
Continuous
 62
   179
100
AcDbLine
 10
65.7343186456
 20
144.4776396923
 30
0.0
 11
65.7343186456
 21
143.8776396923
 31
0.0
  0
LINE
  5
14A
330
1F
100
AcDbEntity
  8
SLD-0
  6
Continuous
 62
   179
100
AcDbLine
 10
65.7343186456
 20
143.8776396923
 30
0.0
 11
55.7343186456
 21
143.8776396923
 31
0.0
  0
LINE
  5
14B
330
1F
100
AcDbEntity
  8
SLD-0
  6
Continuous
 62
   179
100
AcDbLine
 10
55.7343186456
 20
144.4776396923
 30
0.0
 11
55.7343186456
 21
143.8776396923
 31
0.0
  0
LINE
  5
14C
330
1F
100
AcDbEntity
  8
SLD-0
  6
Continuous
 62
   179
100
AcDbLine
 10
57.2343186456
 20
92.4776396923
 30
0.0
 11
64.2343186456
 21
92.4776396923
 31
0.0
  0
LINE
  5
14D
330
1F
100
AcDbEntity
  8
SLD-0
  6
Continuous
 62
   179
100
AcDbLine
 10
55.7343186456
 20
65.9776396923
 30
0.0
 11
55.7343186456
 21
90.9776396923
 31
0.0
  0
LINE
  5
14E
330
1F
100
AcDbEntity
  8
SLD-0
  6
Continuous
 62
   179
100
AcDbLine
 10
64.2343186456
 20
64.4776396923
 30
0.0
 11
57.2343186456
 21
64.4776396923
 31
0.0
  0
LINE
  5
14F
330
1F
100
AcDbEntity
  8
SLD-0
  6
Continuous
 62
   179
100
AcDbLine
 10
65.7343186456
 20
90.9776396923
 30
0.0
 11
65.7343186456
 21
65.9776396923
 31
0.0
  0
LINE
  5
150
330
1F
100
AcDbEntity
  8
SLD-0
  6
CENTER
 62
   179
100
AcDbLine
 10
60.7343186456
 20
96.4776396923
 30
0.0
 11
60.7343186456
 21
60.4776396923
 31
0.0
  0
LINE
  5
151
330
1F
100
AcDbEntity
  8
SLD-0
  6
CENTER
 62
   179
100
AcDbLine
 10
60.7343186456
 20
153.9776396923
 30
0.0
 11
60.7343186456
 21
139.3776396923
 31
0.0
  0
LINE
  5
152
330
1F
100
AcDbEntity
  8
SLD-0
  6
Continuous
 62
   179
100
AcDbLine
 10
156.8577785536
 20
164.1369985622
 30
0.0
 11
154.9408365536
 21
163.5287365622
 31
0.0
  0
LINE
  5
153
330
1F
100
AcDbEntity
  8
SLD-0
  6
Continuous
 62
   179
100
AcDbLine
 10
156.8577785536
 20
168.8182805143
 30
0.0
 11
154.9408365536
 21
169.4265425143
 31
0.0
  0
LINE
  5
154
330
1F
100
AcDbEntity
  8
SLD-0
  6
CENTER
 62
   179
100
AcDbLine
 10
158.7343186456
 20
170.4776393842
 30
0.0
 11
158.7343186456
 21
224.3396393842
 31
0.0
  0
LINE
  5
155
330
1F
100
AcDbEntity
  8
SLD-0
  6
CENTER
 62
   179
100
AcDbLine
 10
158.7343186456
 20
139.3776396923
 30
0.0
 11
158.7343186456
 21
162.4776396923
 31
0.0
  0
LINE
  5
156
330
1F
100
AcDbEntity
  8
SLD-0
  6
CENTER
 62
   179
100
AcDbLine
 10
158.7343186456
 20
163.4776396923
 30
0.0
 11
158.7343186456
 21
169.4776396923
 31
0.0
  0
LINE
  5
157
330
1F
100
AcDbEntity
  8
SLD-0
  6
Continuous
 62
   179
100
AcDbLine
 10
158.7343186456
 20
163.4776396923
 30
0.0
 11
158.7343186456
 21
162.4776396923
 31
0.0
  0
LINE
  5
158
330
1F
100
AcDbEntity
  8
SLD-0
  6
Continuous
 62
   179
100
AcDbLine
 10
158.7343186456
 20
169.4776396923
 30
0.0
 11
158.7343186456
 21
170.4776393842
 31
0.0
  0
LINE
  5
159
330
1F
100
AcDbEntity
  8
SLD-0
  6
Continuous
 62
   179
100
AcDbLine
 10
161.5533967903
 20
167.5036995909
 30
0.0
 11
162.4930887903
 21
167.8457205909
 31
0.0
  0
LINE
  5
15A
330
1F
100
AcDbEntity
  8
SLD-0
  6
Continuous
 62
   179
100
AcDbLine
 10
161.5533967903
 20
165.4515794856
 30
0.0
 11
162.4930887903
 21
165.1095584856
 31
0.0
  0
LINE
  5
15B
330
1F
100
AcDbEntity
  8
SLD-0
  6
Continuous
 62
   179
100
AcDbLine
 10
100.7343186456
 20
81.9776396923
 30
0.0
 11
102.7343186456
 21
81.9776396923
 31
0.0
  0
LINE
  5
15C
330
1F
100
AcDbEntity
  8
SLD-0
  6
Continuous
 62
   179
100
AcDbLine
 10
100.7343186456
 20
74.9776396923
 30
0.0
 11
102.7343186456
 21
74.9776396923
 31
0.0
  0
LINE
  5
15D
330
1F
100
AcDbEntity
  8
SLD-0
  6
Continuous
 62
   179
100
AcDbLine
 10
103.7343186456
 20
80.2276396923
 30
0.0
 11
103.7343186456
 21
76.7276396923
 31
0.0
  0
LINE
  5
15E
330
1F
100
AcDbEntity
  8
SLD-0
  6
Continuous
 62
   179
100
AcDbLine
 10
103.7343186456
 20
80.1276396923
 30
0.0
 11
107.7343186456
 21
80.1276396923
 31
0.0
  0
LINE
  5
15F
330
1F
100
AcDbEntity
  8
SLD-0
  6
Continuous
 62
   179
100
AcDbLine
 10
103.7343186456
 20
80.4776396923
 30
0.0
 11
107.7343186456
 21
80.4776396923
 31
0.0
  0
LINE
  5
160
330
1F
100
AcDbEntity
  8
SLD-0
  6
Continuous
 62
   179
100
AcDbLine
 10
103.7343186456
 20
76.8276396923
 30
0.0
 11
107.7343186456
 21
76.8276396923
 31
0.0
  0
LINE
  5
161
330
1F
100
AcDbEntity
  8
SLD-0
  6
Continuous
 62
   179
100
AcDbLine
 10
103.7343186456
 20
76.4776396923
 30
0.0
 11
107.7343186456
 21
76.4776396923
 31
0.0
  0
LINE
  5
162
330
1F
100
AcDbEntity
  8
SLD-0
  6
CENTER
 62
   179
100
AcDbLine
 10
100.7343186456
 20
78.4776396923
 30
0.0
 11
31.7343186456
 21
78.4776396923
 31
0.0
  0
LINE
  5
163
330
1F
100
AcDbEntity
  8
SLD-0
  6
CENTER
 62
   179
100
AcDbLine
 10
110.6313186456
 20
78.4776396923
 30
0.0
 11
103.7343186456
 21
78.4776396923
 31
0.0
  0
LINE
  5
164
330
1F
100
AcDbEntity
  8
SLD-0
  6
Continuous
 62
   179
100
AcDbLine
 10
100.7343186456
 20
78.4776396923
 30
0.0
 11
102.7343186456
 21
78.4776396923
 31
0.0
  0
LINE
  5
165
330
1F
100
AcDbEntity
  8
SLD-0
  6
Continuous
 62
   179
100
AcDbLine
 10
107.7343186456
 20
76.4776396923
 30
0.0
 11
107.7343186456
 21
80.4776396923
 31
0.0
  0
LINE
  5
166
330
1F
100
AcDbEntity
  8
SLD-0
  6
Continuous
 62
   179
100
AcDbLine
 10
163.3890026456
 20
236.1409246923
 30
0.0
 11
161.7343186456
 21
234.8135136923
 31
0.0
  0
LINE
  5
167
330
1F
100
AcDbEntity
  8
SLD-0
  6
Continuous
 62
   179
100
AcDbLine
 10
155.7343186274
 20
234.8135136968
 30
0.0
 11
154.0796346274
 21
236.1409246968
 31
0.0
  0
LINE
  5
168
330
1F
100
AcDbEntity
  8
SLD-0
  6
Continuous
 62
   179
100
AcDbLine
 10
157.2554852358
 20
216.3693802087
 30
0.0
 11
157.0373032358
 21
218.3574432087
 31
0.0
  0
LINE
  5
169
330
1F
100
AcDbEntity
  8
SLD-0
  6
Continuous
 62
   179
100
AcDbLine
 10
160.4313340371
 20
218.3574432042
 30
0.0
 11
160.2131520371
 21
216.3693802042
 31
0.0
  0
LINE
  5
16A
330
1F
100
AcDbEntity
  8
SLD-0
  6
Continuous
 62
   179
100
AcDbLine
 10
163.8201726456
 20
235.4863926923
 30
0.0
 11
162.2496546456
 21
221.1759026923
 31
0.0
  0
LINE
  5
16B
330
1F
100
AcDbEntity
  8
SLD-0
  6
Continuous
 62
   179
100
AcDbLine
 10
153.6484640973
 20
235.4863931321
 30
0.0
 11
155.2189820973
 21
221.1759031321
 31
0.0
  0
LINE
  5
16C
330
1F
100
AcDbEntity
  8
SLD-0
  6
Continuous
 62
   179
100
AcDbLine
 10
152.5641596456
 20
217.8665346923
 30
0.0
 11
150.0790806456
 21
217.5938076923
 31
0.0
  0
LINE
  5
16D
330
1F
100
AcDbEntity
  8
SLD-0
  6
Continuous
 62
   179
100
AcDbLine
 10
164.9044770973
 20
217.8665342525
 30
0.0
 11
167.3895560973
 21
217.5938072525
 31
0.0
  0
LINE
  5
16E
330
1F
100
AcDbEntity
  8
SLD-0
  6
Continuous
 62
   179
100
AcDbLine
 10
167.5806756274
 20
219.3352746878
 30
0.0
 11
166.8280786274
 21
212.4776396878
 31
0.0
  0
LINE
  5
16F
330
1F
100
AcDbEntity
  8
SLD-0
  6
Continuous
 62
   179
100
AcDbLine
 10
149.8879616456
 20
219.3352746923
 30
0.0
 11
150.6405586456
 21
212.4776396923
 31
0.0
  0
LINE
  5
170
330
1F
100
AcDbEntity
  8
SLD-0
  6
Continuous
 62
   179
100
AcDbLine
 10
160.2250336456
 20
216.4776396923
 30
0.0
 11
157.2436036456
 21
216.4776396923
 31
0.0
  0
LINE
  5
171
330
1F
100
AcDbEntity
  8
SLD-0
  6
Continuous
 62
   179
100
AcDbLine
 10
150.2015756456
 20
216.4776396923
 30
0.0
 11
146.7343186456
 21
216.4776396923
 31
0.0
  0
LINE
  5
172
330
1F
100
AcDbEntity
  8
SLD-0
  6
Continuous
 62
   179
100
AcDbLine
 10
170.7343186456
 20
216.4776396923
 30
0.0
 11
167.2670616456
 21
216.4776396923
 31
0.0
  0
LINE
  5
173
330
1F
100
AcDbEntity
  8
SLD-0
  6
Continuous
 62
   179
100
AcDbLine
 10
155.7343186274
 20
234.8135136968
 30
0.0
 11
157.4797736274
 21
218.9090046968
 31
0.0
  0
LINE
  5
174
330
1F
100
AcDbEntity
  8
SLD-0
  6
Continuous
 62
   179
100
AcDbLine
 10
159.9888636456
 20
218.9090046923
 30
0.0
 11
161.7343186456
 21
234.8135136923
 31
0.0
  0
LINE
  5
175
330
1F
100
AcDbEntity
  8
SLD-0
  6
CENTER
 62
   179
100
AcDbLine
 10
44.7343186456
 20
153.8229386923
 30
0.0
 11
44.7343186456
 21
162.1323406923
 31
0.0
  0
LINE
  5
176
330
1F
100
AcDbEntity
  8
SLD-0
  6
CENTER
 62
   179
100
AcDbLine
 10
40.7343186456
 20
157.9776396923
 30
0.0
 11
48.7343186456
 21
157.9776396923
 31
0.0
  0
LINE
  5
177
330
1F
100
AcDbEntity
  8
SLD-0
  6
CENTER
 62
   179
100
AcDbLine
 10
34.9723186456
 20
207.4776396923
 30
0.0
 11
46.9403186456
 21
207.4776396923
 31
0.0
  0
LINE
  5
178
330
1F
100
AcDbEntity
  8
SLD-0
  6
CENTER
 62
   179
100
AcDbLine
 10
162.2383186456
 20
207.4776396923
 30
0.0
 11
155.0543186456
 21
207.4776396923
 31
0.0
  0
LINE
  5
179
330
1F
100
AcDbEntity
  8
SLD-0
  6
Continuous
 62
   179
100
AcDbLine
 10
15.0
 20
11.5
 30
0.0
 11
195.0
 21
11.5
 31
0.0
  0
LINE
  5
17A
330
1F
100
AcDbEntity
  8
SLD-0
  6
Continuous
 62
   179
100
AcDbLine
 10
195.0
 20
285.5
 30
0.0
 11
195.0
 21
11.5
 31
0.0
  0
LINE
  5
17B
330
1F
100
AcDbEntity
  8
SLD-0
  6
Continuous
 62
   179
100
AcDbLine
 10
15.0
 20
285.5
 30
0.0
 11
15.0
 21
11.5
 31
0.0
  0
LINE
  5
17C
330
1F
100
AcDbEntity
  8
SLD-0
  6
Continuous
 62
   179
100
AcDbLine
 10
15.0
 20
285.5
 30
0.0
 11
195.0
 21
285.5
 31
0.0
  0
LINE
  5
17D
330
1F
100
AcDbEntity
  8
SLD-0
  6
Continuous
 62
   179
100
AcDbLine
 10
120.0
 20
50.0
 30
0.0
 11
120.0
 21
11.5
 31
0.0
  0
LINE
  5
17E
330
1F
100
AcDbEntity
  8
SLD-0
  6
Continuous
 62
   179
100
AcDbLine
 10
120.0
 20
24.0
 30
0.0
 11
195.0
 21
24.0
 31
0.0
  0
LINE
  5
17F
330
1F
100
AcDbEntity
  8
SLD-0
  6
Continuous
 62
   179
100
AcDbLine
 10
120.0
 20
36.5
 30
0.0
 11
195.0
 21
36.5
 31
0.0
  0
LINE
  5
180
330
1F
100
AcDbEntity
  8
SLD-0
  6
Continuous
 62
   179
100
AcDbLine
 10
120.0
 20
50.0
 30
0.0
 11
195.0
 21
50.0
 31
0.0
  0
LINE
  5
181
330
1F
100
AcDbEntity
  8
SLD-0
  6
Continuous
 62
   179
100
AcDbLine
 10
14.8
 20
11.3
 30
0.0
 11
195.2
 21
11.3
 31
0.0
  0
LINE
  5
182
330
1F
100
AcDbEntity
  8
SLD-0
  6
Continuous
 62
   179
100
AcDbLine
 10
14.8
 20
285.7
 30
0.0
 11
14.8
 21
11.3
 31
0.0
  0
LINE
  5
183
330
1F
100
AcDbEntity
  8
SLD-0
  6
Continuous
 62
   179
100
AcDbLine
 10
14.8
 20
285.7
 30
0.0
 11
195.2
 21
285.7
 31
0.0
  0
LINE
  5
184
330
1F
100
AcDbEntity
  8
SLD-0
  6
Continuous
 62
   179
100
AcDbLine
 10
195.2
 20
285.7
 30
0.0
 11
195.2
 21
11.3
 31
0.0
  0
ARC
  5
185
330
1F
100
AcDbEntity
  8
SLD-0
  6
Continuous
 62
   179
100
AcDbCircle
 10
60.7343186456
 20
149.5203734948
 30
0.0
 40
7.642733802527119
100
AcDbArc
 50
252.4120449166
 51
270.0
  0
ARC
  5
186
330
1F
100
AcDbEntity
  8
SLD-0
  6
Continuous
 62
   179
100
AcDbCircle
 10
57.2702165738
 20
143.9222973243
 30
0.0
 40
2.044657978492834
100
AcDbArc
 50
270.0
 51
304.3842677783
  0
ARC
  5
187
330
1F
100
AcDbEntity
  8
SLD-0
  6
Continuous
 62
   179
100
AcDbCircle
 10
60.7343186456
 20
149.5203734948
 30
0.0
 40
7.642733802527113
100
AcDbArc
 50
270.0
 51
287.5879550834
  0
ARC
  5
188
330
1F
100
AcDbEntity
  8
SLD-0
  6
Continuous
 62
   179
100
AcDbCircle
 10
64.1984207174
 20
143.9222973243
 30
0.0
 40
2.044657978492854
100
AcDbArc
 50
235.6157322217
 51
270.0
  0
CIRCLE
  5
189
330
1F
100
AcDbEntity
  8
SLD-0
  6
Continuous
 62
   179
100
AcDbCircle
 10
60.7343186456
 20
87.4776396923
 30
0.0
 40
4.0
  0
CIRCLE
  5
18A
330
1F
100
AcDbEntity
  8
SLD-0
  6
Continuous
 62
   179
100
AcDbCircle
 10
60.7343186456
 20
69.4776396923
 30
0.0
 40
4.0
  0
ARC
  5
18B
330
1F
100
AcDbEntity
  8
SLD-0
  6
Continuous
 62
   179
100
AcDbCircle
 10
99.2343186456
 20
142.8776396923
 30
0.0
 40
1.5
100
AcDbArc
 50
270.0
 51
0.0
  0
ARC
  5
18C
330
1F
100
AcDbEntity
  8
SLD-0
  6
Continuous
 62
   179
100
AcDbCircle
 10
97.7343186456
 20
144.3776396923
 30
0.0
 40
1.0
100
AcDbArc
 50
270.0
 51
0.0
  0
ARC
  5
18D
330
1F
100
AcDbEntity
  8
SLD-0
  6
Continuous
 62
   179
100
AcDbCircle
 10
77.2343186456
 20
166.4776396923
 30
0.0
 40
14.99999981897014
100
AcDbArc
 50
334.1580686646
 51
25.8419313354
  0
ARC
  5
18E
330
1F
100
AcDbEntity
  8
SLD-0
  6
Continuous
 62
   179
100
AcDbCircle
 10
71.2343186456
 20
209.4776396923
 30
0.0
 40
0.5
100
AcDbArc
 50
90.0
 51
180.0
  0
ARC
  5
18F
330
1F
100
AcDbEntity
  8
SLD-0
  6
Continuous
 62
   179
100
AcDbCircle
 10
76.2343186456
 20
209.4776396923
 30
0.0
 40
0.5
100
AcDbArc
 50
0.0
 51
90.0
  0
ARC
  5
190
330
1F
100
AcDbEntity
  8
SLD-0
  6
Continuous
 62
   179
100
AcDbCircle
 10
49.2343186456
 20
209.4776396923
 30
0.0
 40
0.5
100
AcDbArc
 50
90.0
 51
180.0
  0
ARC
  5
191
330
1F
100
AcDbEntity
  8
SLD-0
  6
Continuous
 62
   179
100
AcDbCircle
 10
54.2343186456
 20
209.4776396923
 30
0.0
 40
0.5
100
AcDbArc
 50
0.0
 51
90.0
  0
ARC
  5
192
330
1F
100
AcDbEntity
  8
SLD-0
  6
Continuous
 62
   179
100
AcDbCircle
 10
101.2343186456
 20
154.4776396923
 30
0.0
 40
2.5
100
AcDbArc
 50
306.8698976458
 51
53.1301023542
  0
ARC
  5
193
330
1F
100
AcDbEntity
  8
SLD-0
  6
Continuous
 62
   179
100
AcDbCircle
 10
102.7133776456
 20
151.4569136923
 30
0.0
 40
1.020940787977956
100
AcDbArc
 50
271.17530329
 51
88.82469671
  0
ARC
  5
194
330
1F
100
AcDbEntity
  8
SLD-0
  6
Continuous
 62
   179
100
AcDbCircle
 10
102.7133776456
 20
157.4983656923
 30
0.0
 40
1.020940787977928
100
AcDbArc
 50
271.17530329
 51
88.82469671
  0
ARC
  5
195
330
1F
100
AcDbEntity
  8
SLD-0
  6
Continuous
 62
   179
100
AcDbCircle
 10
79.2239016456
 20
183.4465506923
 30
0.0
 40
1.010416699019807
100
AcDbArc
 50
270.5907074866
 51
89.4092925134
  0
ARC
  5
196
330
1F
100
AcDbEntity
  8
SLD-0
  6
Continuous
 62
   179
100
AcDbCircle
 10
77.6926516456
 20
186.4776396923
 30
0.0
 40
2.541666914834641
100
AcDbArc
 50
307.3409981999
 51
52.6590018001
  0
ARC
  5
197
330
1F
100
AcDbEntity
  8
SLD-0
  6
Continuous
 62
   179
100
AcDbCircle
 10
79.2239016456
 20
189.5087286923
 30
0.0
 40
1.010416699019778
100
AcDbArc
 50
270.5907074866
 51
89.4092925134
  0
ARC
  5
198
330
1F
100
AcDbEntity
  8
SLD-0
  6
Continuous
 62
   179
100
AcDbCircle
 10
41.7032294951
 20
145.9880566938
 30
0.0
 40
1.010416849509899
100
AcDbArc
 50
180.590689
 51
359.4092925134
  0
ARC
  5
199
330
1F
100
AcDbEntity
  8
SLD-0
  6
Continuous
 62
   179
100
AcDbCircle
 10
44.7343186456
 20
147.5193066923
 30
0.0
 40
2.541666914834623
100
AcDbArc
 50
217.3409981999
 51
322.6590018001
  0
ARC
  5
19A
330
1F
100
AcDbEntity
  8
SLD-0
  6
Continuous
 62
   179
100
AcDbCircle
 10
47.7654076456
 20
145.9880566923
 30
0.0
 40
1.010416699019778
100
AcDbArc
 50
180.5907074868
 51
359.4092925134
  0
ARC
  5
19B
330
1F
100
AcDbEntity
  8
SLD-0
  6
Continuous
 62
   179
100
AcDbCircle
 10
65.637339695
 20
222.7640068167
 30
0.0
 40
25.00000016985132
100
AcDbArc
 50
146.7327275376
 51
184.857639
  0
ARC
  5
19C
330
1F
100
AcDbEntity
  8
SLD-0
  6
Continuous
 62
   179
100
AcDbCircle
 10
38.7343186456
 20
220.4776398125
 30
0.0
 40
2.000000120232687
100
AcDbArc
 50
270.0
 51
4.8576355111
  0
ARC
  5
19D
330
1F
100
AcDbEntity
  8
SLD-0
  6
Continuous
 62
   179
100
AcDbCircle
 10
158.7343186456
 20
166.4776395383
 30
0.0
 40
7.999999930732785
100
AcDbArc
 50
18.16728074
 51
161.83271926
  0
CIRCLE
  5
19E
330
1F
100
AcDbEntity
  8
SLD-0
  6
Continuous
 62
   179
100
AcDbCircle
 10
158.7343186456
 20
166.4776395383
 30
0.0
 40
3.000000000000004
  0
CIRCLE
  5
19F
330
1F
100
AcDbEntity
  8
SLD-0
  6
Continuous
 62
   179
100
AcDbCircle
 10
158.7343186456
 20
166.4776395383
 30
0.0
 40
1.800000000000018
  0
CIRCLE
  5
1A0
330
1F
100
AcDbEntity
  8
SLD-0
  6
Continuous
 62
   179
100
AcDbCircle
 10
158.7343186456
 20
166.4776395383
 30
0.0
 40
1.500000000000008
  0
CIRCLE
  5
1A1
330
1F
100
AcDbEntity
  8
SLD-0
  6
Continuous
 62
   179
100
AcDbCircle
 10
158.7343186456
 20
166.4776395383
 30
0.0
 40
1.000000000000012
  0
ARC
  5
1A2
330
1F
100
AcDbEntity
  8
SLD-0
  6
Continuous
 62
   179
100
AcDbCircle
 10
158.7343186456
 20
166.4776395383
 30
0.0
 40
8.999999999999996
100
AcDbArc
 50
134.566674
 51
189.098763
  0
ARC
  5
1A3
330
1F
100
AcDbEntity
  8
SLD-0
  6
Continuous
 62
   179
100
AcDbCircle
 10
158.7343186456
 20
166.4776395383
 30
0.0
 40
13.5
100
AcDbArc
 50
108.173922
 51
215.491516
  0
ARC
  5
1A4
330
1F
100
AcDbEntity
  8
SLD-0
  6
Continuous
 62
   179
100
AcDbCircle
 10
158.7343186456
 20
166.4776395383
 30
0.0
 40
15.00000000000001
100
AcDbArc
 50
104.063671
 51
219.601766
  0
ARC
  5
1A5
330
1F
100
AcDbEntity
  8
SLD-0
  6
Continuous
 62
   179
100
AcDbCircle
 10
158.7343186456
 20
166.4776395383
 30
0.0
 40
9.000000000000014
100
AcDbArc
 50
350.901237
 51
45.433326
  0
ARC
  5
1A6
330
1F
100
AcDbEntity
  8
SLD-0
  6
Continuous
 62
   179
100
AcDbCircle
 10
158.7343186456
 20
166.4776395383
 30
0.0
 40
8.999999999999996
100
AcDbArc
 50
45.433326
 51
134.566674
  0
ARC
  5
1A7
330
1F
100
AcDbEntity
  8
SLD-0
  6
Continuous
 62
   179
100
AcDbCircle
 10
158.7343186456
 20
166.4776395383
 30
0.0
 40
13.5
100
AcDbArc
 50
324.508484
 51
71.826078
  0
ARC
  5
1A8
330
1F
100
AcDbEntity
  8
SLD-0
  6
Continuous
 62
   179
100
AcDbCircle
 10
158.7343186456
 20
166.4776395383
 30
0.0
 40
13.5
100
AcDbArc
 50
71.826078
 51
108.173922
  0
ARC
  5
1A9
330
1F
100
AcDbEntity
  8
SLD-0
  6
Continuous
 62
   179
100
AcDbCircle
 10
158.7343186456
 20
166.4776395383
 30
0.0
 40
15.00000000000001
100
AcDbArc
 50
320.398234
 51
75.936329
  0
ARC
  5
1AA
330
1F
100
AcDbEntity
  8
SLD-0
  6
Continuous
 62
   179
100
AcDbCircle
 10
158.7343186456
 20
166.4776395383
 30
0.0
 40
15.00000000000001
100
AcDbArc
 50
75.936329
 51
104.063671
  0
CIRCLE
  5
1AB
330
1F
100
AcDbEntity
  8
SLD-0
  6
Continuous
 62
   179
100
AcDbCircle
 10
158.7343186456
 20
154.4776396923
 30
0.0
 40
3.5
  0
CIRCLE
  5
1AC
330
1F
100
AcDbEntity
  8
SLD-0
  6
Continuous
 62
   179
100
AcDbCircle
 10
158.7343186456
 20
154.4776396923
 30
0.0
 40
1.650000000000034
  0
CIRCLE
  5
1AD
330
1F
100
AcDbEntity
  8
SLD-0
  6
Continuous
 62
   179
100
AcDbCircle
 10
158.7343186456
 20
154.4776396923
 30
0.0
 40
2.0
  0
CIRCLE
  5
1AE
330
1F
100
AcDbEntity
  8
SLD-0
  6
Continuous
 62
   179
100
AcDbCircle
 10
170.7343186456
 20
186.4776396923
 30
0.0
 40
3.5
  0
CIRCLE
  5
1AF
330
1F
100
AcDbEntity
  8
SLD-0
  6
Continuous
 62
   179
100
AcDbCircle
 10
170.7343186456
 20
186.4776396923
 30
0.0
 40
1.799999999999983
  0
CIRCLE
  5
1B0
330
1F
100
AcDbEntity
  8
SLD-0
  6
Continuous
 62
   179
100
AcDbCircle
 10
170.7343186456
 20
186.4776396923
 30
0.0
 40
1.5
  0
CIRCLE
  5
1B1
330
1F
100
AcDbEntity
  8
SLD-0
  6
Continuous
 62
   179
100
AcDbCircle
 10
170.7343186456
 20
186.4776396923
 30
0.0
 40
1.0
  0
ARC
  5
1B2
330
1F
100
AcDbEntity
  8
SLD-0
  6
Continuous
 62
   179
100
AcDbCircle
 10
147.7343186456
 20
208.5190916923
 30
0.0
 40
2.0
100
AcDbArc
 50
0.0
 51
90.0
  0
ARC
  5
1B3
330
1F
100
AcDbEntity
  8
SLD-0
  6
Continuous
 62
   179
100
AcDbCircle
 10
169.7343186456
 20
208.5190916923
 30
0.0
 40
2.0
100
AcDbArc
 50
90.0
 51
180.0
  0
ARC
  5
1B4
330
1F
100
AcDbEntity
  8
SLD-0
  6
Continuous
 62
   179
100
AcDbCircle
 10
143.7343186456
 20
209.4776396923
 30
0.0
 40
0.5
100
AcDbArc
 50
90.0
 51
180.0
  0
ARC
  5
1B5
330
1F
100
AcDbEntity
  8
SLD-0
  6
Continuous
 62
   179
100
AcDbCircle
 10
148.7343186456
 20
209.4776396923
 30
0.0
 40
0.5
100
AcDbArc
 50
0.0
 51
90.0
  0
ARC
  5
1B6
330
1F
100
AcDbEntity
  8
SLD-0
  6
Continuous
 62
   179
100
AcDbCircle
 10
168.7343186456
 20
209.4776396923
 30
0.0
 40
0.5
100
AcDbArc
 50
90.0
 51
180.0
  0
ARC
  5
1B7
330
1F
100
AcDbEntity
  8
SLD-0
  6
Continuous
 62
   179
100
AcDbCircle
 10
173.7343186456
 20
209.4776396923
 30
0.0
 40
0.5
100
AcDbArc
 50
0.0
 51
90.0
  0
CIRCLE
  5
1B8
330
1F
100
AcDbEntity
  8
SLD-0
  6
Continuous
 62
   179
100
AcDbCircle
 10
158.7343186456
 20
204.4776396923
 30
0.0
 40
1.0
  0
ARC
  5
1B9
330
1F
100
AcDbEntity
  8
SLD-0
  6
Continuous
 62
   179
100
AcDbCircle
 10
170.7343186456
 20
212.4776396923
 30
0.0
 40
4.0
100
AcDbArc
 50
0.0
 51
90.0
  0
ARC
  5
1BA
330
1F
100
AcDbEntity
  8
SLD-0
  6
Continuous
 62
   179
100
AcDbCircle
 10
146.7343186456
 20
212.4776396923
 30
0.0
 40
4.0
100
AcDbArc
 50
90.0
 51
180.0
  0
CIRCLE
  5
1BB
330
1F
100
AcDbEntity
  8
SLD-0
  6
Continuous
 62
   179
100
AcDbCircle
 10
44.7343186456
 20
157.9776396923
 30
0.0
 40
1.649999999999999
  0
CIRCLE
  5
1BC
330
1F
100
AcDbEntity
  8
SLD-0
  6
Continuous
 62
   179
100
AcDbCircle
 10
44.7343186456
 20
157.9776396923
 30
0.0
 40
2.0
  0
ARC
  5
1BD
330
1F
100
AcDbEntity
  8
SLD-0
  6
Continuous
 62
   179
100
AcDbCircle
 10
44.7343186456
 20
157.9776396923
 30
0.0
 40
6.000000000000007
100
AcDbArc
 50
0.0
 51
90.0
  0
ARC
  5
1BE
330
1F
100
AcDbEntity
  8
SLD-0
  6
Continuous
 62
   179
100
AcDbCircle
 10
44.7343186456
 20
157.9776396923
 30
0.0
 40
5.0
100
AcDbArc
 50
0.0
 51
90.0
  0
CIRCLE
  5
1BF
330
1F
100
AcDbEntity
  8
SLD-0
  6
Continuous
 62
   179
100
AcDbCircle
 10
88.7343186456
 20
88.4776396923
 30
0.0
 40
1.650000000000006
  0
CIRCLE
  5
1C0
330
1F
100
AcDbEntity
  8
SLD-0
  6
Continuous
 62
   179
100
AcDbCircle
 10
88.7343186456
 20
88.4776396923
 30
0.0
 40
2.0
  0
CIRCLE
  5
1C1
330
1F
100
AcDbEntity
  8
SLD-0
  6
Continuous
 62
   179
100
AcDbCircle
 10
88.7343186456
 20
68.4776396923
 30
0.0
 40
1.650000000000006
  0
CIRCLE
  5
1C2
330
1F
100
AcDbEntity
  8
SLD-0
  6
Continuous
 62
   179
100
AcDbCircle
 10
88.7343186456
 20
68.4776396923
 30
0.0
 40
2.0
  0
CIRCLE
  5
1C3
330
1F
100
AcDbEntity
  8
SLD-0
  6
Continuous
 62
   179
100
AcDbCircle
 10
43.7343186456
 20
88.4776396923
 30
0.0
 40
1.649999999999999
  0
CIRCLE
  5
1C4
330
1F
100
AcDbEntity
  8
SLD-0
  6
Continuous
 62
   179
100
AcDbCircle
 10
43.7343186456
 20
88.4776396923
 30
0.0
 40
2.0
  0
CIRCLE
  5
1C5
330
1F
100
AcDbEntity
  8
SLD-0
  6
Continuous
 62
   179
100
AcDbCircle
 10
43.7343186456
 20
68.4776396923
 30
0.0
 40
1.649999999999999
  0
CIRCLE
  5
1C6
330
1F
100
AcDbEntity
  8
SLD-0
  6
Continuous
 62
   179
100
AcDbCircle
 10
43.7343186456
 20
68.4776396923
 30
0.0
 40
2.0
  0
ARC
  5
1C7
330
1F
100
AcDbEntity
  8
SLD-0
  6
Continuous
 62
   179
100
AcDbCircle
 10
57.2343186456
 20
90.9776396923
 30
0.0
 40
1.500000000000014
100
AcDbArc
 50
90.0
 51
180.0
  0
ARC
  5
1C8
330
1F
100
AcDbEntity
  8
SLD-0
  6
Continuous
 62
   179
100
AcDbCircle
 10
64.2343186456
 20
90.9776396923
 30
0.0
 40
1.500000000000014
100
AcDbArc
 50
0.0
 51
90.0
  0
ARC
  5
1C9
330
1F
100
AcDbEntity
  8
SLD-0
  6
Continuous
 62
   179
100
AcDbCircle
 10
64.2343186456
 20
65.9776396923
 30
0.0
 40
1.5
100
AcDbArc
 50
270.0
 51
0.0
  0
ARC
  5
1CA
330
1F
100
AcDbEntity
  8
SLD-0
  6
Continuous
 62
   179
100
AcDbCircle
 10
57.2343186456
 20
65.9776396923
 30
0.0
 40
1.5
100
AcDbArc
 50
180.0
 51
270.0
  0
ARC
  5
1CB
330
1F
100
AcDbEntity
  8
SLD-0
  6
Continuous
 62
   179
100
AcDbCircle
 10
158.7343186456
 20
166.4776395383
 30
0.0
 40
5.500000000000004
100
AcDbArc
 50
223.243254
 51
136.756746
  0
ARC
  5
1CC
330
1F
100
AcDbEntity
  8
SLD-0
  6
Continuous
 62
   179
100
AcDbCircle
 10
155.0920605806
 20
169.9031255994
 30
0.0
 40
0.5000001432944738
100
AcDbArc
 50
136.756749631
 51
252.3953067997
  0
ARC
  5
1CD
330
1F
100
AcDbEntity
  8
SLD-0
  6
Continuous
 62
   179
100
AcDbCircle
 10
155.0920605806
 20
163.0521534771
 30
0.0
 40
0.500000143294528
100
AcDbArc
 50
107.6046932002
 51
223.243250369
  0
ARC
  5
1CE
330
1F
100
AcDbEntity
  8
SLD-0
  6
Continuous
 62
   179
100
AcDbCircle
 10
158.7343186456
 20
166.4776395383
 30
0.0
 40
3.999999845966334
100
AcDbArc
 50
270.0
 51
339.9999918897
  0
ARC
  5
1CF
330
1F
100
AcDbEntity
  8
SLD-0
  6
Continuous
 62
   179
100
AcDbCircle
 10
158.7343186456
 20
166.4776395383
 30
0.0
 40
3.999999845966329
100
AcDbArc
 50
20.0000081104
 51
90.0
  0
ARC
  5
1D0
330
1F
100
AcDbEntity
  8
SLD-0
  6
Continuous
 62
   179
100
AcDbCircle
 10
101.7030686456
 20
80.2276396923
 30
0.0
 40
2.03125
100
AcDbArc
 50
300.5102374061
 51
59.4897625939
  0
ARC
  5
1D1
330
1F
100
AcDbEntity
  8
SLD-0
  6
Continuous
 62
   179
100
AcDbCircle
 10
101.7030686456
 20
76.7276396923
 30
0.0
 40
2.031250000000012
100
AcDbArc
 50
300.5102374061
 51
59.4897625939
  0
ARC
  5
1D2
330
1F
100
AcDbEntity
  8
SLD-0
  6
Continuous
 62
   179
100
AcDbCircle
 10
142.7298816373
 20
222.0625476867
 30
0.0
 40
24.99999959893744
100
AcDbArc
 50
353.7370861467
 51
34.2728885463
  0
ARC
  5
1D3
330
1F
100
AcDbEntity
  8
SLD-0
  6
Continuous
 62
   179
100
AcDbCircle
 10
174.7387556356
 20
222.0625476912
 30
0.0
 40
24.99999959893728
100
AcDbArc
 50
145.7271114537
 51
186.2629138533
  0
ARC
  5
1D4
330
1F
100
AcDbEntity
  8
SLD-0
  6
Continuous
 62
   179
100
AcDbCircle
 10
158.7343192033
 20
207.4776391682
 30
0.0
 40
8.499999999999988
100
AcDbArc
 50
36.031879
 51
96.262913
  0
ARC
  5
1D5
330
1F
100
AcDbEntity
  8
SLD-0
  6
Continuous
 62
   179
100
AcDbCircle
 10
157.7525011992
 20
216.4239252047
 30
0.0
 40
0.5000000244993247
100
AcDbArc
 50
186.2628599557
 51
276.262894465
  0
ARC
  5
1D6
330
1F
100
AcDbEntity
  8
SLD-0
  6
Continuous
 62
   179
100
AcDbCircle
 10
159.7161360676
 20
216.4239252009
 30
0.0
 40
0.5000000306405118
100
AcDbArc
 50
263.737087
 51
353.7371400443
  0
ARC
  5
1D7
330
1F
100
AcDbEntity
  8
SLD-0
  6
Continuous
 62
   179
100
AcDbCircle
 10
159.9343185854
 20
218.411989144
 30
0.0
 40
0.4999996188105154
100
AcDbArc
 50
353.7370261367
 51
83.7371275435
  0
ARC
  5
1D8
330
1F
100
AcDbEntity
  8
SLD-0
  6
Continuous
 62
   179
100
AcDbCircle
 10
157.5343186875
 20
218.4119891486
 30
0.0
 40
0.4999996188105031
100
AcDbArc
 50
96.2628724565
 51
186.2629738633
  0
ARC
  5
1D9
330
1F
100
AcDbEntity
  8
SLD-0
  6
Continuous
 62
   179
100
AcDbCircle
 10
165.2317501515
 20
220.8486297465
 30
0.0
 40
3.000000197941538
100
AcDbArc
 50
173.7370830905
 51
263.737081007
  0
ARC
  5
1DA
330
1F
100
AcDbEntity
  8
SLD-0
  6
Continuous
 62
   179
100
AcDbCircle
 10
152.2368865914
 20
220.8486301863
 30
0.0
 40
3.00000019794164
100
AcDbArc
 50
276.262918993
 51
6.2629169095
  0
ARC
  5
1DB
330
1F
100
AcDbEntity
  8
SLD-0
  6
Continuous
 62
   179
100
AcDbCircle
 10
158.7343192033
 20
207.4776391682
 30
0.0
 40
9.000000000000011
100
AcDbArc
 50
33.748989
 51
80.557257
  0
POINT
  5
1DC
330
1F
100
AcDbEntity
  8
SLD-0
100
AcDbPoint
 10
15.0
 20
285.5
 30
0.0
  0
POINT
  5
1DD
330
1F
100
AcDbEntity
  8
SLD-0
100
AcDbPoint
 10
15.0
 20
11.5
 30
0.0
  0
POINT
  5
1DE
330
1F
100
AcDbEntity
  8
SLD-0
100
AcDbPoint
 10
195.0
 20
11.5
 30
0.0
  0
POINT
  5
1DF
330
1F
100
AcDbEntity
  8
SLD-0
100
AcDbPoint
 10
195.0
 20
285.5
 30
0.0
  0
POINT
  5
1E0
330
1F
100
AcDbEntity
  8
SLD-0
100
AcDbPoint
 10
195.0
 20
285.5
 30
0.0
  0
MTEXT
  5
1E2
330
1F
100
AcDbEntity
  8
SLD-0
 62
     7
100
AcDbMText
 10
50.9843186274
 20
163.9720394134
 30
0.0
 40
1.5
 41
0.0
 71
     1
 72
     1
  1
ＬＯＣＫ
  7
SLDTEXTSTYLE2
 73
     1
 44
1.0
  0
MTEXT
  5
1E4
330
1F
100
AcDbEntity
  8
SLD-0
 62
     7
100
AcDbMText
 10
144.4914943513
 20
48.0105347563
 30
0.0
 40
4.8000001907
 41
0.0
 71
     1
 72
     1
  1
エアニッパー
  7
SLDTEXTSTYLE3
 73
     1
 44
1.0
  0
MTEXT
  5
1E6
330
1F
100
AcDbEntity
  8
SLD-0
 62
     7
100
AcDbMText
 10
129.8504003919
 20
41.9831464339
 30
0.0
 40
4.8000001907
 41
0.0
 71
     1
 72
     1
  1
（スライドタイプタテ型）
  7
SLDTEXTSTYLE4
 73
     1
 44
1.0
  0
MTEXT
  5
1E8
330
1F
100
AcDbEntity
  8
SLD-0
 62
     7
100
AcDbMText
 10
121.92711458
 20
31.1338474535
 30
0.0
 40
4.8000001907
 41
0.0
 71
     1
 72
     1
  1
ＧＴ－ＮＴ０５　　０６０２０８
  7
SLDTEXTSTYLE5
 73
     1
 44
1.0
  0
MTEXT
  5
1E9
330
1F
100
AcDbEntity
  8
SLD-0
 62
     7
100
AcDbMText
 10
121.92711458
 20
19.0790708086
 30
0.0
 40
4.8000001907
 41
0.0
 71
     1
 72
     1
  1
ＧＴ－ＮＴ０５Ｒ　０６０２２５
  7
SLDTEXTSTYLE5
 73
     1
 44
1.0
  0
INSERT
  5
1EA
330
1F
100
AcDbEntity
  8
0
  6
Continuous
 62
     7
370
     0
100
AcDbBlockReference
  2
KOZU0001
 10
89.5879522945
 20
90.2863158915
 30
0.0
  0
ENDSEC
  0
SECTION
  2
OBJECTS
  0
DICTIONARY
  5
C
330
0
100
AcDbDictionary
281
     1
  3
ACAD_GROUP
350
D
  3
ACAD_LAYOUT
350
1A
  3
ACAD_MLINESTYLE
350
17
  3
ACAD_PLOTSETTINGS
350
19
  3
ACAD_PLOTSTYLENAME
350
E
  0
DICTIONARY
  5
D
102
{ACAD_REACTORS
330
C
102
}
330
C
100
AcDbDictionary
281
     1
  0
DICTIONARY
  5
1A
102
{ACAD_REACTORS
330
C
102
}
330
C
100
AcDbDictionary
281
     1
  3
Layout1
350
1E
  3
Layout2
350
26
  3
Model
350
22
  0
DICTIONARY
  5
17
102
{ACAD_REACTORS
330
C
102
}
330
C
100
AcDbDictionary
281
     1
  3
Standard
350
18
  0
DICTIONARY
  5
19
102
{ACAD_REACTORS
330
C
102
}
330
C
100
AcDbDictionary
281
     1
  0
ACDBDICTIONARYWDFLT
  5
E
102
{ACAD_REACTORS
330
C
102
}
330
C
100
AcDbDictionary
281
     1
  3
Normal
350
F
100
AcDbDictionaryWithDefault
340
F
  0
LAYOUT
  5
1E
102
{ACAD_REACTORS
330
1A
102
}
330
1A
100
AcDbPlotSettings
  1

  2

  4

  6

 40
0.0
 41
0.0
 42
0.0
 43
0.0
 44
0.0
 45
0.0
 46
0.0
 47
0.0
 48
0.0
 49
0.0
140
0.0
141
0.0
142
1.0
143
1.0
 70
   688
 72
     0
 73
     0
 74
     5
  7

 75
    16
147
1.0
148
0.0
149
0.0
100
AcDbLayout
  1
Layout1
 70
     1
 71
     1
 10
0.0
 20
0.0
 11
0.0
 21
0.0
 12
0.0
 22
0.0
 32
0.0
 14
0.0
 24
0.0
 34
0.0
 15
0.0
 25
0.0
 35
0.0
146
0.0
 13
0.0
 23
0.0
 33
0.0
 16
1.0
 26
0.0
 36
0.0
 17
0.0
 27
1.0
 37
0.0
 76
     0
330
1B
  0
LAYOUT
  5
26
102
{ACAD_REACTORS
330
1A
102
}
330
1A
100
AcDbPlotSettings
  1

  2

  4

  6

 40
0.0
 41
0.0
 42
0.0
 43
0.0
 44
0.0
 45
0.0
 46
0.0
 47
0.0
 48
0.0
 49
0.0
140
0.0
141
0.0
142
1.0
143
1.0
 70
   688
 72
     0
 73
     0
 74
     5
  7

 75
    16
147
1.0
148
0.0
149
0.0
100
AcDbLayout
  1
Layout2
 70
     1
 71
     2
 10
0.0
 20
0.0
 11
0.0
 21
0.0
 12
0.0
 22
0.0
 32
0.0
 14
0.0
 24
0.0
 34
0.0
 15
0.0
 25
0.0
 35
0.0
146
0.0
 13
0.0
 23
0.0
 33
0.0
 16
1.0
 26
0.0
 36
0.0
 17
0.0
 27
1.0
 37
0.0
 76
     0
330
23
  0
LAYOUT
  5
22
102
{ACAD_REACTORS
330
1A
102
}
330
1A
100
AcDbPlotSettings
  1

  2

  4

  6

 40
0.0
 41
0.0
 42
0.0
 43
0.0
 44
0.0
 45
0.0
 46
0.0
 47
0.0
 48
0.0
 49
0.0
140
0.0
141
0.0
142
1.0
143
1.0
 70
  1712
 72
     0
 73
     0
 74
     0
  7

 75
     0
147
1.0
148
0.0
149
0.0
100
AcDbLayout
  1
Model
 70
     1
 71
     0
 10
0.0
 20
0.0
 11
0.0
 21
0.0
 12
0.0
 22
0.0
 32
0.0
 14
0.0
 24
0.0
 34
0.0
 15
210.0
 25
297.0
 35
0.0
146
0.0
 13
0.0
 23
0.0
 33
0.0
 16
1.0
 26
0.0
 36
0.0
 17
0.0
 27
1.0
 37
0.0
 76
     0
330
1F
  0
MLINESTYLE
  5
18
102
{ACAD_REACTORS
330
17
102
}
330
17
100
AcDbMlineStyle
  2
Standard
 70
     0
  3

 62
   256
 51
90.0
 52
90.0
 71
     2
 49
0.5
 62
   256
  6
BYLAYER
 49
-0.5
 62
   256
  6
BYLAYER
  0
ACDBPLACEHOLDER
  5
F
102
{ACAD_REACTORS
330
E
102
}
330
E
  0
ENDSEC
  0
EOF
