  0
SECTION
  2
HEADER
  9
$ACADVER
  1
AC1015
  9
$ACADMAINTVER
 70
     6
  9
$DWGCODEPAGE
  3
DOS932
  9
$INSBASE
 10
0.0
 20
0.0
 30
0.0
  9
$EXTMIN
 10
0.0
 20
0.0
 30
0.0
  9
$EXTMAX
 10
420.0
 20
297.0
 30
0.0
  9
$LIMMIN
 10
0.0
 20
0.0
  9
$LIMMAX
 10
0.0
 20
0.0
  9
$ORTHOMODE
 70
     0
  9
$REGENMODE
 70
     1
  9
$FILLMODE
 70
     1
  9
$QTEXTMODE
 70
     0
  9
$MIRRTEXT
 70
     1
  9
$LTSCALE
 40
1.0
  9
$ATTMODE
 70
     1
  9
$TEXTSIZE
 40
3.5
  9
$TRACEWID
 40
1.0
  9
$TEXTSTYLE
  7
Standard
  9
$CLAYER
  8
0
  9
$CELTYPE
  6
ByLayer
  9
$CECOLOR
 62
   256
  9
$CELTSCALE
 40
1.0
  9
$DISPSILH
 70
     0
  9
$DIMSCALE
 40
1.0
  9
$DIMASZ
 40
3.0
  9
$DIMEXO
 40
1.0
  9
$DIMDLI
 40
3.75
  9
$DIMRND
 40
0.0
  9
$DIMDLE
 40
0.0
  9
$DIMEXE
 40
1.0
  9
$DIMTP
 40
0.0
  9
$DIMTM
 40
0.0
  9
$DIMTXT
 40
3.2
  9
$DIMCEN
 40
2.5
  9
$DIMTSZ
 40
0.0
  9
$DIMTOL
 70
     0
  9
$DIMLIM
 70
     0
  9
$DIMTIH
 70
     1
  9
$DIMTOH
 70
     1
  9
$DIMSE1
 70
     0
  9
$DIMSE2
 70
     0
  9
$DIMTAD
 70
     1
  9
$DIMZIN
 70
     1
  9
$DIMBLK
  1

  9
$DIMASO
 70
     1
  9
$DIMSHO
 70
     1
  9
$DIMPOST
  1

  9
$DIMAPOST
  1

  9
$DIMALT
 70
     0
  9
$DIMALTD
 70
     3
  9
$DIMALTF
 40
0.0393700787
  9
$DIMLFAC
 40
1.0
  9
$DIMTOFL
 70
     1
  9
$DIMTVP
 40
0.0
  9
$DIMTIX
 70
     0
  9
$DIMSOXD
 70
     0
  9
$DIMSAH
 70
     0
  9
$DIMBLK1
  1

  9
$DIMBLK2
  1

  9
$DIMSTYLE
  2
ISO-25
  9
$DIMCLRD
 70
     0
  9
$DIMCLRE
 70
     0
  9
$DIMCLRT
 70
     0
  9
$DIMTFAC
 40
1.0
  9
$DIMGAP
 40
1.524
  9
$DIMJUST
 70
     0
  9
$DIMSD1
 70
     0
  9
$DIMSD2
 70
     0
  9
$DIMTOLJ
 70
     0
  9
$DIMTZIN
 70
     1
  9
$DIMALTZ
 70
     0
  9
$DIMALTTZ
 70
     0
  9
$DIMUPT
 70
     0
  9
$DIMDEC
 70
     2
  9
$DIMTDEC
 70
     2
  9
$DIMALTU
 70
     2
  9
$DIMALTTD
 70
     3
  9
$DIMTXSTY
  7
Standard
  9
$DIMAUNIT
 70
     0
  9
$DIMADEC
 70
     0
  9
$DIMALTRND
 40
0.0
  9
$DIMAZIN
 70
     0
  9
$DIMDSEP
 70
    44
  9
$DIMATFIT
 70
     3
  9
$DIMFRAC
 70
     0
  9
$DIMLDRBLK
  1

  9
$DIMLUNIT
 70
     2
  9
$DIMLWD
 70
    -2
  9
$DIMLWE
 70
    -2
  9
$DIMTMOVE
 70
     0
  9
$LUNITS
 70
     2
  9
$LUPREC
 70
     4
  9
$SKETCHINC
 40
1.0
  9
$FILLETRAD
 40
10.0
  9
$AUNITS
 70
     0
  9
$AUPREC
 70
     0
  9
$MENU
  1
.
  9
$ELEVATION
 40
0.0
  9
$PELEVATION
 40
0.0
  9
$THICKNESS
 40
0.0
  9
$LIMCHECK
 70
     0
  9
$CHAMFERA
 40
10.0
  9
$CHAMFERB
 40
10.0
  9
$CHAMFERC
 40
20.0
  9
$CHAMFERD
 40
0.0
  9
$SKPOLY
 70
     0
  9
$TDCREATE
 40
2454307.54206434
  9
$TDUCREATE
 40
2454307.16706434
  9
$TDUPDATE
 40
2454307.542064352
  9
$TDUUPDATE
 40
2454307.167064352
  9
$TDINDWG
 40
0.0000000116
  9
$TDUSRTIMER
 40
0.0000000116
  9
$USRTIMER
 70
     1
  9
$ANGBASE
 50
0.0
  9
$ANGDIR
 70
     0
  9
$PDMODE
 70
     0
  9
$PDSIZE
 40
-1.0
  9
$PLINEWID
 40
0.0
  9
$SPLFRAME
 70
     0
  9
$SPLINETYPE
 70
     6
  9
$SPLINESEGS
 70
     8
  9
$HANDSEED
  5
418
  9
$SURFTAB1
 70
     6
  9
$SURFTAB2
 70
     6
  9
$SURFTYPE
 70
     6
  9
$SURFU
 70
     6
  9
$SURFV
 70
     6
  9
$UCSBASE
  2

  9
$UCSNAME
  2

  9
$UCSORG
 10
0.0
 20
0.0
 30
0.0
  9
$UCSXDIR
 10
1.0
 20
0.0
 30
0.0
  9
$UCSYDIR
 10
0.0
 20
1.0
 30
0.0
  9
$UCSORTHOREF
  2

  9
$UCSORTHOVIEW
 70
     0
  9
$UCSORGTOP
 10
0.0
 20
0.0
 30
0.0
  9
$UCSORGBOTTOM
 10
0.0
 20
0.0
 30
0.0
  9
$UCSORGLEFT
 10
0.0
 20
0.0
 30
0.0
  9
$UCSORGRIGHT
 10
0.0
 20
0.0
 30
0.0
  9
$UCSORGFRONT
 10
0.0
 20
0.0
 30
0.0
  9
$UCSORGBACK
 10
0.0
 20
0.0
 30
0.0
  9
$PUCSBASE
  2

  9
$PUCSNAME
  2

  9
$PUCSORG
 10
0.0
 20
0.0
 30
0.0
  9
$PUCSXDIR
 10
1.0
 20
0.0
 30
0.0
  9
$PUCSYDIR
 10
0.0
 20
1.0
 30
0.0
  9
$PUCSORTHOREF
  2

  9
$PUCSORTHOVIEW
 70
     0
  9
$PUCSORGTOP
 10
0.0
 20
0.0
 30
0.0
  9
$PUCSORGBOTTOM
 10
0.0
 20
0.0
 30
0.0
  9
$PUCSORGLEFT
 10
0.0
 20
0.0
 30
0.0
  9
$PUCSORGRIGHT
 10
0.0
 20
0.0
 30
0.0
  9
$PUCSORGFRONT
 10
0.0
 20
0.0
 30
0.0
  9
$PUCSORGBACK
 10
0.0
 20
0.0
 30
0.0
  9
$USERI1
 70
     0
  9
$USERI2
 70
     0
  9
$USERI3
 70
     0
  9
$USERI4
 70
     0
  9
$USERI5
 70
     0
  9
$USERR1
 40
0.0
  9
$USERR2
 40
0.0
  9
$USERR3
 40
0.0
  9
$USERR4
 40
0.0
  9
$USERR5
 40
0.0
  9
$WORLDVIEW
 70
     1
  9
$SHADEDGE
 70
     3
  9
$SHADEDIF
 70
    70
  9
$TILEMODE
 70
     1
  9
$MAXACTVP
 70
    64
  9
$PINSBASE
 10
0.0
 20
0.0
 30
0.0
  9
$PLIMCHECK
 70
     0
  9
$PEXTMIN
 10
1.0000000000E+20
 20
1.0000000000E+20
 30
1.0000000000E+20
  9
$PEXTMAX
 10
-1.0000000000E+20
 20
-1.0000000000E+20
 30
-1.0000000000E+20
  9
$PLIMMIN
 10
0.0
 20
0.0
  9
$PLIMMAX
 10
420.0
 20
297.0
  9
$UNITMODE
 70
     0
  9
$VISRETAIN
 70
     1
  9
$PLINEGEN
 70
     0
  9
$PSLTSCALE
 70
     1
  9
$TREEDEPTH
 70
  3020
  9
$CMLSTYLE
  2
Standard
  9
$CMLJUST
 70
     0
  9
$CMLSCALE
 40
20.0
  9
$PROXYGRAPHICS
 70
     1
  9
$MEASUREMENT
 70
     1
  9
$CELWEIGHT
370
    -1
  9
$ENDCAPS
280
     0
  9
$JOINSTYLE
280
     0
  9
$LWDISPLAY
290
     1
  9
$INSUNITS
 70
     4
  9
$HYPERLINKBASE
  1

  9
$STYLESHEET
  1

  9
$XEDIT
290
     1
  9
$CEPSNTYPE
380
     0
  9
$PSTYLEMODE
290
     1
  9
$FINGERPRINTGUID
  2
{479E9D76-1B31-4225-8A7C-52F3BE28F23F}
  9
$VERSIONGUID
  2
{FAEB1C32-E019-11D5-929B-00C0DF256EC4}
  9
$EXTNAMES
290
     1
  9
$PSVPSCALE
 40
0.0
  9
$OLESTARTUP
290
     0
  0
ENDSEC
  0
SECTION
  2
CLASSES
  0
CLASS
  1
ACDBDICTIONARYWDFLT
  2
AcDbDictionaryWithDefault
  3
ObjectDBX Classes
 90
        0
280
     0
281
     0
  0
CLASS
  1
ACDBPLACEHOLDER
  2
AcDbPlaceHolder
  3
ObjectDBX Classes
 90
        0
280
     0
281
     0
  0
CLASS
  1
LAYOUT
  2
AcDbLayout
  3
ObjectDBX Classes
 90
        0
280
     0
281
     0
  0
ENDSEC
  0
SECTION
  2
TABLES
  0
TABLE
  2
VPORT
  5
8
330
0
100
AcDbSymbolTable
 70
     1
  0
VPORT
  5
29
330
8
100
AcDbSymbolTableRecord
100
AcDbViewportTableRecord
  2
*Active
 70
     0
 10
0.0
 20
0.0
 11
1.0
 21
1.0
 12
210.0
 22
148.5
 13
0.0
 23
0.0
 14
10.0
 24
10.0
 15
10.0
 25
10.0
 16
0.0
 26
0.0
 36
1.0
 17
0.0
 27
0.0
 37
0.0
 40
297.0
 41
1.9729729729
 42
50.0
 43
0.0
 44
0.0
 50
0.0
 51
0.0
 71
     0
 72
  2000
 73
     1
 74
     3
 75
     0
 76
     0
 77
     0
 78
     0
281
     0
 65
     1
110
0.0
120
0.0
130
0.0
111
1.0
121
0.0
131
0.0
112
0.0
122
1.0
132
0.0
 79
     0
146
0.0
  0
ENDTAB
  0
TABLE
  2
LTYPE
  5
5
330
0
100
AcDbSymbolTable
 70
     6
  0
LTYPE
  5
14
330
5
100
AcDbSymbolTableRecord
100
AcDbLinetypeTableRecord
  2
ByBlock
 70
     0
  3

 72
    65
 73
     0
 40
0.0
  0
LTYPE
  5
15
330
5
100
AcDbSymbolTableRecord
100
AcDbLinetypeTableRecord
  2
ByLayer
 70
     0
  3

 72
    65
 73
     0
 40
0.0
  0
LTYPE
  5
16
330
5
100
AcDbSymbolTableRecord
100
AcDbLinetypeTableRecord
  2
Continuous
 70
     0
  3
Solid line
 72
    65
 73
     0
 40
0.0
  0
LTYPE
  5
2A
330
5
100
AcDbSymbolTableRecord
100
AcDbLinetypeTableRecord
  2
HIDDEN
 70
     0
  3
Hidden __ __ __ __ __ __ __ __ __ __ __ __ __ __
 72
    65
 73
     2
 40
1.905
 49
1.27
 74
     0
 49
-0.635
 74
     0
  0
LTYPE
  5
2B
330
5
100
AcDbSymbolTableRecord
100
AcDbLinetypeTableRecord
  2
PHANTOM
 70
     0
  3
Phantom ______  __  __  ______  __  __  ______
 72
    65
 73
     6
 40
12.7
 49
6.35
 74
     0
 49
-1.27
 74
     0
 49
1.27
 74
     0
 49
-1.27
 74
     0
 49
1.27
 74
     0
 49
-1.27
 74
     0
  0
LTYPE
  5
2C
330
5
100
AcDbSymbolTableRecord
100
AcDbLinetypeTableRecord
  2
CENTER
 70
     0
  3
Center ____ _ ____ _ ____ _ ____ _ ____ _ ____
 72
    65
 73
     4
 40
10.16
 49
6.35
 74
     0
 49
-1.27
 74
     0
 49
1.27
 74
     0
 49
-1.27
 74
     0
  0
LTYPE
  5
2D
330
5
100
AcDbSymbolTableRecord
100
AcDbLinetypeTableRecord
  2
CENTERX2
 70
     0
  3
Center (2x) ________  __  ________  __  _____
 72
    65
 73
     4
 40
20.32
 49
12.7
 74
     0
 49
-2.54
 74
     0
 49
2.54
 74
     0
 49
-2.54
 74
     0
  0
LTYPE
  5
2E
330
5
100
AcDbSymbolTableRecord
100
AcDbLinetypeTableRecord
  2
DOT2
 70
     0
  3
Dot (.5x) ........................................
 72
    65
 73
     2
 40
0.635
 49
0.0
 74
     0
 49
-0.635
 74
     0
  0
ENDTAB
  0
TABLE
  2
LAYER
  5
2
330
0
100
AcDbSymbolTable
 70
     2
  0
LAYER
  5
10
330
2
100
AcDbSymbolTableRecord
100
AcDbLayerTableRecord
  2
0
 70
     0
 62
     7
  6
Continuous
370
    -3
390
F
  0
LAYER
  5
2F
330
2
100
AcDbSymbolTableRecord
100
AcDbLayerTableRecord
  2
SLD-0
 70
     0
 62
   179
  6
Continuous
370
     0
390
F
  0
ENDTAB
  0
TABLE
  2
STYLE
  5
3
330
0
100
AcDbSymbolTable
 70
    12
  0
STYLE
  5
11
330
3
100
AcDbSymbolTableRecord
100
AcDbTextStyleTableRecord
  2
Standard
 70
     0
 40
0.0
 41
1.0
 50
0.0
 71
     0
 42
2.5
  3
txt
  4
bigfont
  0
STYLE
  5
38
330
3
100
AcDbSymbolTableRecord
100
AcDbTextStyleTableRecord
  2
SLDTEXTSTYLE0
 70
     0
 40
0.0
 41
0.6236261537
 50
0.0
 71
     0
 42
0.2
  3
TXT
  4
bigfont
  0
STYLE
  5
3A
330
3
100
AcDbSymbolTableRecord
100
AcDbTextStyleTableRecord
  2
SLDTEXTSTYLE1
 70
     0
 40
0.0
 41
0.6230481821
 50
0.0
 71
     0
 42
0.2
  3
TXT
  4
bigfont
  0
STYLE
  5
44
330
3
100
AcDbSymbolTableRecord
100
AcDbTextStyleTableRecord
  2
SLDTEXTSTYLE2
 70
     0
 40
0.0
 41
0.6272516084
 50
0.0
 71
     0
 42
0.2
  3
TXT
  4
bigfont
  0
STYLE
  5
4E
330
3
100
AcDbSymbolTableRecord
100
AcDbTextStyleTableRecord
  2
SLDTEXTSTYLE3
 70
     0
 40
0.0
 41
0.6244081126
 50
0.0
 71
     0
 42
0.2
  3
TXT
  4
bigfont
  0
STYLE
  5
59
330
3
100
AcDbSymbolTableRecord
100
AcDbTextStyleTableRecord
  2
SLDTEXTSTYLE4
 70
     0
 40
0.0
 41
0.6219644789
 50
0.0
 71
     0
 42
0.2
  3
TXT
  4
bigfont
  0
STYLE
  5
408
330
3
100
AcDbSymbolTableRecord
100
AcDbTextStyleTableRecord
  2
SLDTEXTSTYLE5
 70
     0
 40
0.0
 41
0.7688785263
 50
0.0
 71
     0
 42
0.2
  3
TXT
  4
bigfont
  0
STYLE
  5
40A
330
3
100
AcDbSymbolTableRecord
100
AcDbTextStyleTableRecord
  2
SLDTEXTSTYLE6
 70
     0
 40
0.0
 41
0.7801861053
 50
0.0
 71
     0
 42
0.2
  3
TXT
  4
bigfont
  0
STYLE
  5
40C
330
3
100
AcDbSymbolTableRecord
100
AcDbTextStyleTableRecord
  2
SLDTEXTSTYLE7
 70
     0
 40
0.0
 41
0.6217270684
 50
0.0
 71
     0
 42
0.2
  3
TXT
  4
bigfont
  0
STYLE
  5
40E
330
3
100
AcDbSymbolTableRecord
100
AcDbTextStyleTableRecord
  2
SLDTEXTSTYLE8
 70
     0
 40
0.0
 41
0.6217270389
 50
0.0
 71
     0
 42
0.2
  3
TXT
  4
bigfont
  0
STYLE
  5
410
330
3
100
AcDbSymbolTableRecord
100
AcDbTextStyleTableRecord
  2
SLDTEXTSTYLE9
 70
     0
 40
0.0
 41
0.6230481453
 50
0.0
 71
     0
 42
0.2
  3
TXT
  4
bigfont
  0
STYLE
  5
412
330
3
100
AcDbSymbolTableRecord
100
AcDbTextStyleTableRecord
  2
SLDTEXTSTYLE10
 70
     0
 40
0.0
 41
0.6244080758
 50
0.0
 71
     0
 42
0.2
  3
TXT
  4
bigfont
  0
ENDTAB
  0
TABLE
  2
VIEW
  5
6
330
0
100
AcDbSymbolTable
 70
     0
  0
ENDTAB
  0
TABLE
  2
UCS
  5
7
330
0
100
AcDbSymbolTable
 70
     0
  0
ENDTAB
  0
TABLE
  2
APPID
  5
9
330
0
100
AcDbSymbolTable
 70
     1
  0
APPID
  5
12
330
9
100
AcDbSymbolTableRecord
100
AcDbRegAppTableRecord
  2
ACAD
 70
     0
  0
ENDTAB
  0
TABLE
  2
DIMSTYLE
  5
A
330
0
100
AcDbSymbolTable
 70
     1
100
AcDbDimStyleTable
  0
DIMSTYLE
105
27
330
A
100
AcDbSymbolTableRecord
100
AcDbDimStyleTableRecord
  2
ISO-25
 70
     0
 41
2.5
 42
0.625
 43
3.75
 44
1.25
 73
     0
 74
     0
 77
     1
 78
     8
140
2.5
141
2.5
143
0.0393700787
147
0.625
171
     3
172
     1
271
     2
272
     2
274
     3
278
    44
283
     0
284
     8
340
11
  0
ENDTAB
  0
TABLE
  2
BLOCK_RECORD
  5
1
330
0
100
AcDbSymbolTable
 70
     5
  0
BLOCK_RECORD
  5
1F
330
1
100
AcDbSymbolTableRecord
100
AcDbBlockTableRecord
  2
*Model_Space
340
22
  0
BLOCK_RECORD
  5
1B
330
1
100
AcDbSymbolTableRecord
100
AcDbBlockTableRecord
  2
*Paper_Space
340
1E
  0
BLOCK_RECORD
  5
23
330
1
100
AcDbSymbolTableRecord
100
AcDbBlockTableRecord
  2
*Paper_Space0
340
26
  0
BLOCK_RECORD
  5
30
330
1
100
AcDbSymbolTableRecord
100
AcDbBlockTableRecord
  2
KOZU0001
340
0
102
{BLKREFS
331
414
102
}
  0
BLOCK_RECORD
  5
3C
330
1
100
AcDbSymbolTableRecord
100
AcDbBlockTableRecord
  2
KOZU0002
340
0
102
{BLKREFS
331
415
102
}
  0
BLOCK_RECORD
  5
46
330
1
100
AcDbSymbolTableRecord
100
AcDbBlockTableRecord
  2
KOZU0003
340
0
102
{BLKREFS
331
416
102
}
  0
BLOCK_RECORD
  5
50
330
1
100
AcDbSymbolTableRecord
100
AcDbBlockTableRecord
  2
KOZU0004
340
0
102
{BLKREFS
331
417
102
}
  0
ENDTAB
  0
ENDSEC
  0
SECTION
  2
BLOCKS
  0
BLOCK
  5
20
330
1F
100
AcDbEntity
  8
0
100
AcDbBlockBegin
  2
*Model_Space
 70
     0
 71
     0
 10
0.0
 20
0.0
 30
0.0
  3
*Model_Space
  1

  0
ENDBLK
  5
21
330
1F
100
AcDbEntity
  8
0
100
AcDbBlockEnd
  0
BLOCK
  5
1C
330
1B
100
AcDbEntity
 67
     1
  8
0
100
AcDbBlockBegin
  2
*Paper_Space
 70
     0
 71
     0
 10
0.0
 20
0.0
 30
0.0
  3
*Paper_Space
  1

  0
ENDBLK
  5
1D
330
1B
100
AcDbEntity
 67
     1
  8
0
100
AcDbBlockEnd
  0
BLOCK
  5
24
330
23
100
AcDbEntity
  8
0
100
AcDbBlockBegin
  2
*Paper_Space0
 70
     0
 71
     0
 10
0.0
 20
0.0
 30
0.0
  3
*Paper_Space0
  1

  0
ENDBLK
  5
25
330
23
100
AcDbEntity
  8
0
100
AcDbBlockEnd
  0
BLOCK
  5
31
330
30
100
AcDbEntity
  8
0
100
AcDbBlockBegin
  2
KOZU0001
 70
     0
 71
     0
 10
0.0
 20
0.0
 30
0.0
  3
KOZU0001
  1

  0
LINE
  5
33
330
30
100
AcDbEntity
  8
SLD-0
  6
Continuous
 62
   179
100
AcDbLine
 10
0.0
 20
0.0
 30
0.0
 11
10.464886
 21
16.556017
 31
0.0
  0
LINE
  5
34
330
30
100
AcDbEntity
  8
SLD-0
  6
Continuous
 62
   179
100
AcDbLine
 10
0.0
 20
0.0
 30
0.0
 11
0.75761053
 21
3.0701834
 31
0.0
  0
LINE
  5
35
330
30
100
AcDbEntity
  8
SLD-0
  6
Continuous
 62
   179
100
AcDbLine
 10
0.0
 20
0.0
 30
0.0
 11
2.4481984
 21
2.0015804
 31
0.0
  0
LINE
  5
36
330
30
100
AcDbEntity
  8
SLD-0
  6
Continuous
 62
   179
100
AcDbLine
 10
0.0
 20
0.0
 30
0.0
 11
10.464886
 21
16.556017
 31
0.0
  0
LINE
  5
37
330
30
100
AcDbEntity
  8
SLD-0
  6
Continuous
 62
   179
100
AcDbLine
 10
10.464886
 20
16.556017
 30
0.0
 11
40.556441
 21
16.556018
 31
0.0
  0
MTEXT
  5
39
330
30
100
AcDbEntity
  8
SLD-0
100
AcDbMText
 10
14.042443
 20
20.0107375369
 30
0.0
 40
3.2
 41
0.0
 71
     1
 72
     1
  1
２－Ｍ５深１２
  7
SLDTEXTSTYLE0
 73
     1
 44
1.0
  0
MTEXT
  5
3B
330
30
100
AcDbEntity
  8
SLD-0
100
AcDbMText
 10
14.042443
 20
14.3947375369
 30
0.0
 40
3.2
 41
0.0
 71
     1
 72
     1
  1
治具取付用タップ
  7
SLDTEXTSTYLE1
 73
     1
 44
1.0
  0
ENDBLK
  5
32
330
30
100
AcDbEntity
  8
0
100
AcDbBlockEnd
  0
BLOCK
  5
3D
330
3C
100
AcDbEntity
  8
0
100
AcDbBlockBegin
  2
KOZU0002
 70
     0
 71
     0
 10
0.0
 20
0.0
 30
0.0
  3
KOZU0002
  1

  0
LINE
  5
3F
330
3C
100
AcDbEntity
  8
SLD-0
  6
Continuous
 62
   179
100
AcDbLine
 10
0.0
 20
0.0
 30
0.0
 11
6.8692971
 21
-15.920857
 31
0.0
  0
LINE
  5
40
330
3C
100
AcDbEntity
  8
SLD-0
  6
Continuous
 62
   179
100
AcDbLine
 10
0.0
 20
0.0
 30
0.0
 11
2.1066689
 21
-2.3583778
 31
0.0
  0
LINE
  5
41
330
3C
100
AcDbEntity
  8
SLD-0
  6
Continuous
 62
   179
100
AcDbLine
 10
0.0
 20
0.0
 30
0.0
 11
0.27030846
 21
-3.1507036
 31
0.0
  0
LINE
  5
42
330
3C
100
AcDbEntity
  8
SLD-0
  6
Continuous
 62
   179
100
AcDbLine
 10
0.0
 20
0.0
 30
0.0
 11
6.8692971
 21
-15.920857
 31
0.0
  0
LINE
  5
43
330
3C
100
AcDbEntity
  8
SLD-0
  6
Continuous
 62
   179
100
AcDbLine
 10
6.8692971
 20
-15.920857
 30
0.0
 11
23.603635
 21
-15.920851
 31
0.0
  0
MTEXT
  5
45
330
3C
100
AcDbEntity
  8
SLD-0
100
AcDbMText
 10
9.8896288
 20
-12.4661314631
 30
0.0
 40
3.2
 41
0.0
 71
     1
 72
     1
  1
２－Ｍ５
  7
SLDTEXTSTYLE2
 73
     1
 44
1.0
  0
ENDBLK
  5
3E
330
3C
100
AcDbEntity
  8
0
100
AcDbBlockEnd
  0
BLOCK
  5
47
330
46
100
AcDbEntity
  8
0
100
AcDbBlockBegin
  2
KOZU0003
 70
     0
 71
     0
 10
0.0
 20
0.0
 30
0.0
  3
KOZU0003
  1

  0
LINE
  5
49
330
46
100
AcDbEntity
  8
SLD-0
  6
Continuous
 62
   179
100
AcDbLine
 10
0.0
 20
0.0
 30
0.0
 11
12.373975
 21
14.47755
 31
0.0
  0
LINE
  5
4A
330
46
100
AcDbEntity
  8
SLD-0
  6
Continuous
 62
   179
100
AcDbLine
 10
0.0
 20
0.0
 30
0.0
 11
1.1889887
 21
2.9302398
 31
0.0
  0
LINE
  5
4B
330
46
100
AcDbEntity
  8
SLD-0
  6
Continuous
 62
   179
100
AcDbLine
 10
0.0
 20
0.0
 30
0.0
 11
2.7093349
 21
1.6307986
 31
0.0
  0
LINE
  5
4C
330
46
100
AcDbEntity
  8
SLD-0
  6
Continuous
 62
   179
100
AcDbLine
 10
0.0
 20
0.0
 30
0.0
 11
12.373975
 21
14.47755
 31
0.0
  0
LINE
  5
4D
330
46
100
AcDbEntity
  8
SLD-0
  6
Continuous
 62
   179
100
AcDbLine
 10
12.373975
 20
14.47755
 30
0.0
 11
35.629284
 21
14.477546
 31
0.0
  0
MTEXT
  5
4F
330
46
100
AcDbEntity
  8
SLD-0
100
AcDbMText
 10
15.515285
 20
17.9322655369
 30
0.0
 40
3.2
 41
0.0
 71
     1
 72
     1
  1
チャージ番号
  7
SLDTEXTSTYLE3
 73
     1
 44
1.0
  0
ENDBLK
  5
48
330
46
100
AcDbEntity
  8
0
100
AcDbBlockEnd
  0
BLOCK
  5
51
330
50
100
AcDbEntity
  8
0
100
AcDbBlockBegin
  2
KOZU0004
 70
     0
 71
     0
 10
0.0
 20
0.0
 30
0.0
  3
KOZU0004
  1

  0
LINE
  5
53
330
50
100
AcDbEntity
  8
SLD-0
  6
Continuous
 62
   179
100
AcDbLine
 10
0.0
 20
0.0
 30
0.0
 11
12.782602
 21
14.098457
 31
0.0
  0
LINE
  5
54
330
50
100
AcDbEntity
  8
SLD-0
  6
Continuous
 62
   179
100
AcDbLine
 10
0.0
 20
0.0
 30
0.0
 11
1.2742334
 21
2.8941888
 31
0.0
  0
LINE
  5
55
330
50
100
AcDbEntity
  8
SLD-0
  6
Continuous
 62
   179
100
AcDbLine
 10
0.0
 20
0.0
 30
0.0
 11
2.7559
 21
1.5508111
 31
0.0
  0
LINE
  5
56
330
50
100
AcDbEntity
  8
SLD-0
  6
Continuous
 62
   179
100
AcDbLine
 10
0.0
 20
0.0
 30
0.0
 11
12.782602
 21
14.098457
 31
0.0
  0
LINE
  5
57
330
50
100
AcDbEntity
  8
SLD-0
  6
Continuous
 62
   179
100
AcDbLine
 10
12.782602
 20
14.098457
 30
0.0
 11
51.690394
 21
14.098455
 31
0.0
  0
MTEXT
  5
58
330
50
100
AcDbEntity
  8
SLD-0
100
AcDbMText
 10
15.576397
 20
22.3531745369
 30
0.0
 40
3.2
 41
0.0
 71
     1
 72
     1
  1
薄型シリンダー
  7
SLDTEXTSTYLE0
 73
     1
 44
1.0
  0
MTEXT
  5
5A
330
50
100
AcDbEntity
  8
SLD-0
100
AcDbMText
 10
15.576397
 20
17.5531745369
 30
0.0
 40
3.2
 41
0.0
 71
     1
 72
     1
  1
（エアハイドロタイプ）
  7
SLDTEXTSTYLE4
 73
     1
 44
1.0
  0
ENDBLK
  5
52
330
50
100
AcDbEntity
  8
0
100
AcDbBlockEnd
  0
ENDSEC
  0
SECTION
  2
ENTITIES
  0
LINE
  5
5B
330
1F
100
AcDbEntity
  8
SLD-0
  6
Continuous
 62
   179
100
AcDbLine
 10
77.65311
 20
38.108854
 30
0.0
 11
77.65311
 21
122.67271
 31
0.0
  0
LINE
  5
5C
330
1F
100
AcDbEntity
  8
SLD-0
  6
Continuous
 62
   179
100
AcDbLine
 10
79.65311
 20
122.95415
 30
0.0
 11
79.65311
 21
125.26356
 31
0.0
  0
LINE
  5
5D
330
1F
100
AcDbEntity
  8
SLD-0
  6
Continuous
 62
   179
100
AcDbLine
 10
79.6531
 20
125.26355
 30
0.0
 11
81.6531
 21
126.41825
 31
0.0
  0
LINE
  5
5E
330
1F
100
AcDbEntity
  8
SLD-0
  6
Continuous
 62
   179
100
AcDbLine
 10
81.65311
 20
126.41826
 30
0.0
 11
83.6531
 21
125.26357
 31
0.0
  0
LINE
  5
5F
330
1F
100
AcDbEntity
  8
SLD-0
  6
Continuous
 62
   179
100
AcDbLine
 10
83.65311
 20
125.26356
 30
0.0
 11
83.65311
 21
122.95415
 31
0.0
  0
LINE
  5
60
330
1F
100
AcDbEntity
  8
SLD-0
  6
Continuous
 62
   179
100
AcDbLine
 10
83.6531
 20
122.95415
 30
0.0
 11
81.6531
 21
121.79945
 31
0.0
  0
LINE
  5
61
330
1F
100
AcDbEntity
  8
SLD-0
  6
Continuous
 62
   179
100
AcDbLine
 10
81.6531
 20
121.79947
 30
0.0
 11
79.65311
 21
122.95416
 31
0.0
  0
LINE
  5
62
330
1F
100
AcDbEntity
  8
SLD-0
  6
Continuous
 62
   179
100
AcDbLine
 10
77.65311
 20
125.545
 30
0.0
 11
77.65311
 21
142.67271
 31
0.0
  0
LINE
  5
63
330
1F
100
AcDbEntity
  8
SLD-0
  6
Continuous
 62
   179
100
AcDbLine
 10
79.65311
 20
142.95416
 30
0.0
 11
79.65311
 21
145.26355
 31
0.0
  0
LINE
  5
64
330
1F
100
AcDbEntity
  8
SLD-0
  6
Continuous
 62
   179
100
AcDbLine
 10
79.6531
 20
145.26354
 30
0.0
 11
81.6531
 21
146.41824
 31
0.0
  0
LINE
  5
65
330
1F
100
AcDbEntity
  8
SLD-0
  6
Continuous
 62
   179
100
AcDbLine
 10
81.65311
 20
146.41826
 30
0.0
 11
83.6531
 21
145.26357
 31
0.0
  0
LINE
  5
66
330
1F
100
AcDbEntity
  8
SLD-0
  6
Continuous
 62
   179
100
AcDbLine
 10
83.65311
 20
145.26355
 30
0.0
 11
83.65311
 21
142.95416
 31
0.0
  0
LINE
  5
67
330
1F
100
AcDbEntity
  8
SLD-0
  6
Continuous
 62
   179
100
AcDbLine
 10
83.6531
 20
142.95414
 30
0.0
 11
81.6531
 21
141.79944
 31
0.0
  0
LINE
  5
68
330
1F
100
AcDbEntity
  8
SLD-0
  6
Continuous
 62
   179
100
AcDbLine
 10
81.6531
 20
141.79947
 30
0.0
 11
79.65311
 21
142.95416
 31
0.0
  0
LINE
  5
69
330
1F
100
AcDbEntity
  8
SLD-0
  6
Continuous
 62
   179
100
AcDbLine
 10
77.65311
 20
145.545
 30
0.0
 11
77.65311
 21
161.60886
 31
0.0
  0
LINE
  5
6A
330
1F
100
AcDbEntity
  8
SLD-0
  6
Continuous
 62
   179
100
AcDbLine
 10
77.65311
 20
161.60886
 30
0.0
 11
92.65311
 21
161.60886
 31
0.0
  0
LINE
  5
6B
330
1F
100
AcDbEntity
  8
SLD-0
  6
HIDDEN
 62
   179
100
AcDbLine
 10
93.15311
 20
161.60886
 30
0.0
 11
93.15311
 21
162.80885
 31
0.0
  0
LINE
  5
6C
330
1F
100
AcDbEntity
  8
SLD-0
  6
Continuous
 62
   179
100
AcDbLine
 10
92.65311
 20
162.80885
 30
0.0
 11
86.15311
 21
162.80885
 31
0.0
  0
LINE
  5
6D
330
1F
100
AcDbEntity
  8
SLD-0
  6
Continuous
 62
   179
100
AcDbLine
 10
86.15311
 20
162.80885
 30
0.0
 11
86.15311
 21
161.60886
 31
0.0
  0
LINE
  5
6E
330
1F
100
AcDbEntity
  8
SLD-0
  6
Continuous
 62
   179
100
AcDbLine
 10
85.65311
 20
161.60886
 30
0.0
 11
85.65311
 21
149.10886
 31
0.0
  0
LINE
  5
6F
330
1F
100
AcDbEntity
  8
SLD-0
  6
Continuous
 62
   179
100
AcDbLine
 10
77.65311
 20
149.10886
 30
0.0
 11
107.65311
 21
149.10886
 31
0.0
  0
LINE
  5
70
330
1F
100
AcDbEntity
  8
SLD-0
  6
Continuous
 62
   179
100
AcDbLine
 10
107.65311
 20
149.10886
 30
0.0
 11
107.65311
 21
119.10886
 31
0.0
  0
LINE
  5
71
330
1F
100
AcDbEntity
  8
SLD-0
  6
Continuous
 62
   179
100
AcDbLine
 10
107.65311
 20
119.10886
 30
0.0
 11
77.65311
 21
119.10886
 31
0.0
  0
LINE
  5
72
330
1F
100
AcDbEntity
  8
SLD-0
  6
Continuous
 62
   179
100
AcDbLine
 10
85.65311
 20
119.10886
 30
0.0
 11
85.65311
 21
78.608856
 31
0.0
  0
LINE
  5
73
330
1F
100
AcDbEntity
  8
SLD-0
  6
Continuous
 62
   179
100
AcDbLine
 10
77.65311
 20
78.608856
 30
0.0
 11
117.65311
 21
78.608856
 31
0.0
  0
LINE
  5
74
330
1F
100
AcDbEntity
  8
SLD-0
  6
Continuous
 62
   179
100
AcDbLine
 10
117.65311
 20
70.608856
 30
0.0
 11
77.65311
 21
70.608856
 31
0.0
  0
LINE
  5
75
330
1F
100
AcDbEntity
  8
SLD-0
  6
Continuous
 62
   179
100
AcDbLine
 10
78.0531
 20
70.608856
 30
0.0
 11
78.0531
 21
38.108854
 31
0.0
  0
LINE
  5
76
330
1F
100
AcDbEntity
  8
SLD-0
  6
Continuous
 62
   179
100
AcDbLine
 10
77.65311
 20
38.108854
 30
0.0
 11
117.65311
 21
38.108854
 31
0.0
  0
LINE
  5
77
330
1F
100
AcDbEntity
  8
SLD-0
  6
Continuous
 62
   179
100
AcDbLine
 10
117.65311
 20
38.108854
 30
0.0
 11
117.65311
 21
116.60886
 31
0.0
  0
LINE
  5
78
330
1F
100
AcDbEntity
  8
SLD-0
  6
Continuous
 62
   179
100
AcDbLine
 10
117.65311
 20
116.60886
 30
0.0
 11
107.25311
 21
116.60886
 31
0.0
  0
LINE
  5
79
330
1F
100
AcDbEntity
  8
SLD-0
  6
Continuous
 62
   179
100
AcDbLine
 10
107.25311
 20
119.10886
 30
0.0
 11
107.25311
 21
78.608856
 31
0.0
  0
LINE
  5
7A
330
1F
100
AcDbEntity
  8
SLD-0
  6
Continuous
 62
   179
100
AcDbLine
 10
106.65311
 20
70.608856
 30
0.0
 11
106.65311
 21
38.108854
 31
0.0
  0
LINE
  5
7B
330
1F
100
AcDbEntity
  8
SLD-0
  6
Continuous
 62
   179
100
AcDbLine
 10
117.25311
 20
38.108854
 30
0.0
 11
117.25311
 21
70.608856
 31
0.0
  0
LINE
  5
7C
330
1F
100
AcDbEntity
  8
SLD-0
  6
Continuous
 62
   179
100
AcDbLine
 10
167.76367
 20
45.608856
 30
0.0
 11
173.06367
 21
45.608856
 31
0.0
  0
LINE
  5
7D
330
1F
100
AcDbEntity
  8
SLD-0
  6
Continuous
 62
   179
100
AcDbLine
 10
173.06367
 20
45.608856
 30
0.0
 11
173.06367
 21
96.108856
 31
0.0
  0
LINE
  5
7E
330
1F
100
AcDbEntity
  8
SLD-0
  6
Continuous
 62
   179
100
AcDbLine
 10
173.61368
 20
96.108856
 30
0.0
 11
167.21368
 21
96.108856
 31
0.0
  0
LINE
  5
7F
330
1F
100
AcDbEntity
  8
SLD-0
  6
Continuous
 62
   179
100
AcDbLine
 10
167.21368
 20
96.108856
 30
0.0
 11
167.21368
 21
119.10886
 31
0.0
  0
LINE
  5
80
330
1F
100
AcDbEntity
  8
SLD-0
  6
Continuous
 62
   179
100
AcDbLine
 10
163.81367
 20
119.10886
 30
0.0
 11
163.81367
 21
149.10886
 31
0.0
  0
LINE
  5
81
330
1F
100
AcDbEntity
  8
SLD-0
  6
Continuous
 62
   179
100
AcDbLine
 10
163.81367
 20
149.10886
 30
0.0
 11
178.81367
 21
149.10886
 31
0.0
  0
LINE
  5
82
330
1F
100
AcDbEntity
  8
SLD-0
  6
Continuous
 62
   179
100
AcDbLine
 10
175.81367
 20
152.60886
 30
0.0
 11
175.81367
 21
162.60886
 31
0.0
  0
LINE
  5
83
330
1F
100
AcDbEntity
  8
SLD-0
  6
Continuous
 62
   179
100
AcDbLine
 10
175.81367
 20
162.60886
 30
0.0
 11
176.81367
 21
162.60886
 31
0.0
  0
LINE
  5
84
330
1F
100
AcDbEntity
  8
SLD-0
  6
Continuous
 62
   179
100
AcDbLine
 10
176.81367
 20
162.60886
 30
0.0
 11
176.81367
 21
168.10886
 31
0.0
  0
LINE
  5
85
330
1F
100
AcDbEntity
  8
SLD-0
  6
Continuous
 62
   179
100
AcDbLine
 10
176.81367
 20
169.10886
 30
0.0
 11
176.81367
 21
174.60886
 31
0.0
  0
LINE
  5
86
330
1F
100
AcDbEntity
  8
SLD-0
  6
Continuous
 62
   179
100
AcDbLine
 10
176.81367
 20
174.60886
 30
0.0
 11
216.31367
 21
174.60886
 31
0.0
  0
LINE
  5
87
330
1F
100
AcDbEntity
  8
SLD-0
  6
Continuous
 62
   179
100
AcDbLine
 10
216.31367
 20
174.60886
 30
0.0
 11
216.31367
 21
163.60886
 31
0.0
  0
LINE
  5
88
330
1F
100
AcDbEntity
  8
SLD-0
  6
Continuous
 62
   179
100
AcDbLine
 10
216.31367
 20
163.60886
 30
0.0
 11
207.81367
 21
163.60886
 31
0.0
  0
LINE
  5
89
330
1F
100
AcDbEntity
  8
SLD-0
  6
Continuous
 62
   179
100
AcDbLine
 10
206.81367
 20
162.60886
 30
0.0
 11
206.81367
 21
161.60886
 31
0.0
  0
LINE
  5
8A
330
1F
100
AcDbEntity
  8
SLD-0
  6
Continuous
 62
   179
100
AcDbLine
 10
206.81367
 20
162.80885
 30
0.0
 11
217.31367
 21
162.80885
 31
0.0
  0
LINE
  5
8B
330
1F
100
AcDbEntity
  8
SLD-0
  6
Continuous
 62
   179
100
AcDbLine
 10
217.31367
 20
161.60886
 30
0.0
 11
217.31367
 21
189.60886
 31
0.0
  0
LINE
  5
8C
330
1F
100
AcDbEntity
  8
SLD-0
  6
Continuous
 62
   179
100
AcDbLine
 10
212.31367
 20
194.60886
 30
0.0
 11
209.46838
 21
194.60886
 31
0.0
  0
LINE
  5
8D
330
1F
100
AcDbEntity
  8
SLD-0
  6
Continuous
 62
   179
100
AcDbLine
 10
209.46838
 20
194.60885
 30
0.0
 11
208.31367
 21
196.60887
 31
0.0
  0
LINE
  5
8E
330
1F
100
AcDbEntity
  8
SLD-0
  6
Continuous
 62
   179
100
AcDbLine
 10
208.31367
 20
196.60886
 30
0.0
 11
188.31367
 21
196.60886
 31
0.0
  0
LINE
  5
8F
330
1F
100
AcDbEntity
  8
SLD-0
  6
Continuous
 62
   179
100
AcDbLine
 10
188.31369
 20
196.60886
 30
0.0
 11
187.15899
 21
194.60886
 31
0.0
  0
LINE
  5
90
330
1F
100
AcDbEntity
  8
SLD-0
  6
Continuous
 62
   179
100
AcDbLine
 10
187.15899
 20
194.60886
 30
0.0
 11
186.31367
 21
194.60886
 31
0.0
  0
LINE
  5
91
330
1F
100
AcDbEntity
  8
SLD-0
  6
Continuous
 62
   179
100
AcDbLine
 10
186.31367
 20
194.60886
 30
0.0
 11
186.31367
 21
211.60886
 31
0.0
  0
LINE
  5
92
330
1F
100
AcDbEntity
  8
SLD-0
  6
Continuous
 62
   179
100
AcDbLine
 10
186.31367
 20
211.60886
 30
0.0
 11
224.31367
 21
211.60886
 31
0.0
  0
LINE
  5
93
330
1F
100
AcDbEntity
  8
SLD-0
  6
Continuous
 62
   179
100
AcDbLine
 10
224.31368
 20
211.60886
 30
0.0
 11
229.31368
 21
206.60885
 31
0.0
  0
LINE
  5
94
330
1F
100
AcDbEntity
  8
SLD-0
  6
Continuous
 62
   179
100
AcDbLine
 10
229.31367
 20
206.60886
 30
0.0
 11
229.31367
 21
161.60886
 31
0.0
  0
LINE
  5
95
330
1F
100
AcDbEntity
  8
SLD-0
  6
Continuous
 62
   179
100
AcDbLine
 10
229.81367
 20
161.60886
 30
0.0
 11
229.81367
 21
162.80885
 31
0.0
  0
LINE
  5
96
330
1F
100
AcDbEntity
  8
SLD-0
  6
Continuous
 62
   179
100
AcDbLine
 10
229.31367
 20
162.80885
 30
0.0
 11
238.81367
 21
162.80885
 31
0.0
  0
LINE
  5
97
330
1F
100
AcDbEntity
  8
SLD-0
  6
Continuous
 62
   179
100
AcDbLine
 10
238.81367
 20
162.80885
 30
0.0
 11
238.81367
 21
125.40885
 31
0.0
  0
LINE
  5
98
330
1F
100
AcDbEntity
  8
SLD-0
  6
Continuous
 62
   179
100
AcDbLine
 10
238.81367
 20
125.40885
 30
0.0
 11
206.81367
 21
125.40885
 31
0.0
  0
LINE
  5
99
330
1F
100
AcDbEntity
  8
SLD-0
  6
Continuous
 62
   179
100
AcDbLine
 10
206.81367
 20
125.10886
 30
0.0
 11
206.81367
 21
126.60886
 31
0.0
  0
LINE
  5
9A
330
1F
100
AcDbEntity
  8
SLD-0
  6
Continuous
 62
   179
100
AcDbLine
 10
204.06367
 20
132.52115
 30
0.0
 11
201.31368
 21
130.93344
 31
0.0
  0
LINE
  5
9B
330
1F
100
AcDbEntity
  8
SLD-0
  6
Continuous
 62
   179
100
AcDbLine
 10
201.31367
 20
130.93343
 30
0.0
 11
198.56368
 21
132.52114
 31
0.0
  0
LINE
  5
9C
330
1F
100
AcDbEntity
  8
SLD-0
  6
Continuous
 62
   179
100
AcDbLine
 10
198.56367
 20
132.52114
 30
0.0
 11
198.56367
 21
135.69657
 31
0.0
  0
LINE
  5
9D
330
1F
100
AcDbEntity
  8
SLD-0
  6
Continuous
 62
   179
100
AcDbLine
 10
198.56368
 20
135.69658
 30
0.0
 11
201.31368
 21
137.28429
 31
0.0
  0
LINE
  5
9E
330
1F
100
AcDbEntity
  8
SLD-0
  6
Continuous
 62
   179
100
AcDbLine
 10
201.31368
 20
137.28428
 30
0.0
 11
204.06367
 21
135.69657
 31
0.0
  0
LINE
  5
9F
330
1F
100
AcDbEntity
  8
SLD-0
  6
Continuous
 62
   179
100
AcDbLine
 10
204.06367
 20
135.69657
 30
0.0
 11
204.06367
 21
132.52114
 31
0.0
  0
LINE
  5
A0
330
1F
100
AcDbEntity
  8
SLD-0
  6
Continuous
 62
   179
100
AcDbLine
 10
214.91368
 20
125.10886
 30
0.0
 11
214.91368
 21
78.608856
 31
0.0
  0
LINE
  5
A1
330
1F
100
AcDbEntity
  8
SLD-0
  6
Continuous
 62
   179
100
AcDbLine
 10
210.31367
 20
70.608856
 30
0.0
 11
210.31367
 21
38.108854
 31
0.0
  0
LINE
  5
A2
330
1F
100
AcDbEntity
  8
SLD-0
  6
Continuous
 62
   179
100
AcDbLine
 10
206.31367
 20
38.108854
 30
0.0
 11
206.31367
 21
70.608856
 31
0.0
  0
LINE
  5
A3
330
1F
100
AcDbEntity
  8
SLD-0
  6
Continuous
 62
   179
100
AcDbLine
 10
220.91368
 20
38.108854
 30
0.0
 11
220.91368
 21
70.608856
 31
0.0
  0
LINE
  5
A4
330
1F
100
AcDbEntity
  8
SLD-0
  6
Continuous
 62
   179
100
AcDbLine
 10
221.31367
 20
70.608856
 30
0.0
 11
221.31367
 21
38.108854
 31
0.0
  0
LINE
  5
A5
330
1F
100
AcDbEntity
  8
SLD-0
  6
Continuous
 62
   179
100
AcDbLine
 10
221.31367
 20
38.108854
 30
0.0
 11
181.31367
 21
38.108854
 31
0.0
  0
LINE
  5
A6
330
1F
100
AcDbEntity
  8
SLD-0
  6
Continuous
 62
   179
100
AcDbLine
 10
181.31367
 20
38.108854
 30
0.0
 11
181.31367
 21
70.608856
 31
0.0
  0
LINE
  5
A7
330
1F
100
AcDbEntity
  8
SLD-0
  6
Continuous
 62
   179
100
AcDbLine
 10
181.71368
 20
70.608856
 30
0.0
 11
181.71368
 21
38.108854
 31
0.0
  0
LINE
  5
A8
330
1F
100
AcDbEntity
  8
SLD-0
  6
Continuous
 62
   179
100
AcDbLine
 10
175.31367
 20
37.992214
 30
0.0
 11
175.31367
 21
119.10886
 31
0.0
  0
LINE
  5
A9
330
1F
100
AcDbEntity
  8
SLD-0
  6
Continuous
 62
   179
100
AcDbLine
 10
173.61368
 20
119.10886
 30
0.0
 11
173.61368
 21
36.864016
 31
0.0
  0
LINE
  5
AA
330
1F
100
AcDbEntity
  8
SLD-0
  6
Continuous
 62
   179
100
AcDbLine
 10
171.41368
 20
37.365437
 30
0.0
 11
171.41368
 21
45.608856
 31
0.0
  0
LINE
  5
AB
330
1F
100
AcDbEntity
  8
SLD-0
  6
Continuous
 62
   179
100
AcDbLine
 10
169.41368
 20
45.608856
 30
0.0
 11
169.41368
 21
36.111883
 31
0.0
  0
LINE
  5
AC
330
1F
100
AcDbEntity
  8
SLD-0
  6
Continuous
 62
   179
100
AcDbLine
 10
167.76367
 20
45.608856
 30
0.0
 11
167.76367
 21
96.108856
 31
0.0
  0
LINE
  5
AD
330
1F
100
AcDbEntity
  8
SLD-0
  6
Continuous
 62
   179
100
AcDbLine
 10
178.81367
 20
119.10886
 30
0.0
 11
163.81367
 21
119.10886
 31
0.0
  0
LINE
  5
AE
330
1F
100
AcDbEntity
  8
SLD-0
  6
Continuous
 62
   179
100
AcDbLine
 10
163.81367
 20
119.85886
 30
0.0
 11
159.11368
 21
119.85886
 31
0.0
  0
LINE
  5
AF
330
1F
100
AcDbEntity
  8
SLD-0
  6
Continuous
 62
   179
100
AcDbLine
 10
159.11368
 20
119.85886
 30
0.0
 11
159.11368
 21
128.35886
 31
0.0
  0
LINE
  5
B0
330
1F
100
AcDbEntity
  8
SLD-0
  6
Continuous
 62
   179
100
AcDbLine
 10
159.11368
 20
128.35886
 30
0.0
 11
163.81367
 21
128.35886
 31
0.0
  0
LINE
  5
B1
330
1F
100
AcDbEntity
  8
SLD-0
  6
Continuous
 62
   179
100
AcDbLine
 10
159.11368
 20
128.35886
 30
0.0
 11
158.81368
 21
127.83924
 31
0.0
  0
LINE
  5
B2
330
1F
100
AcDbEntity
  8
SLD-0
  6
Continuous
 62
   179
100
AcDbLine
 10
158.81367
 20
127.83924
 30
0.0
 11
158.81367
 21
120.37847
 31
0.0
  0
LINE
  5
B3
330
1F
100
AcDbEntity
  8
SLD-0
  6
Continuous
 62
   179
100
AcDbLine
 10
158.81367
 20
120.37847
 30
0.0
 11
159.11369
 21
119.85885
 31
0.0
  0
LINE
  5
B4
330
1F
100
AcDbEntity
  8
SLD-0
  6
Continuous
 62
   179
100
AcDbLine
 10
159.11368
 20
139.85886
 30
0.0
 11
158.81368
 21
140.37847
 31
0.0
  0
LINE
  5
B5
330
1F
100
AcDbEntity
  8
SLD-0
  6
Continuous
 62
   179
100
AcDbLine
 10
158.81367
 20
140.37846
 30
0.0
 11
158.81367
 21
147.83923
 31
0.0
  0
LINE
  5
B6
330
1F
100
AcDbEntity
  8
SLD-0
  6
Continuous
 62
   179
100
AcDbLine
 10
158.81367
 20
147.83923
 30
0.0
 11
159.11368
 21
148.35885
 31
0.0
  0
LINE
  5
B7
330
1F
100
AcDbEntity
  8
SLD-0
  6
Continuous
 62
   179
100
AcDbLine
 10
159.11368
 20
148.35886
 30
0.0
 11
163.81367
 21
148.35886
 31
0.0
  0
LINE
  5
B8
330
1F
100
AcDbEntity
  8
SLD-0
  6
Continuous
 62
   179
100
AcDbLine
 10
166.67971
 20
149.10886
 30
0.0
 11
165.48356
 21
151.18066
 31
0.0
  0
LINE
  5
B9
330
1F
100
AcDbEntity
  8
SLD-0
  6
Continuous
 62
   179
100
AcDbLine
 10
164.81367
 20
153.68065
 30
0.0
 11
164.81367
 21
164.10886
 31
0.0
  0
LINE
  5
BA
330
1F
100
AcDbEntity
  8
SLD-0
  6
Continuous
 62
   179
100
AcDbLine
 10
169.81367
 20
169.10886
 30
0.0
 11
211.31367
 21
169.10886
 31
0.0
  0
LINE
  5
BB
330
1F
100
AcDbEntity
  8
SLD-0
  6
Continuous
 62
   179
100
AcDbLine
 10
211.31367
 20
168.10886
 30
0.0
 11
169.81367
 21
168.10886
 31
0.0
  0
LINE
  5
BC
330
1F
100
AcDbEntity
  8
SLD-0
  6
Continuous
 62
   179
100
AcDbLine
 10
165.81367
 20
164.8472
 30
0.0
 11
165.81367
 21
152.60886
 31
0.0
  0
LINE
  5
BD
330
1F
100
AcDbEntity
  8
SLD-0
  6
Continuous
 62
   179
100
AcDbLine
 10
165.81367
 20
152.60886
 30
0.0
 11
175.81367
 21
152.60886
 31
0.0
  0
LINE
  5
BE
330
1F
100
AcDbEntity
  8
SLD-0
  6
Continuous
 62
   179
100
AcDbLine
 10
171.66368
 20
152.60886
 30
0.0
 11
171.66368
 21
152.14919
 31
0.0
  0
LINE
  5
BF
330
1F
100
AcDbEntity
  8
SLD-0
  6
Continuous
 62
   179
100
AcDbLine
 10
172.00441
 20
149.561
 30
0.0
 11
172.12556
 21
149.10885
 31
0.0
  0
LINE
  5
C0
330
1F
100
AcDbEntity
  8
SLD-0
  6
Continuous
 62
   179
100
AcDbLine
 10
169.96368
 20
152.14919
 30
0.0
 11
169.96368
 21
152.60886
 31
0.0
  0
LINE
  5
C1
330
1F
100
AcDbEntity
  8
SLD-0
  6
Continuous
 62
   179
100
AcDbLine
 10
167.8344
 20
149.10886
 30
0.0
 11
165.81368
 21
152.60885
 31
0.0
  0
LINE
  5
C2
330
1F
100
AcDbEntity
  8
SLD-0
  6
Continuous
 62
   179
100
AcDbLine
 10
159.11368
 20
148.35886
 30
0.0
 11
159.11368
 21
139.85886
 31
0.0
  0
LINE
  5
C3
330
1F
100
AcDbEntity
  8
SLD-0
  6
Continuous
 62
   179
100
AcDbLine
 10
159.11368
 20
139.85886
 30
0.0
 11
163.81367
 21
139.85886
 31
0.0
  0
LINE
  5
C4
330
1F
100
AcDbEntity
  8
SLD-0
  6
Continuous
 62
   179
100
AcDbLine
 10
187.51367
 20
150.85831
 30
0.0
 11
187.51367
 21
152.35941
 31
0.0
  0
LINE
  5
C5
330
1F
100
AcDbEntity
  8
SLD-0
  6
Continuous
 62
   179
100
AcDbLine
 10
187.51367
 20
152.35941
 30
0.0
 11
188.81368
 21
153.10997
 31
0.0
  0
LINE
  5
C6
330
1F
100
AcDbEntity
  8
SLD-0
  6
Continuous
 62
   179
100
AcDbLine
 10
188.81368
 20
153.10996
 30
0.0
 11
190.11368
 21
152.35941
 31
0.0
  0
LINE
  5
C7
330
1F
100
AcDbEntity
  8
SLD-0
  6
Continuous
 62
   179
100
AcDbLine
 10
190.11368
 20
152.35941
 30
0.0
 11
190.11368
 21
150.85831
 31
0.0
  0
LINE
  5
C8
330
1F
100
AcDbEntity
  8
SLD-0
  6
Continuous
 62
   179
100
AcDbLine
 10
190.11368
 20
150.85831
 30
0.0
 11
188.81368
 21
150.10774
 31
0.0
  0
LINE
  5
C9
330
1F
100
AcDbEntity
  8
SLD-0
  6
Continuous
 62
   179
100
AcDbLine
 10
188.81368
 20
150.10774
 30
0.0
 11
187.51367
 21
150.85831
 31
0.0
  0
LINE
  5
CA
330
1F
100
AcDbEntity
  8
SLD-0
  6
Continuous
 62
   179
100
AcDbLine
 10
188.81368
 20
138.10997
 30
0.0
 11
187.51368
 21
137.35941
 31
0.0
  0
LINE
  5
CB
330
1F
100
AcDbEntity
  8
SLD-0
  6
Continuous
 62
   179
100
AcDbLine
 10
187.51367
 20
137.35941
 30
0.0
 11
187.51367
 21
135.8583
 31
0.0
  0
LINE
  5
CC
330
1F
100
AcDbEntity
  8
SLD-0
  6
Continuous
 62
   179
100
AcDbLine
 10
187.51367
 20
135.8583
 30
0.0
 11
188.81367
 21
135.10775
 31
0.0
  0
LINE
  5
CD
330
1F
100
AcDbEntity
  8
SLD-0
  6
Continuous
 62
   179
100
AcDbLine
 10
188.81368
 20
135.10774
 30
0.0
 11
190.11368
 21
135.8583
 31
0.0
  0
LINE
  5
CE
330
1F
100
AcDbEntity
  8
SLD-0
  6
Continuous
 62
   179
100
AcDbLine
 10
190.11368
 20
135.8583
 30
0.0
 11
190.11368
 21
137.35941
 31
0.0
  0
LINE
  5
CF
330
1F
100
AcDbEntity
  8
SLD-0
  6
Continuous
 62
   179
100
AcDbLine
 10
190.11368
 20
137.35941
 30
0.0
 11
188.81368
 21
138.10996
 31
0.0
  0
LINE
  5
D0
330
1F
100
AcDbEntity
  8
SLD-0
  6
Continuous
 62
   179
100
AcDbLine
 10
185.81367
 20
126.60886
 30
0.0
 11
238.81367
 21
126.60886
 31
0.0
  0
LINE
  5
D1
330
1F
100
AcDbEntity
  8
SLD-0
  6
Continuous
 62
   179
100
AcDbLine
 10
238.56367
 20
125.40886
 30
0.0
 11
238.48955
 21
124.56161
 31
0.0
  0
LINE
  5
D2
330
1F
100
AcDbEntity
  8
SLD-0
  6
Continuous
 62
   179
100
AcDbLine
 10
233.1378
 20
124.5616
 30
0.0
 11
233.06368
 21
125.40886
 31
0.0
  0
LINE
  5
D3
330
1F
100
AcDbEntity
  8
SLD-0
  6
Continuous
 62
   179
100
AcDbLine
 10
229.81367
 20
125.40885
 30
0.0
 11
229.81367
 21
126.60886
 31
0.0
  0
LINE
  5
D4
330
1F
100
AcDbEntity
  8
SLD-0
  6
Continuous
 62
   179
100
AcDbLine
 10
224.31367
 20
125.10886
 30
0.0
 11
187.71368
 21
125.10886
 31
0.0
  0
LINE
  5
D5
330
1F
100
AcDbEntity
  8
SLD-0
  6
Continuous
 62
   179
100
AcDbLine
 10
187.71368
 20
125.10886
 30
0.0
 11
187.71368
 21
78.608856
 31
0.0
  0
LINE
  5
D6
330
1F
100
AcDbEntity
  8
SLD-0
  6
Continuous
 62
   179
100
AcDbLine
 10
178.81367
 20
78.608856
 30
0.0
 11
239.31367
 21
78.608856
 31
0.0
  0
LINE
  5
D7
330
1F
100
AcDbEntity
  8
SLD-0
  6
Continuous
 62
   179
100
AcDbLine
 10
231.31367
 20
78.608856
 30
0.0
 11
231.31367
 21
116.60886
 31
0.0
  0
LINE
  5
D8
330
1F
100
AcDbEntity
  8
SLD-0
  6
Continuous
 62
   179
100
AcDbLine
 10
231.31367
 20
116.60886
 30
0.0
 11
239.31367
 21
116.60886
 31
0.0
  0
LINE
  5
D9
330
1F
100
AcDbEntity
  8
SLD-0
  6
Continuous
 62
   179
100
AcDbLine
 10
224.31367
 20
125.10886
 30
0.0
 11
224.31367
 21
78.608856
 31
0.0
  0
LINE
  5
DA
330
1F
100
AcDbEntity
  8
SLD-0
  6
Continuous
 62
   179
100
AcDbLine
 10
239.31367
 20
70.608856
 30
0.0
 11
178.81367
 21
70.608856
 31
0.0
  0
LINE
  5
DB
330
1F
100
AcDbEntity
  8
SLD-0
  6
Continuous
 62
   179
100
AcDbLine
 10
178.81367
 20
70.608856
 30
0.0
 11
178.81367
 21
161.60886
 31
0.0
  0
LINE
  5
DC
330
1F
100
AcDbEntity
  8
SLD-0
  6
Continuous
 62
   179
100
AcDbLine
 10
178.81367
 20
161.60886
 30
0.0
 11
239.31367
 21
161.60886
 31
0.0
  0
LINE
  5
DD
330
1F
100
AcDbEntity
  8
SLD-0
  6
Continuous
 62
   179
100
AcDbLine
 10
239.31367
 20
161.60886
 30
0.0
 11
239.31367
 21
70.608856
 31
0.0
  0
LINE
  5
DE
330
1F
100
AcDbEntity
  8
SLD-0
  6
Continuous
 62
   179
100
AcDbLine
 10
283.00739
 20
70.608856
 30
0.0
 11
323.007393
 21
70.608856
 31
0.0
  0
LINE
  5
DF
330
1F
100
AcDbEntity
  8
SLD-0
  6
Continuous
 62
   179
100
AcDbLine
 10
322.634232
 20
70.608856
 30
0.0
 11
322.634232
 21
38.108854
 31
0.0
  0
LINE
  5
E0
330
1F
100
AcDbEntity
  8
SLD-0
  6
Continuous
 62
   179
100
AcDbLine
 10
323.007393
 20
38.108854
 30
0.0
 11
283.00739
 21
38.108854
 31
0.0
  0
LINE
  5
E1
330
1F
100
AcDbEntity
  8
SLD-0
  6
Continuous
 62
   179
100
AcDbLine
 10
283.00739
 20
38.108854
 30
0.0
 11
283.00739
 21
116.60886
 31
0.0
  0
LINE
  5
E2
330
1F
100
AcDbEntity
  8
SLD-0
  6
Continuous
 62
   179
100
AcDbLine
 10
283.00739
 20
116.60886
 30
0.0
 11
315.007393
 21
116.60886
 31
0.0
  0
LINE
  5
E3
330
1F
100
AcDbEntity
  8
SLD-0
  6
Continuous
 62
   179
100
AcDbLine
 10
314.407394
 20
116.60886
 30
0.0
 11
314.407394
 21
125.10886
 31
0.0
  0
LINE
  5
E4
330
1F
100
AcDbEntity
  8
SLD-0
  6
Continuous
 62
   179
100
AcDbLine
 10
314.507393
 20
125.40885
 30
0.0
 11
299.50739
 21
125.40885
 31
0.0
  0
LINE
  5
E5
330
1F
100
AcDbEntity
  8
SLD-0
  6
Continuous
 62
   179
100
AcDbLine
 10
299.50739
 20
125.40885
 30
0.0
 11
299.50739
 21
126.60886
 31
0.0
  0
LINE
  5
E6
330
1F
100
AcDbEntity
  8
SLD-0
  6
Continuous
 62
   179
100
AcDbLine
 10
299.00739
 20
125.10886
 30
0.0
 11
299.00739
 21
211.60886
 31
0.0
  0
LINE
  5
E7
330
1F
100
AcDbEntity
  8
SLD-0
  6
Continuous
 62
   179
100
AcDbLine
 10
299.00739
 20
211.60886
 30
0.0
 11
307.007393
 21
211.60886
 31
0.0
  0
LINE
  5
E8
330
1F
100
AcDbEntity
  8
SLD-0
  6
Continuous
 62
   179
100
AcDbLine
 10
307.007393
 20
211.60886
 30
0.0
 11
307.007393
 21
162.80885
 31
0.0
  0
LINE
  5
E9
330
1F
100
AcDbEntity
  8
SLD-0
  6
HIDDEN
 62
   179
100
AcDbLine
 10
307.507393
 20
162.80885
 30
0.0
 11
307.507393
 21
161.60886
 31
0.0
  0
LINE
  5
EA
330
1F
100
AcDbEntity
  8
SLD-0
  6
Continuous
 62
   179
100
AcDbLine
 10
308.257395
 20
162.80886
 30
0.0
 11
308.331519
 21
163.6561
 31
0.0
  0
LINE
  5
EB
330
1F
100
AcDbEntity
  8
SLD-0
  6
Continuous
 62
   179
100
AcDbLine
 10
313.683269
 20
163.6561
 30
0.0
 11
313.757393
 21
162.80886
 31
0.0
  0
LINE
  5
EC
330
1F
100
AcDbEntity
  8
SLD-0
  6
Continuous
 62
   179
100
AcDbLine
 10
314.507393
 20
162.80885
 30
0.0
 11
299.50739
 21
162.80885
 31
0.0
  0
LINE
  5
ED
330
1F
100
AcDbEntity
  8
SLD-0
  6
Continuous
 62
   179
100
AcDbLine
 10
299.50739
 20
162.80885
 30
0.0
 11
299.50739
 21
161.60886
 31
0.0
  0
LINE
  5
EE
330
1F
100
AcDbEntity
  8
SLD-0
  6
Continuous
 62
   179
100
AcDbLine
 10
296.00739
 20
161.60886
 30
0.0
 11
296.00739
 21
126.60886
 31
0.0
  0
LINE
  5
EF
330
1F
100
AcDbEntity
  8
SLD-0
  6
Continuous
 62
   179
100
AcDbLine
 10
293.40739
 20
125.10886
 30
0.0
 11
293.40739
 21
116.60886
 31
0.0
  0
LINE
  5
F0
330
1F
100
AcDbEntity
  8
SLD-0
  6
Continuous
 62
   179
100
AcDbLine
 10
293.40739
 20
125.10886
 30
0.0
 11
315.007393
 21
125.10886
 31
0.0
  0
LINE
  5
F1
330
1F
100
AcDbEntity
  8
SLD-0
  6
Continuous
 62
   179
100
AcDbLine
 10
314.507393
 20
125.40885
 30
0.0
 11
314.507393
 21
126.60886
 31
0.0
  0
LINE
  5
F2
330
1F
100
AcDbEntity
  8
SLD-0
  6
Continuous
 62
   179
100
AcDbLine
 10
315.007393
 20
126.60886
 30
0.0
 11
292.00739
 21
126.60886
 31
0.0
  0
LINE
  5
F3
330
1F
100
AcDbEntity
  8
SLD-0
  6
Continuous
 62
   179
100
AcDbLine
 10
292.00739
 20
126.60886
 30
0.0
 11
292.00739
 21
161.60886
 31
0.0
  0
LINE
  5
F4
330
1F
100
AcDbEntity
  8
SLD-0
  6
Continuous
 62
   179
100
AcDbLine
 10
292.00739
 20
161.60886
 30
0.0
 11
323.007393
 21
161.60886
 31
0.0
  0
LINE
  5
F5
330
1F
100
AcDbEntity
  8
SLD-0
  6
Continuous
 62
   179
100
AcDbLine
 10
323.007393
 20
161.60886
 30
0.0
 11
323.007393
 21
38.108854
 31
0.0
  0
LINE
  5
F6
330
1F
100
AcDbEntity
  8
SLD-0
  6
Continuous
 62
   179
100
AcDbLine
 10
312.007393
 20
38.108854
 30
0.0
 11
312.007393
 21
70.608856
 31
0.0
  0
LINE
  5
F7
330
1F
100
AcDbEntity
  8
SLD-0
  6
Continuous
 62
   179
100
AcDbLine
 10
315.007393
 20
78.608856
 30
0.0
 11
315.007393
 21
161.60886
 31
0.0
  0
LINE
  5
F8
330
1F
100
AcDbEntity
  8
SLD-0
  6
Continuous
 62
   179
100
AcDbLine
 10
314.507393
 20
161.60886
 30
0.0
 11
314.507393
 21
162.80885
 31
0.0
  0
LINE
  5
F9
330
1F
100
AcDbEntity
  8
SLD-0
  6
Continuous
 62
   179
100
AcDbLine
 10
302.43004
 20
200.60886
 30
0.0
 11
301.85269
 21
201.60885
 31
0.0
  0
LINE
  5
FA
330
1F
100
AcDbEntity
  8
SLD-0
  6
Continuous
 62
   179
100
AcDbLine
 10
301.85269
 20
201.60885
 30
0.0
 11
302.43004
 21
202.60886
 31
0.0
  0
LINE
  5
FB
330
1F
100
AcDbEntity
  8
SLD-0
  6
Continuous
 62
   179
100
AcDbLine
 10
302.43004
 20
202.60886
 30
0.0
 11
303.58474
 21
202.60886
 31
0.0
  0
LINE
  5
FC
330
1F
100
AcDbEntity
  8
SLD-0
  6
Continuous
 62
   179
100
AcDbLine
 10
303.584744
 20
202.60885
 30
0.0
 11
304.16209
 21
201.60886
 31
0.0
  0
LINE
  5
FD
330
1F
100
AcDbEntity
  8
SLD-0
  6
Continuous
 62
   179
100
AcDbLine
 10
304.16209
 20
201.60885
 30
0.0
 11
303.584744
 21
200.60886
 31
0.0
  0
LINE
  5
FE
330
1F
100
AcDbEntity
  8
SLD-0
  6
Continuous
 62
   179
100
AcDbLine
 10
303.584744
 20
200.60886
 30
0.0
 11
302.43004
 21
200.60886
 31
0.0
  0
LINE
  5
FF
330
1F
100
AcDbEntity
  8
SLD-0
  6
Continuous
 62
   179
100
AcDbLine
 10
239.31367
 20
263.746
 30
0.0
 11
178.81367
 21
263.746
 31
0.0
  0
LINE
  5
100
330
1F
100
AcDbEntity
  8
SLD-0
  6
Continuous
 62
   179
100
AcDbLine
 10
185.31367
 20
263.746
 30
0.0
 11
185.31367
 21
255.746
 31
0.0
  0
LINE
  5
101
330
1F
100
AcDbEntity
  8
SLD-0
  6
Continuous
 62
   179
100
AcDbLine
 10
186.31367
 20
255.746
 30
0.0
 11
186.31367
 21
247.746
 31
0.0
  0
LINE
  5
102
330
1F
100
AcDbEntity
  8
SLD-0
  6
Continuous
 62
   179
100
AcDbLine
 10
185.31367
 20
247.746
 30
0.0
 11
185.31367
 21
240.746
 31
0.0
  0
LINE
  5
103
330
1F
100
AcDbEntity
  8
SLD-0
  6
Continuous
 62
   179
100
AcDbLine
 10
185.31367
 20
240.746
 30
0.0
 11
238.81367
 21
240.746
 31
0.0
  0
LINE
  5
104
330
1F
100
AcDbEntity
  8
SLD-0
  6
Continuous
 62
   179
100
AcDbLine
 10
238.81367
 20
240.746
 30
0.0
 11
238.81367
 21
263.746
 31
0.0
  0
LINE
  5
105
330
1F
100
AcDbEntity
  8
SLD-0
  6
Continuous
 62
   179
100
AcDbLine
 10
239.31367
 20
271.746
 30
0.0
 11
239.31367
 21
231.746
 31
0.0
  0
LINE
  5
106
330
1F
100
AcDbEntity
  8
SLD-0
  6
Continuous
 62
   179
100
AcDbLine
 10
239.31367
 20
231.746
 30
0.0
 11
178.81367
 21
231.746
 31
0.0
  0
LINE
  5
107
330
1F
100
AcDbEntity
  8
SLD-0
  6
Continuous
 62
   179
100
AcDbLine
 10
178.81367
 20
231.746
 30
0.0
 11
178.81367
 21
247.746
 31
0.0
  0
LINE
  5
108
330
1F
100
AcDbEntity
  8
SLD-0
  6
Continuous
 62
   179
100
AcDbLine
 10
176.81367
 20
247.746
 30
0.0
 11
238.81367
 21
247.746
 31
0.0
  0
LINE
  5
109
330
1F
100
AcDbEntity
  8
SLD-0
  6
Continuous
 62
   179
100
AcDbLine
 10
238.81367
 20
244.746
 30
0.0
 11
185.31367
 21
244.746
 31
0.0
  0
LINE
  5
10A
330
1F
100
AcDbEntity
  8
SLD-0
  6
Continuous
 62
   179
100
AcDbLine
 10
186.06367
 20
240.746
 30
0.0
 11
186.06367
 21
237.746
 31
0.0
  0
LINE
  5
10B
330
1F
100
AcDbEntity
  8
SLD-0
  6
Continuous
 62
   179
100
AcDbLine
 10
186.56367
 20
237.246
 30
0.0
 11
191.06367
 21
237.246
 31
0.0
  0
LINE
  5
10C
330
1F
100
AcDbEntity
  8
SLD-0
  6
Continuous
 62
   179
100
AcDbLine
 10
191.56367
 20
237.746
 30
0.0
 11
191.56367
 21
240.746
 31
0.0
  0
LINE
  5
10D
330
1F
100
AcDbEntity
  8
SLD-0
  6
Continuous
 62
   179
100
AcDbLine
 10
188.31367
 20
247.746
 30
0.0
 11
188.31367
 21
249.746
 31
0.0
  0
LINE
  5
10E
330
1F
100
AcDbEntity
  8
SLD-0
  6
Continuous
 62
   179
100
AcDbLine
 10
188.31367
 20
249.746
 30
0.0
 11
208.31367
 21
249.746
 31
0.0
  0
LINE
  5
10F
330
1F
100
AcDbEntity
  8
SLD-0
  6
Continuous
 62
   179
100
AcDbLine
 10
208.31367
 20
249.746
 30
0.0
 11
208.31367
 21
247.746
 31
0.0
  0
LINE
  5
110
330
1F
100
AcDbEntity
  8
SLD-0
  6
Continuous
 62
   179
100
AcDbLine
 10
212.01368
 20
250.99543
 30
0.0
 11
213.31367
 21
250.24489
 31
0.0
  0
LINE
  5
111
330
1F
100
AcDbEntity
  8
SLD-0
  6
Continuous
 62
   179
100
AcDbLine
 10
213.31367
 20
250.24489
 30
0.0
 11
214.61368
 21
250.99545
 31
0.0
  0
LINE
  5
112
330
1F
100
AcDbEntity
  8
SLD-0
  6
Continuous
 62
   179
100
AcDbLine
 10
214.61368
 20
250.99544
 30
0.0
 11
214.61368
 21
252.49655
 31
0.0
  0
LINE
  5
113
330
1F
100
AcDbEntity
  8
SLD-0
  6
Continuous
 62
   179
100
AcDbLine
 10
214.61368
 20
252.49655
 30
0.0
 11
213.31369
 21
253.24711
 31
0.0
  0
LINE
  5
114
330
1F
100
AcDbEntity
  8
SLD-0
  6
Continuous
 62
   179
100
AcDbLine
 10
213.31367
 20
253.24712
 30
0.0
 11
212.01367
 21
252.49656
 31
0.0
  0
LINE
  5
115
330
1F
100
AcDbEntity
  8
SLD-0
  6
Continuous
 62
   179
100
AcDbLine
 10
212.01367
 20
252.49656
 30
0.0
 11
212.01367
 21
250.99544
 31
0.0
  0
LINE
  5
116
330
1F
100
AcDbEntity
  8
SLD-0
  6
Continuous
 62
   179
100
AcDbLine
 10
204.06367
 20
240.746
 30
0.0
 11
204.06367
 21
238.34599
 31
0.0
  0
LINE
  5
117
330
1F
100
AcDbEntity
  8
SLD-0
  6
Continuous
 62
   179
100
AcDbLine
 10
204.06367
 20
238.34599
 30
0.0
 11
198.56367
 21
238.34599
 31
0.0
  0
LINE
  5
118
330
1F
100
AcDbEntity
  8
SLD-0
  6
Continuous
 62
   179
100
AcDbLine
 10
198.56367
 20
238.34599
 30
0.0
 11
198.56367
 21
240.746
 31
0.0
  0
LINE
  5
119
330
1F
100
AcDbEntity
  8
SLD-0
  6
Continuous
 62
   179
100
AcDbLine
 10
202.81367
 20
238.34599
 30
0.0
 11
202.81367
 21
236.496
 31
0.0
  0
LINE
  5
11A
330
1F
100
AcDbEntity
  8
SLD-0
  6
Continuous
 62
   179
100
AcDbLine
 10
202.81367
 20
236.496
 30
0.0
 11
199.81367
 21
236.496
 31
0.0
  0
LINE
  5
11B
330
1F
100
AcDbEntity
  8
SLD-0
  6
Continuous
 62
   179
100
AcDbLine
 10
199.81367
 20
236.496
 30
0.0
 11
199.81367
 21
238.34599
 31
0.0
  0
LINE
  5
11C
330
1F
100
AcDbEntity
  8
SLD-0
  6
Continuous
 62
   179
100
AcDbLine
 10
201.31367
 20
238.59161
 30
0.0
 11
201.31367
 21
240.746
 31
0.0
  0
LINE
  5
11D
330
1F
100
AcDbEntity
  8
SLD-0
  6
Continuous
 62
   179
100
AcDbLine
 10
202.81367
 20
236.496
 30
0.0
 11
202.56368
 21
236.246
 31
0.0
  0
LINE
  5
11E
330
1F
100
AcDbEntity
  8
SLD-0
  6
Continuous
 62
   179
100
AcDbLine
 10
202.56367
 20
236.246
 30
0.0
 11
200.06367
 21
236.246
 31
0.0
  0
LINE
  5
11F
330
1F
100
AcDbEntity
  8
SLD-0
  6
Continuous
 62
   179
100
AcDbLine
 10
200.06368
 20
236.24599
 30
0.0
 11
199.81367
 21
236.496
 31
0.0
  0
LINE
  5
120
330
1F
100
AcDbEntity
  8
SLD-0
  6
Continuous
 62
   179
100
AcDbLine
 10
229.31367
 20
247.746
 30
0.0
 11
229.31367
 21
255.746
 31
0.0
  0
LINE
  5
121
330
1F
100
AcDbEntity
  8
SLD-0
  6
Continuous
 62
   179
100
AcDbLine
 10
229.31367
 20
255.746
 30
0.0
 11
176.81367
 21
255.746
 31
0.0
  0
LINE
  5
122
330
1F
100
AcDbEntity
  8
SLD-0
  6
Continuous
 62
   179
100
AcDbLine
 10
176.81367
 20
255.746
 30
0.0
 11
176.81367
 21
247.746
 31
0.0
  0
LINE
  5
123
330
1F
100
AcDbEntity
  8
SLD-0
  6
Continuous
 62
   179
100
AcDbLine
 10
179.31427
 20
250.881
 30
0.0
 11
178.81486
 21
251.74599
 31
0.0
  0
LINE
  5
124
330
1F
100
AcDbEntity
  8
SLD-0
  6
Continuous
 62
   179
100
AcDbLine
 10
178.81485
 20
251.746
 30
0.0
 11
179.31425
 21
252.611
 31
0.0
  0
LINE
  5
125
330
1F
100
AcDbEntity
  8
SLD-0
  6
Continuous
 62
   179
100
AcDbLine
 10
179.31427
 20
252.61099
 30
0.0
 11
180.31308
 21
252.61099
 31
0.0
  0
LINE
  5
126
330
1F
100
AcDbEntity
  8
SLD-0
  6
Continuous
 62
   179
100
AcDbLine
 10
180.31308
 20
252.61099
 30
0.0
 11
180.8125
 21
251.746
 31
0.0
  0
LINE
  5
127
330
1F
100
AcDbEntity
  8
SLD-0
  6
Continuous
 62
   179
100
AcDbLine
 10
180.81249
 20
251.746
 30
0.0
 11
180.31308
 21
250.881
 31
0.0
  0
LINE
  5
128
330
1F
100
AcDbEntity
  8
SLD-0
  6
Continuous
 62
   179
100
AcDbLine
 10
180.31308
 20
250.881
 30
0.0
 11
179.31427
 21
250.881
 31
0.0
  0
LINE
  5
129
330
1F
100
AcDbEntity
  8
SLD-0
  6
Continuous
 62
   179
100
AcDbLine
 10
178.81367
 20
255.746
 30
0.0
 11
178.81367
 21
271.746
 31
0.0
  0
LINE
  5
12A
330
1F
100
AcDbEntity
  8
SLD-0
  6
Continuous
 62
   179
100
AcDbLine
 10
178.81367
 20
271.746
 30
0.0
 11
239.31367
 21
271.746
 31
0.0
  0
LINE
  5
12B
330
1F
100
AcDbEntity
  8
SLD-0
  6
Continuous
 62
   179
100
AcDbLine
 10
238.56367
 20
240.746
 30
0.0
 11
238.56367
 21
237.746
 31
0.0
  0
LINE
  5
12C
330
1F
100
AcDbEntity
  8
SLD-0
  6
Continuous
 62
   179
100
AcDbLine
 10
238.06367
 20
237.246
 30
0.0
 11
233.56367
 21
237.246
 31
0.0
  0
LINE
  5
12D
330
1F
100
AcDbEntity
  8
SLD-0
  6
Continuous
 62
   179
100
AcDbLine
 10
233.06367
 20
237.746
 30
0.0
 11
233.06367
 21
240.746
 31
0.0
  0
LINE
  5
12E
330
1F
100
AcDbEntity
  8
SLD-0
  6
Continuous
 62
   179
100
AcDbLine
 10
231.31367
 20
240.746
 30
0.0
 11
231.31367
 21
231.746
 31
0.0
  0
LINE
  5
12F
330
1F
100
AcDbEntity
  8
SLD-0
  6
Continuous
 62
   179
100
AcDbLine
 10
208.31367
 20
211.60886
 30
0.0
 11
208.31367
 21
196.60886
 31
0.0
  0
LINE
  5
130
330
1F
100
AcDbEntity
  8
SLD-0
  6
Continuous
 62
   179
100
AcDbLine
 10
209.31367
 20
194.8768
 30
0.0
 11
209.31367
 21
208.74397
 31
0.0
  0
LINE
  5
131
330
1F
100
AcDbEntity
  8
SLD-0
  6
Continuous
 62
   179
100
AcDbLine
 10
209.31367
 20
208.74397
 30
0.0
 11
208.31367
 21
208.74397
 31
0.0
  0
LINE
  5
132
330
1F
100
AcDbEntity
  8
SLD-0
  6
Continuous
 62
   179
100
AcDbLine
 10
210.81367
 20
194.60886
 30
0.0
 11
210.81367
 21
185.10886
 31
0.0
  0
LINE
  5
133
330
1F
100
AcDbEntity
  8
SLD-0
  6
Continuous
 62
   179
100
AcDbLine
 10
211.31367
 20
184.60886
 30
0.0
 11
215.31367
 21
184.60886
 31
0.0
  0
LINE
  5
134
330
1F
100
AcDbEntity
  8
SLD-0
  6
Continuous
 62
   179
100
AcDbLine
 10
215.81367
 20
185.10886
 30
0.0
 11
215.81367
 21
193.17957
 31
0.0
  0
LINE
  5
135
330
1F
100
AcDbEntity
  8
SLD-0
  6
Continuous
 62
   179
100
AcDbLine
 10
207.81367
 20
186.60886
 30
0.0
 11
188.81367
 21
186.60886
 31
0.0
  0
LINE
  5
136
330
1F
100
AcDbEntity
  8
SLD-0
  6
Continuous
 62
   179
100
AcDbLine
 10
188.81367
 20
186.60886
 30
0.0
 11
188.81367
 21
175.60886
 31
0.0
  0
LINE
  5
137
330
1F
100
AcDbEntity
  8
SLD-0
  6
Continuous
 62
   179
100
AcDbLine
 10
188.81367
 20
184.60886
 30
0.0
 11
207.81367
 21
184.60886
 31
0.0
  0
LINE
  5
138
330
1F
100
AcDbEntity
  8
SLD-0
  6
Continuous
 62
   179
100
AcDbLine
 10
207.81367
 20
186.60886
 30
0.0
 11
207.81367
 21
175.60886
 31
0.0
  0
LINE
  5
139
330
1F
100
AcDbEntity
  8
SLD-0
  6
Continuous
 62
   179
100
AcDbLine
 10
216.31367
 20
171.56305
 30
0.0
 11
176.81367
 21
171.56305
 31
0.0
  0
LINE
  5
13A
330
1F
100
AcDbEntity
  8
SLD-0
  6
Continuous
 62
   179
100
AcDbLine
 10
176.81367
 20
172.60886
 30
0.0
 11
165.81367
 21
172.60886
 31
0.0
  0
LINE
  5
13B
330
1F
100
AcDbEntity
  8
SLD-0
  6
Continuous
 62
   179
100
AcDbLine
 10
165.81369
 20
172.60885
 30
0.0
 11
169.34922
 21
169.07332
 31
0.0
  0
LINE
  5
13C
330
1F
100
AcDbEntity
  8
SLD-0
  6
Continuous
 62
   179
100
AcDbLine
 10
170.31368
 20
168.10886
 30
0.0
 11
175.81367
 21
162.60886
 31
0.0
  0
LINE
  5
13D
330
1F
100
AcDbEntity
  8
SLD-0
  6
Continuous
 62
   179
100
AcDbLine
 10
176.81367
 20
163.60886
 30
0.0
 11
194.81367
 21
163.60886
 31
0.0
  0
LINE
  5
13E
330
1F
100
AcDbEntity
  8
SLD-0
  6
Continuous
 62
   179
100
AcDbLine
 10
195.81367
 20
162.60886
 30
0.0
 11
195.81367
 21
161.60886
 31
0.0
  0
LINE
  5
13F
330
1F
100
AcDbEntity
  8
SLD-0
  6
Continuous
 62
   179
100
AcDbLine
 10
195.81367
 20
162.80885
 30
0.0
 11
185.81367
 21
162.80885
 31
0.0
  0
LINE
  5
140
330
1F
100
AcDbEntity
  8
SLD-0
  6
Continuous
 62
   179
100
AcDbLine
 10
185.81367
 20
162.80885
 30
0.0
 11
185.81367
 21
125.40885
 31
0.0
  0
LINE
  5
141
330
1F
100
AcDbEntity
  8
SLD-0
  6
Continuous
 62
   179
100
AcDbLine
 10
185.81367
 20
125.40885
 30
0.0
 11
195.81367
 21
125.40885
 31
0.0
  0
LINE
  5
142
330
1F
100
AcDbEntity
  8
SLD-0
  6
Continuous
 62
   179
100
AcDbLine
 10
195.81367
 20
125.10886
 30
0.0
 11
195.81367
 21
126.60886
 31
0.0
  0
LINE
  5
143
330
1F
100
AcDbEntity
  8
SLD-0
  6
Continuous
 62
   179
100
AcDbLine
 10
191.56368
 20
125.40886
 30
0.0
 11
191.53743
 21
125.10886
 31
0.0
  0
LINE
  5
144
330
1F
100
AcDbEntity
  8
SLD-0
  6
Continuous
 62
   179
100
AcDbLine
 10
186.1378
 20
124.56161
 30
0.0
 11
186.06368
 21
125.40885
 31
0.0
  0
LINE
  5
145
330
1F
100
AcDbEntity
  8
SLD-0
  6
Continuous
 62
   179
100
AcDbLine
 10
113.15311
 20
132.85886
 30
0.0
 11
113.15311
 21
135.35886
 31
0.0
  0
LINE
  5
146
330
1F
100
AcDbEntity
  8
SLD-0
  6
Continuous
 62
   179
100
AcDbLine
 10
113.15312
 20
135.35884
 30
0.0
 11
112.9031
 21
135.60886
 31
0.0
  0
LINE
  5
147
330
1F
100
AcDbEntity
  8
SLD-0
  6
Continuous
 62
   179
100
AcDbLine
 10
112.90311
 20
135.60886
 30
0.0
 11
112.15311
 21
135.60886
 31
0.0
  0
LINE
  5
148
330
1F
100
AcDbEntity
  8
SLD-0
  6
Continuous
 62
   179
100
AcDbLine
 10
112.90311
 20
135.60886
 30
0.0
 11
112.90311
 21
132.60886
 31
0.0
  0
LINE
  5
149
330
1F
100
AcDbEntity
  8
SLD-0
  6
Continuous
 62
   179
100
AcDbLine
 10
112.90311
 20
132.60886
 30
0.0
 11
111.0531
 21
132.60886
 31
0.0
  0
LINE
  5
14A
330
1F
100
AcDbEntity
  8
SLD-0
  6
Continuous
 62
   179
100
AcDbLine
 10
111.0531
 20
133.85886
 30
0.0
 11
111.0531
 21
131.35886
 31
0.0
  0
LINE
  5
14B
330
1F
100
AcDbEntity
  8
SLD-0
  6
Continuous
 62
   179
100
AcDbLine
 10
111.05311
 20
131.35884
 30
0.0
 11
110.80749
 21
130.93341
 31
0.0
  0
LINE
  5
14C
330
1F
100
AcDbEntity
  8
SLD-0
  6
Continuous
 62
   179
100
AcDbLine
 10
110.8075
 20
130.93343
 30
0.0
 11
108.65311
 21
130.93343
 31
0.0
  0
LINE
  5
14D
330
1F
100
AcDbEntity
  8
SLD-0
  6
Continuous
 62
   179
100
AcDbLine
 10
108.65311
 20
132.52114
 30
0.0
 11
110.8075
 21
132.52114
 31
0.0
  0
LINE
  5
14E
330
1F
100
AcDbEntity
  8
SLD-0
  6
Continuous
 62
   179
100
AcDbLine
 10
112.90311
 20
132.60886
 30
0.0
 11
113.15311
 21
132.85886
 31
0.0
  0
LINE
  5
14F
330
1F
100
AcDbEntity
  8
SLD-0
  6
Continuous
 62
   179
100
AcDbLine
 10
111.65311
 20
133.85886
 30
0.0
 11
108.65311
 21
133.85886
 31
0.0
  0
LINE
  5
150
330
1F
100
AcDbEntity
  8
SLD-0
  6
Continuous
 62
   179
100
AcDbLine
 10
112.15311
 20
134.35886
 30
0.0
 11
112.15311
 21
138.85886
 31
0.0
  0
LINE
  5
151
330
1F
100
AcDbEntity
  8
SLD-0
  6
Continuous
 62
   179
100
AcDbLine
 10
111.65311
 20
139.35886
 30
0.0
 11
108.65311
 21
139.35886
 31
0.0
  0
LINE
  5
152
330
1F
100
AcDbEntity
  8
SLD-0
  6
Continuous
 62
   179
100
AcDbLine
 10
108.65311
 20
148.85886
 30
0.0
 11
111.65311
 21
148.85886
 31
0.0
  0
LINE
  5
153
330
1F
100
AcDbEntity
  8
SLD-0
  6
Continuous
 62
   179
100
AcDbLine
 10
112.15311
 20
149.35886
 30
0.0
 11
112.15311
 21
153.85886
 31
0.0
  0
LINE
  5
154
330
1F
100
AcDbEntity
  8
SLD-0
  6
Continuous
 62
   179
100
AcDbLine
 10
111.65311
 20
154.35886
 30
0.0
 11
108.65311
 21
154.35886
 31
0.0
  0
LINE
  5
155
330
1F
100
AcDbEntity
  8
SLD-0
  6
Continuous
 62
   179
100
AcDbLine
 10
108.65311
 20
155.69656
 30
0.0
 11
110.8075
 21
155.69656
 31
0.0
  0
LINE
  5
156
330
1F
100
AcDbEntity
  8
SLD-0
  6
Continuous
 62
   179
100
AcDbLine
 10
111.0531
 20
154.35886
 30
0.0
 11
111.0531
 21
156.85886
 31
0.0
  0
LINE
  5
157
330
1F
100
AcDbEntity
  8
SLD-0
  6
Continuous
 62
   179
100
AcDbLine
 10
111.0531
 20
156.85884
 30
0.0
 11
110.80748
 21
157.28426
 31
0.0
  0
LINE
  5
158
330
1F
100
AcDbEntity
  8
SLD-0
  6
Continuous
 62
   179
100
AcDbLine
 10
110.8075
 20
157.28429
 30
0.0
 11
108.65311
 21
157.28429
 31
0.0
  0
LINE
  5
159
330
1F
100
AcDbEntity
  8
SLD-0
  6
Continuous
 62
   179
100
AcDbLine
 10
111.0531
 20
155.60886
 30
0.0
 11
112.90311
 21
155.60886
 31
0.0
  0
LINE
  5
15A
330
1F
100
AcDbEntity
  8
SLD-0
  6
Continuous
 62
   179
100
AcDbLine
 10
112.90311
 20
155.60886
 30
0.0
 11
112.90311
 21
152.60886
 31
0.0
  0
LINE
  5
15B
330
1F
100
AcDbEntity
  8
SLD-0
  6
Continuous
 62
   179
100
AcDbLine
 10
112.90311
 20
152.60886
 30
0.0
 11
112.15311
 21
152.60886
 31
0.0
  0
LINE
  5
15C
330
1F
100
AcDbEntity
  8
SLD-0
  6
Continuous
 62
   179
100
AcDbLine
 10
113.15311
 20
152.85886
 30
0.0
 11
113.15311
 21
155.35886
 31
0.0
  0
LINE
  5
15D
330
1F
100
AcDbEntity
  8
SLD-0
  6
Continuous
 62
   179
100
AcDbLine
 10
113.1531
 20
155.35885
 30
0.0
 11
112.90311
 21
155.60885
 31
0.0
  0
LINE
  5
15E
330
1F
100
AcDbEntity
  8
SLD-0
  6
Continuous
 62
   179
100
AcDbLine
 10
104.65311
 20
149.10886
 30
0.0
 11
104.65311
 21
161.60886
 31
0.0
  0
LINE
  5
15F
330
1F
100
AcDbEntity
  8
SLD-0
  6
Continuous
 62
   179
100
AcDbLine
 10
102.65311
 20
161.60886
 30
0.0
 11
108.65311
 21
161.60886
 31
0.0
  0
LINE
  5
160
330
1F
100
AcDbEntity
  8
SLD-0
  6
Continuous
 62
   179
100
AcDbLine
 10
108.65311
 20
161.60886
 30
0.0
 11
108.65311
 21
126.60886
 31
0.0
  0
LINE
  5
161
330
1F
100
AcDbEntity
  8
SLD-0
  6
Continuous
 62
   179
100
AcDbLine
 10
108.65311
 20
126.60886
 30
0.0
 11
107.65311
 21
126.60886
 31
0.0
  0
LINE
  5
162
330
1F
100
AcDbEntity
  8
SLD-0
  6
Continuous
 62
   179
100
AcDbLine
 10
100.85312
 20
119.10886
 30
0.0
 11
100.85312
 21
96.108856
 31
0.0
  0
LINE
  5
163
330
1F
100
AcDbEntity
  8
SLD-0
  6
Continuous
 62
   179
100
AcDbLine
 10
100.85312
 20
96.108856
 30
0.0
 11
94.45309
 21
96.108856
 31
0.0
  0
LINE
  5
164
330
1F
100
AcDbEntity
  8
SLD-0
  6
Continuous
 62
   179
100
AcDbLine
 10
94.45309
 20
96.108856
 30
0.0
 11
94.45309
 21
119.10886
 31
0.0
  0
LINE
  5
165
330
1F
100
AcDbEntity
  8
SLD-0
  6
Continuous
 62
   179
100
AcDbLine
 10
95.00311
 20
96.108856
 30
0.0
 11
95.00311
 21
83.0886
 31
0.0
  0
LINE
  5
166
330
1F
100
AcDbEntity
  8
SLD-0
  6
Continuous
 62
   179
100
AcDbLine
 10
100.3031
 20
83.480034
 30
0.0
 11
100.3031
 21
96.108856
 31
0.0
  0
LINE
  5
167
330
1F
100
AcDbEntity
  8
SLD-0
  6
Continuous
 62
   179
100
AcDbLine
 10
99.60312
 20
149.10886
 30
0.0
 11
99.60312
 21
152.60886
 31
0.0
  0
LINE
  5
168
330
1F
100
AcDbEntity
  8
SLD-0
  6
Continuous
 62
   179
100
AcDbLine
 10
98.15311
 20
152.60886
 30
0.0
 11
102.65311
 21
152.60886
 31
0.0
  0
LINE
  5
169
330
1F
100
AcDbEntity
  8
SLD-0
  6
Continuous
 62
   179
100
AcDbLine
 10
102.65311
 20
152.60886
 30
0.0
 11
102.65311
 21
166.90309
 31
0.0
  0
LINE
  5
16A
330
1F
100
AcDbEntity
  8
SLD-0
  6
Continuous
 62
   179
100
AcDbLine
 10
92.65311
 20
167.60886
 30
0.0
 11
92.65311
 21
152.60886
 31
0.0
  0
LINE
  5
16B
330
1F
100
AcDbEntity
  8
SLD-0
  6
Continuous
 62
   179
100
AcDbLine
 10
92.65311
 20
152.60886
 30
0.0
 11
97.15311
 21
152.60886
 31
0.0
  0
LINE
  5
16C
330
1F
100
AcDbEntity
  8
SLD-0
  6
Continuous
 62
   179
100
AcDbLine
 10
95.70309
 20
152.60886
 30
0.0
 11
95.70309
 21
149.10886
 31
0.0
  0
LINE
  5
16D
330
1F
100
AcDbEntity
  8
SLD-0
  6
Continuous
 62
   179
100
AcDbLine
 10
97.15311
 20
149.10886
 30
0.0
 11
97.15311
 21
159.10886
 31
0.0
  0
LINE
  5
16E
330
1F
100
AcDbEntity
  8
SLD-0
  6
Continuous
 62
   179
100
AcDbLine
 10
107.15311
 20
169.10886
 30
0.0
 11
109.15311
 21
169.10886
 31
0.0
  0
LINE
  5
16F
330
1F
100
AcDbEntity
  8
SLD-0
  6
Continuous
 62
   179
100
AcDbLine
 10
109.15311
 20
168.10886
 30
0.0
 11
107.15311
 21
168.10886
 31
0.0
  0
LINE
  5
170
330
1F
100
AcDbEntity
  8
SLD-0
  6
Continuous
 62
   179
100
AcDbLine
 10
98.15311
 20
159.10886
 30
0.0
 11
98.15311
 21
149.10886
 31
0.0
  0
LINE
  5
171
330
1F
100
AcDbEntity
  8
SLD-0
  6
Continuous
 62
   179
100
AcDbLine
 10
101.65311
 20
149.10886
 30
0.0
 11
101.65311
 21
152.60886
 31
0.0
  0
LINE
  5
172
330
1F
100
AcDbEntity
  8
SLD-0
  6
Continuous
 62
   179
100
AcDbLine
 10
92.40312
 20
162.80886
 30
0.0
 11
92.32899
 21
163.6561
 31
0.0
  0
LINE
  5
173
330
1F
100
AcDbEntity
  8
SLD-0
  6
Continuous
 62
   179
100
AcDbLine
 10
86.97724
 20
163.6561
 30
0.0
 11
86.90311
 21
162.80885
 31
0.0
  0
LINE
  5
174
330
1F
100
AcDbEntity
  8
SLD-0
  6
Continuous
 62
   179
100
AcDbLine
 10
93.65311
 20
211.60886
 30
0.0
 11
101.65311
 21
211.60886
 31
0.0
  0
LINE
  5
175
330
1F
100
AcDbEntity
  8
SLD-0
  6
Continuous
 62
   179
100
AcDbLine
 10
101.65311
 20
211.60886
 30
0.0
 11
101.65311
 21
170.60886
 31
0.0
  0
LINE
  5
176
330
1F
100
AcDbEntity
  8
SLD-0
  6
Continuous
 62
   179
100
AcDbLine
 10
101.6531
 20
171.56305
 30
0.0
 11
100.03362
 21
174.60885
 31
0.0
  0
LINE
  5
177
330
1F
100
AcDbEntity
  8
SLD-0
  6
Continuous
 62
   179
100
AcDbLine
 10
100.03363
 20
174.60886
 30
0.0
 11
93.65311
 21
174.60886
 31
0.0
  0
LINE
  5
178
330
1F
100
AcDbEntity
  8
SLD-0
  6
Continuous
 62
   179
100
AcDbLine
 10
93.65311
 20
170.60886
 30
0.0
 11
93.65311
 21
211.60886
 31
0.0
  0
LINE
  5
179
330
1F
100
AcDbEntity
  8
SLD-0
  6
Continuous
 62
   179
100
AcDbLine
 10
101.65309
 20
208.74397
 30
0.0
 11
95.65309
 21
194.60885
 31
0.0
  0
LINE
  5
17A
330
1F
100
AcDbEntity
  8
SLD-0
  6
Continuous
 62
   179
100
AcDbLine
 10
95.65311
 20
194.60886
 30
0.0
 11
101.65311
 21
194.60886
 31
0.0
  0
LINE
  5
17B
330
1F
100
AcDbEntity
  8
SLD-0
  6
Continuous
 62
   179
100
AcDbLine
 10
100.15311
 20
194.60886
 30
0.0
 11
100.15311
 21
185.10886
 31
0.0
  0
LINE
  5
17C
330
1F
100
AcDbEntity
  8
SLD-0
  6
Continuous
 62
   179
100
AcDbLine
 10
99.65311
 20
184.60886
 30
0.0
 11
95.65311
 21
184.60886
 31
0.0
  0
LINE
  5
17D
330
1F
100
AcDbEntity
  8
SLD-0
  6
Continuous
 62
   179
100
AcDbLine
 10
95.15311
 20
185.10886
 30
0.0
 11
95.15311
 21
194.67236
 31
0.0
  0
LINE
  5
17E
330
1F
100
AcDbEntity
  8
SLD-0
  6
Continuous
 62
   179
100
AcDbLine
 10
93.6531
 20
186.60886
 30
0.0
 11
94.71652
 21
184.60886
 31
0.0
  0
LINE
  5
17F
330
1F
100
AcDbEntity
  8
SLD-0
  6
Continuous
 62
   179
100
AcDbLine
 10
94.71653
 20
184.60887
 30
0.0
 11
98.11675
 21
175.26683
 31
0.0
  0
LINE
  5
180
330
1F
100
AcDbEntity
  8
SLD-0
  6
Continuous
 62
   179
100
AcDbLine
 10
93.90396
 20
181.32228
 30
0.0
 11
93.6531
 21
186.10885
 31
0.0
  0
LINE
  5
181
330
1F
100
AcDbEntity
  8
SLD-0
  6
Continuous
 62
   179
100
AcDbLine
 10
93.71471
 20
181.11208
 30
0.0
 11
93.65312
 21
181.10886
 31
0.0
  0
LINE
  5
182
330
1F
100
AcDbEntity
  8
SLD-0
  6
Continuous
 62
   179
100
AcDbLine
 10
165.81367
 20
172.60886
 30
0.0
 11
165.81367
 21
167.10886
 31
0.0
  0
LINE
  5
183
330
1F
100
AcDbEntity
  8
SLD-0
  6
Continuous
 62
   179
100
AcDbLine
 10
186.13366
 20
163.60885
 30
0.0
 11
186.06367
 21
162.80885
 31
0.0
  0
LINE
  5
184
330
1F
100
AcDbEntity
  8
SLD-0
  6
Continuous
 62
   179
100
AcDbLine
 10
191.49368
 20
163.60886
 30
0.0
 11
191.56368
 21
162.80885
 31
0.0
  0
LINE
  5
185
330
1F
100
AcDbEntity
  8
SLD-0
  6
Continuous
 62
   179
100
AcDbLine
 10
188.31367
 20
196.60886
 30
0.0
 11
188.31367
 21
211.60886
 31
0.0
  0
LINE
  5
186
330
1F
100
AcDbEntity
  8
SLD-0
  6
Continuous
 62
   179
100
AcDbLine
 10
188.31367
 20
208.74397
 30
0.0
 11
186.31367
 21
208.74397
 31
0.0
  0
LINE
  5
187
330
1F
100
AcDbEntity
  8
SLD-0
  6
Continuous
 62
   179
100
AcDbLine
 10
186.31308
 20
252.61099
 30
0.0
 11
185.31427
 21
252.61099
 31
0.0
  0
LINE
  5
188
330
1F
100
AcDbEntity
  8
SLD-0
  6
Continuous
 62
   179
100
AcDbLine
 10
185.31427
 20
252.61099
 30
0.0
 11
184.81486
 21
251.74599
 31
0.0
  0
LINE
  5
189
330
1F
100
AcDbEntity
  8
SLD-0
  6
Continuous
 62
   179
100
AcDbLine
 10
184.81486
 20
251.74599
 30
0.0
 11
185.31427
 21
250.881
 31
0.0
  0
LINE
  5
18A
330
1F
100
AcDbEntity
  8
SLD-0
  6
Continuous
 62
   179
100
AcDbLine
 10
185.31427
 20
250.881
 30
0.0
 11
186.31308
 21
250.881
 31
0.0
  0
LINE
  5
18B
330
1F
100
AcDbEntity
  8
SLD-0
  6
Continuous
 62
   179
100
AcDbLine
 10
201.31368
 20
157.28428
 30
0.0
 11
204.06368
 21
155.69656
 31
0.0
  0
LINE
  5
18C
330
1F
100
AcDbEntity
  8
SLD-0
  6
Continuous
 62
   179
100
AcDbLine
 10
204.06367
 20
155.69656
 30
0.0
 11
204.06367
 21
152.52115
 31
0.0
  0
LINE
  5
18D
330
1F
100
AcDbEntity
  8
SLD-0
  6
Continuous
 62
   179
100
AcDbLine
 10
204.06368
 20
152.52114
 30
0.0
 11
201.31368
 21
150.93342
 31
0.0
  0
LINE
  5
18E
330
1F
100
AcDbEntity
  8
SLD-0
  6
Continuous
 62
   179
100
AcDbLine
 10
201.31368
 20
150.93342
 30
0.0
 11
198.56368
 21
152.52114
 31
0.0
  0
LINE
  5
18F
330
1F
100
AcDbEntity
  8
SLD-0
  6
Continuous
 62
   179
100
AcDbLine
 10
198.56367
 20
152.52115
 30
0.0
 11
198.56367
 21
155.69656
 31
0.0
  0
LINE
  5
190
330
1F
100
AcDbEntity
  8
SLD-0
  6
Continuous
 62
   179
100
AcDbLine
 10
198.56367
 20
155.69658
 30
0.0
 11
201.31368
 21
157.28428
 31
0.0
  0
LINE
  5
191
330
1F
100
AcDbEntity
  8
SLD-0
  6
Continuous
 62
   179
100
AcDbLine
 10
233.06368
 20
162.80886
 30
0.0
 11
233.1378
 21
163.6561
 31
0.0
  0
LINE
  5
192
330
1F
100
AcDbEntity
  8
SLD-0
  6
Continuous
 62
   179
100
AcDbLine
 10
238.48955
 20
163.6561
 30
0.0
 11
238.56368
 21
162.80886
 31
0.0
  0
LINE
  5
193
330
1F
100
AcDbEntity
  8
SLD-0
  6
Continuous
 62
   179
100
AcDbLine
 10
237.11367
 20
137.35941
 30
0.0
 11
235.81368
 21
138.10996
 31
0.0
  0
LINE
  5
194
330
1F
100
AcDbEntity
  8
SLD-0
  6
Continuous
 62
   179
100
AcDbLine
 10
235.81368
 20
138.10996
 30
0.0
 11
234.51368
 21
137.35941
 31
0.0
  0
LINE
  5
195
330
1F
100
AcDbEntity
  8
SLD-0
  6
Continuous
 62
   179
100
AcDbLine
 10
234.51367
 20
137.35941
 30
0.0
 11
234.51367
 21
135.8583
 31
0.0
  0
LINE
  5
196
330
1F
100
AcDbEntity
  8
SLD-0
  6
Continuous
 62
   179
100
AcDbLine
 10
234.51367
 20
135.8583
 30
0.0
 11
235.81367
 21
135.10775
 31
0.0
  0
LINE
  5
197
330
1F
100
AcDbEntity
  8
SLD-0
  6
Continuous
 62
   179
100
AcDbLine
 10
235.81367
 20
135.10775
 30
0.0
 11
237.11368
 21
135.8583
 31
0.0
  0
LINE
  5
198
330
1F
100
AcDbEntity
  8
SLD-0
  6
Continuous
 62
   179
100
AcDbLine
 10
237.11368
 20
135.8583
 30
0.0
 11
237.11367
 21
137.35941
 31
0.0
  0
LINE
  5
199
330
1F
100
AcDbEntity
  8
SLD-0
  6
Continuous
 62
   179
100
AcDbLine
 10
235.81367
 20
150.10775
 30
0.0
 11
234.51368
 21
150.8583
 31
0.0
  0
LINE
  5
19A
330
1F
100
AcDbEntity
  8
SLD-0
  6
Continuous
 62
   179
100
AcDbLine
 10
234.51367
 20
150.85831
 30
0.0
 11
234.51367
 21
152.35941
 31
0.0
  0
LINE
  5
19B
330
1F
100
AcDbEntity
  8
SLD-0
  6
Continuous
 62
   179
100
AcDbLine
 10
234.51367
 20
152.35941
 30
0.0
 11
235.81368
 21
153.10996
 31
0.0
  0
LINE
  5
19C
330
1F
100
AcDbEntity
  8
SLD-0
  6
Continuous
 62
   179
100
AcDbLine
 10
235.81368
 20
153.10996
 30
0.0
 11
237.11368
 21
152.35941
 31
0.0
  0
LINE
  5
19D
330
1F
100
AcDbEntity
  8
SLD-0
  6
Continuous
 62
   179
100
AcDbLine
 10
237.11368
 20
152.35941
 30
0.0
 11
237.11368
 21
150.85831
 31
0.0
  0
LINE
  5
19E
330
1F
100
AcDbEntity
  8
SLD-0
  6
Continuous
 62
   179
100
AcDbLine
 10
237.11368
 20
150.85831
 30
0.0
 11
235.81367
 21
150.10775
 31
0.0
  0
LINE
  5
19F
330
1F
100
AcDbEntity
  8
SLD-0
  6
Continuous
 62
   179
100
AcDbLine
 10
220.19755
 20
116.8463
 30
0.0
 11
220.02078
 21
116.66952
 31
0.0
  0
LINE
  5
1A0
330
1F
100
AcDbEntity
  8
SLD-0
  6
Continuous
 62
   179
100
AcDbLine
 10
218.60656
 20
116.66952
 30
0.0
 11
218.4298
 21
116.84629
 31
0.0
  0
LINE
  5
1A1
330
1F
100
AcDbEntity
  8
SLD-0
  6
Continuous
 62
   179
100
AcDbLine
 10
218.4298
 20
116.84629
 30
0.0
 11
218.07624
 21
116.49274
 31
0.0
  0
LINE
  5
1A2
330
1F
100
AcDbEntity
  8
SLD-0
  6
Continuous
 62
   179
100
AcDbLine
 10
218.07623
 20
116.49274
 30
0.0
 11
218.25302
 21
116.31596
 31
0.0
  0
LINE
  5
1A3
330
1F
100
AcDbEntity
  8
SLD-0
  6
Continuous
 62
   179
100
AcDbLine
 10
218.25301
 20
114.90175
 30
0.0
 11
218.07623
 21
114.72498
 31
0.0
  0
LINE
  5
1A4
330
1F
100
AcDbEntity
  8
SLD-0
  6
Continuous
 62
   179
100
AcDbLine
 10
218.07624
 20
114.72497
 30
0.0
 11
218.42979
 21
114.37142
 31
0.0
  0
LINE
  5
1A5
330
1F
100
AcDbEntity
  8
SLD-0
  6
Continuous
 62
   179
100
AcDbLine
 10
218.4298
 20
114.37141
 30
0.0
 11
218.60658
 21
114.54819
 31
0.0
  0
LINE
  5
1A6
330
1F
100
AcDbEntity
  8
SLD-0
  6
Continuous
 62
   179
100
AcDbLine
 10
220.02079
 20
114.54819
 30
0.0
 11
220.19755
 21
114.37142
 31
0.0
  0
LINE
  5
1A7
330
1F
100
AcDbEntity
  8
SLD-0
  6
Continuous
 62
   179
100
AcDbLine
 10
220.19755
 20
114.37142
 30
0.0
 11
220.55112
 21
114.72497
 31
0.0
  0
LINE
  5
1A8
330
1F
100
AcDbEntity
  8
SLD-0
  6
Continuous
 62
   179
100
AcDbLine
 10
220.55112
 20
114.72497
 30
0.0
 11
220.37433
 21
114.90175
 31
0.0
  0
LINE
  5
1A9
330
1F
100
AcDbEntity
  8
SLD-0
  6
Continuous
 62
   179
100
AcDbLine
 10
220.37434
 20
116.31596
 30
0.0
 11
220.55112
 21
116.49273
 31
0.0
  0
LINE
  5
1AA
330
1F
100
AcDbEntity
  8
SLD-0
  6
Continuous
 62
   179
100
AcDbLine
 10
220.55111
 20
116.49274
 30
0.0
 11
220.19755
 21
116.84629
 31
0.0
  0
LINE
  5
1AB
330
1F
100
AcDbEntity
  8
SLD-0
  6
Continuous
 62
   179
100
AcDbLine
 10
220.19756
 20
89.846295
 30
0.0
 11
220.02078
 21
89.669519
 31
0.0
  0
LINE
  5
1AC
330
1F
100
AcDbEntity
  8
SLD-0
  6
Continuous
 62
   179
100
AcDbLine
 10
218.60657
 20
89.669519
 30
0.0
 11
218.42979
 21
89.846295
 31
0.0
  0
LINE
  5
1AD
330
1F
100
AcDbEntity
  8
SLD-0
  6
Continuous
 62
   179
100
AcDbLine
 10
218.42979
 20
89.846295
 30
0.0
 11
218.07624
 21
89.492742
 31
0.0
  0
LINE
  5
1AE
330
1F
100
AcDbEntity
  8
SLD-0
  6
Continuous
 62
   179
100
AcDbLine
 10
218.07624
 20
89.492742
 30
0.0
 11
218.25302
 21
89.315965
 31
0.0
  0
LINE
  5
1AF
330
1F
100
AcDbEntity
  8
SLD-0
  6
Continuous
 62
   179
100
AcDbLine
 10
218.25302
 20
87.901752
 30
0.0
 11
218.07624
 21
87.724975
 31
0.0
  0
LINE
  5
1B0
330
1F
100
AcDbEntity
  8
SLD-0
  6
Continuous
 62
   179
100
AcDbLine
 10
218.07624
 20
87.724975
 30
0.0
 11
218.42979
 21
87.371417
 31
0.0
  0
LINE
  5
1B1
330
1F
100
AcDbEntity
  8
SLD-0
  6
Continuous
 62
   179
100
AcDbLine
 10
218.42979
 20
87.371417
 30
0.0
 11
218.60657
 21
87.548198
 31
0.0
  0
LINE
  5
1B2
330
1F
100
AcDbEntity
  8
SLD-0
  6
Continuous
 62
   179
100
AcDbLine
 10
220.02078
 20
87.548198
 30
0.0
 11
220.19756
 21
87.371421
 31
0.0
  0
LINE
  5
1B3
330
1F
100
AcDbEntity
  8
SLD-0
  6
Continuous
 62
   179
100
AcDbLine
 10
220.19756
 20
87.371421
 30
0.0
 11
220.55111
 21
87.724977
 31
0.0
  0
LINE
  5
1B4
330
1F
100
AcDbEntity
  8
SLD-0
  6
Continuous
 62
   179
100
AcDbLine
 10
220.55111
 20
87.724977
 30
0.0
 11
220.37434
 21
87.901752
 31
0.0
  0
LINE
  5
1B5
330
1F
100
AcDbEntity
  8
SLD-0
  6
Continuous
 62
   179
100
AcDbLine
 10
220.37434
 20
89.315965
 30
0.0
 11
220.55111
 21
89.492742
 31
0.0
  0
LINE
  5
1B6
330
1F
100
AcDbEntity
  8
SLD-0
  6
Continuous
 62
   179
100
AcDbLine
 10
220.55111
 20
89.492742
 30
0.0
 11
220.19756
 21
89.846295
 31
0.0
  0
LINE
  5
1B7
330
1F
100
AcDbEntity
  8
SLD-0
  6
Continuous
 62
   179
100
AcDbLine
 10
196.31367
 20
70.608856
 30
0.0
 11
196.31367
 21
38.108854
 31
0.0
  0
LINE
  5
1B8
330
1F
100
AcDbEntity
  8
SLD-0
  6
Continuous
 62
   179
100
AcDbLine
 10
192.31367
 20
38.108854
 30
0.0
 11
192.31367
 21
70.608856
 31
0.0
  0
LINE
  5
1B9
330
1F
100
AcDbEntity
  8
SLD-0
  6
Continuous
 62
   179
100
AcDbLine
 10
283.00739
 20
78.608856
 30
0.0
 11
323.007393
 21
78.608856
 31
0.0
  0
LINE
  5
1BA
330
1F
100
AcDbEntity
  8
SLD-0
  6
Continuous
 62
   179
100
AcDbLine
 10
294.00739
 20
70.608856
 30
0.0
 11
294.00739
 21
38.108854
 31
0.0
  0
LINE
  5
1BB
330
1F
100
AcDbEntity
  8
SLD-0
  6
Continuous
 62
   179
100
AcDbLine
 10
283.38055
 20
38.108854
 30
0.0
 11
283.38055
 21
70.608856
 31
0.0
  0
LINE
  5
1BC
330
1F
100
AcDbEntity
  8
SLD-0
  6
HIDDEN
 62
   179
100
AcDbLine
 10
307.507393
 20
125.40885
 30
0.0
 11
307.507393
 21
126.60886
 31
0.0
  0
LINE
  5
1BD
330
1F
100
AcDbEntity
  8
SLD-0
  6
Continuous
 62
   179
100
AcDbLine
 10
308.25739
 20
125.40885
 30
0.0
 11
308.283637
 21
125.10885
 31
0.0
  0
LINE
  5
1BE
330
1F
100
AcDbEntity
  8
SLD-0
  6
Continuous
 62
   179
100
AcDbLine
 10
313.731143
 20
125.10885
 30
0.0
 11
313.757389
 21
125.40886
 31
0.0
  0
LINE
  5
1BF
330
1F
100
AcDbEntity
  8
SLD-0
  6
Continuous
 62
   179
100
AcDbLine
 10
88.65311
 20
70.608856
 30
0.0
 11
88.65311
 21
38.108854
 31
0.0
  0
LINE
  5
1C0
330
1F
100
AcDbEntity
  8
SLD-0
  6
HIDDEN
 62
   179
100
AcDbLine
 10
91.15311
 20
70.608856
 30
0.0
 11
91.15311
 21
78.608856
 31
0.0
  0
LINE
  5
1C1
330
1F
100
AcDbEntity
  8
SLD-0
  6
HIDDEN
 62
   179
100
AcDbLine
 10
92.65311
 20
80.236717
 30
0.0
 11
102.65311
 21
80.236717
 31
0.0
  0
LINE
  5
1C2
330
1F
100
AcDbEntity
  8
SLD-0
  6
HIDDEN
 62
   179
100
AcDbLine
 10
102.65311
 20
80.236717
 30
0.0
 11
102.65311
 21
90.236717
 31
0.0
  0
LINE
  5
1C3
330
1F
100
AcDbEntity
  8
SLD-0
  6
HIDDEN
 62
   179
100
AcDbLine
 10
104.65311
 20
90.236717
 30
0.0
 11
90.65311
 21
90.236717
 31
0.0
  0
LINE
  5
1C4
330
1F
100
AcDbEntity
  8
SLD-0
  6
HIDDEN
 62
   179
100
AcDbLine
 10
90.65311
 20
90.236717
 30
0.0
 11
90.65311
 21
100.108856
 31
0.0
  0
LINE
  5
1C5
330
1F
100
AcDbEntity
  8
SLD-0
  6
HIDDEN
 62
   179
100
AcDbLine
 10
89.65311
 20
100.108856
 30
0.0
 11
105.65311
 21
100.108856
 31
0.0
  0
LINE
  5
1C6
330
1F
100
AcDbEntity
  8
SLD-0
  6
HIDDEN
 62
   179
100
AcDbLine
 10
105.65311
 20
100.108856
 30
0.0
 11
105.65311
 21
105.108856
 31
0.0
  0
LINE
  5
1C7
330
1F
100
AcDbEntity
  8
SLD-0
  6
HIDDEN
 62
   179
100
AcDbLine
 10
105.65311
 20
105.108856
 30
0.0
 11
89.65311
 21
105.108856
 31
0.0
  0
LINE
  5
1C8
330
1F
100
AcDbEntity
  8
SLD-0
  6
HIDDEN
 62
   179
100
AcDbLine
 10
89.65311
 20
105.108856
 30
0.0
 11
89.65311
 21
100.108856
 31
0.0
  0
LINE
  5
1C9
330
1F
100
AcDbEntity
  8
SLD-0
  6
HIDDEN
 62
   179
100
AcDbLine
 10
85.65311
 20
116.60886
 30
0.0
 11
107.25311
 21
116.60886
 31
0.0
  0
LINE
  5
1CA
330
1F
100
AcDbEntity
  8
SLD-0
  6
HIDDEN
 62
   179
100
AcDbLine
 10
102.65311
 20
119.10886
 30
0.0
 11
102.65311
 21
149.10886
 31
0.0
  0
LINE
  5
1CB
330
1F
100
AcDbEntity
  8
SLD-0
  6
HIDDEN
 62
   179
100
AcDbLine
 10
99.60312
 20
149.10886
 30
0.0
 11
99.60312
 21
112.60886
 31
0.0
  0
LINE
  5
1CC
330
1F
100
AcDbEntity
  8
SLD-0
  6
HIDDEN
 62
   179
100
AcDbLine
 10
97.90311
 20
112.60886
 30
0.0
 11
97.90311
 21
152.60886
 31
0.0
  0
LINE
  5
1CD
330
1F
100
AcDbEntity
  8
SLD-0
  6
HIDDEN
 62
   179
100
AcDbLine
 10
98.15311
 20
152.60886
 30
0.0
 11
97.15311
 21
152.60886
 31
0.0
  0
LINE
  5
1CE
330
1F
100
AcDbEntity
  8
SLD-0
  6
HIDDEN
 62
   179
100
AcDbLine
 10
97.40311
 20
152.60886
 30
0.0
 11
97.40311
 21
112.60886
 31
0.0
  0
LINE
  5
1CF
330
1F
100
AcDbEntity
  8
SLD-0
  6
HIDDEN
 62
   179
100
AcDbLine
 10
97.65311
 20
112.60886
 30
0.0
 11
97.65311
 21
108.608856
 31
0.0
  0
LINE
  5
1D0
330
1F
100
AcDbEntity
  8
SLD-0
  6
CENTER
 62
   179
100
AcDbLine
 10
97.65311
 20
108.608856
 30
0.0
 11
97.65311
 21
90.236717
 31
0.0
  0
LINE
  5
1D1
330
1F
100
AcDbEntity
  8
SLD-0
  6
HIDDEN
 62
   179
100
AcDbLine
 10
97.65311
 20
90.236717
 30
0.0
 11
97.65311
 21
86.236717
 31
0.0
  0
LINE
  5
1D2
330
1F
100
AcDbEntity
  8
SLD-0
  6
HIDDEN
 62
   179
100
AcDbLine
 10
92.65311
 20
85.236717
 30
0.0
 11
102.65311
 21
85.236717
 31
0.0
  0
LINE
  5
1D3
330
1F
100
AcDbEntity
  8
SLD-0
  6
CENTER
 62
   179
100
AcDbLine
 10
97.65311
 20
86.236717
 30
0.0
 11
97.65311
 21
85.236717
 31
0.0
  0
LINE
  5
1D4
330
1F
100
AcDbEntity
  8
SLD-0
  6
HIDDEN
 62
   179
100
AcDbLine
 10
97.65311
 20
85.236717
 30
0.0
 11
97.65311
 21
81.236717
 31
0.0
  0
LINE
  5
1D5
330
1F
100
AcDbEntity
  8
SLD-0
  6
HIDDEN
 62
   179
100
AcDbLine
 10
100.65311
 20
80.236717
 30
0.0
 11
100.65311
 21
75.608856
 31
0.0
  0
LINE
  5
1D6
330
1F
100
AcDbEntity
  8
SLD-0
  6
HIDDEN
 62
   179
100
AcDbLine
 10
100.15311
 20
75.608856
 30
0.0
 11
100.15311
 21
80.236717
 31
0.0
  0
LINE
  5
1D7
330
1F
100
AcDbEntity
  8
SLD-0
  6
HIDDEN
 62
   179
100
AcDbLine
 10
92.65311
 20
80.236717
 30
0.0
 11
92.65311
 21
90.236717
 31
0.0
  0
LINE
  5
1D8
330
1F
100
AcDbEntity
  8
SLD-0
  6
HIDDEN
 62
   179
100
AcDbLine
 10
104.65311
 20
90.236717
 30
0.0
 11
104.65311
 21
100.108856
 31
0.0
  0
LINE
  5
1D9
330
1F
100
AcDbEntity
  8
SLD-0
  6
HIDDEN
 62
   179
100
AcDbLine
 10
100.65311
 20
105.108856
 30
0.0
 11
100.65311
 21
107.608856
 31
0.0
  0
LINE
  5
1DA
330
1F
100
AcDbEntity
  8
SLD-0
  6
HIDDEN
 62
   179
100
AcDbLine
 10
102.65311
 20
107.608856
 30
0.0
 11
102.65311
 21
112.60886
 31
0.0
  0
LINE
  5
1DB
330
1F
100
AcDbEntity
  8
SLD-0
  6
HIDDEN
 62
   179
100
AcDbLine
 10
102.65311
 20
112.60886
 30
0.0
 11
92.65311
 21
112.60886
 31
0.0
  0
LINE
  5
1DC
330
1F
100
AcDbEntity
  8
SLD-0
  6
HIDDEN
 62
   179
100
AcDbLine
 10
92.65311
 20
112.60886
 30
0.0
 11
92.65311
 21
107.608856
 31
0.0
  0
LINE
  5
1DD
330
1F
100
AcDbEntity
  8
SLD-0
  6
HIDDEN
 62
   179
100
AcDbLine
 10
92.65311
 20
107.608856
 30
0.0
 11
102.65311
 21
107.608856
 31
0.0
  0
LINE
  5
1DE
330
1F
100
AcDbEntity
  8
SLD-0
  6
HIDDEN
 62
   179
100
AcDbLine
 10
94.65311
 20
107.608856
 30
0.0
 11
94.65311
 21
105.108856
 31
0.0
  0
LINE
  5
1DF
330
1F
100
AcDbEntity
  8
SLD-0
  6
HIDDEN
 62
   179
100
AcDbLine
 10
95.70309
 20
112.60886
 30
0.0
 11
95.70309
 21
149.10886
 31
0.0
  0
LINE
  5
1E0
330
1F
100
AcDbEntity
  8
SLD-0
  6
HIDDEN
 62
   179
100
AcDbLine
 10
97.15311
 20
149.10886
 30
0.0
 11
97.15311
 21
132.60886
 31
0.0
  0
LINE
  5
1E1
330
1F
100
AcDbEntity
  8
SLD-0
  6
HIDDEN
 62
   179
100
AcDbLine
 10
98.15311
 20
132.60886
 30
0.0
 11
98.15311
 21
149.10886
 31
0.0
  0
LINE
  5
1E2
330
1F
100
AcDbEntity
  8
SLD-0
  6
HIDDEN
 62
   179
100
AcDbLine
 10
93.65311
 20
149.10886
 30
0.0
 11
93.65311
 21
170.60886
 31
0.0
  0
LINE
  5
1E3
330
1F
100
AcDbEntity
  8
SLD-0
  6
CENTER
 62
   179
100
AcDbLine
 10
91.89453
 20
168.60886
 30
0.0
 11
110.0899
 21
168.60886
 31
0.0
  0
LINE
  5
1E4
330
1F
100
AcDbEntity
  8
SLD-0
  6
CENTER
 62
   179
100
AcDbLine
 10
104.49551
 20
167.60886
 30
0.0
 11
91.5311
 21
167.60886
 31
0.0
  0
LINE
  5
1E5
330
1F
100
AcDbEntity
  8
SLD-0
  6
HIDDEN
 62
   179
100
AcDbLine
 10
93.65311
 20
163.60886
 30
0.0
 11
101.65311
 21
163.60886
 31
0.0
  0
LINE
  5
1E6
330
1F
100
AcDbEntity
  8
SLD-0
  6
HIDDEN
 62
   179
100
AcDbLine
 10
101.15311
 20
162.80885
 30
0.0
 11
92.65311
 21
162.80885
 31
0.0
  0
LINE
  5
1E7
330
1F
100
AcDbEntity
  8
SLD-0
  6
HIDDEN
 62
   179
100
AcDbLine
 10
92.65311
 20
161.60886
 30
0.0
 11
102.65311
 21
161.60886
 31
0.0
  0
LINE
  5
1E8
330
1F
100
AcDbEntity
  8
SLD-0
  6
HIDDEN
 62
   179
100
AcDbLine
 10
101.15311
 20
161.60886
 30
0.0
 11
101.15311
 21
162.80885
 31
0.0
  0
LINE
  5
1E9
330
1F
100
AcDbEntity
  8
SLD-0
  6
HIDDEN
 62
   179
100
AcDbLine
 10
101.65311
 20
170.60886
 30
0.0
 11
101.65311
 21
152.60886
 31
0.0
  0
LINE
  5
1EA
330
1F
100
AcDbEntity
  8
SLD-0
  6
CENTER
 62
   179
100
AcDbLine
 10
102.35538
 20
154.10886
 30
0.0
 11
114.4617
 21
154.10886
 31
0.0
  0
LINE
  5
1EB
330
1F
100
AcDbEntity
  8
SLD-0
  6
Continuous
 62
   179
100
AcDbLine
 10
113.15311
 20
152.85886
 30
0.0
 11
112.15311
 21
152.85886
 31
0.0
  0
LINE
  5
1EC
330
1F
100
AcDbEntity
  8
SLD-0
  6
CENTER
 62
   179
100
AcDbLine
 10
113.80081
 20
151.60886
 30
0.0
 11
107.25064
 21
151.60886
 31
0.0
  0
LINE
  5
1ED
330
1F
100
AcDbEntity
  8
SLD-0
  6
Continuous
 62
   179
100
AcDbLine
 10
111.0531
 20
155.35886
 30
0.0
 11
113.15311
 21
155.35886
 31
0.0
  0
LINE
  5
1EE
330
1F
100
AcDbEntity
  8
SLD-0
  6
CENTER
 62
   179
100
AcDbLine
 10
115.76071
 20
136.60886
 30
0.0
 11
107.35379
 21
136.60886
 31
0.0
  0
LINE
  5
1EF
330
1F
100
AcDbEntity
  8
SLD-0
  6
Continuous
 62
   179
100
AcDbLine
 10
112.15311
 20
135.35886
 30
0.0
 11
113.15311
 21
135.35886
 31
0.0
  0
LINE
  5
1F0
330
1F
100
AcDbEntity
  8
SLD-0
  6
CENTER
 62
   179
100
AcDbLine
 10
114.4617
 20
134.10886
 30
0.0
 11
102.35538
 21
134.10886
 31
0.0
  0
LINE
  5
1F1
330
1F
100
AcDbEntity
  8
SLD-0
  6
HIDDEN
 62
   179
100
AcDbLine
 10
99.15311
 20
132.60886
 30
0.0
 11
96.15311
 21
132.60886
 31
0.0
  0
LINE
  5
1F2
330
1F
100
AcDbEntity
  8
SLD-0
  6
HIDDEN
 62
   179
100
AcDbLine
 10
96.15311
 20
132.60886
 30
0.0
 11
96.15311
 21
126.60886
 31
0.0
  0
LINE
  5
1F3
330
1F
100
AcDbEntity
  8
SLD-0
  6
HIDDEN
 62
   179
100
AcDbLine
 10
96.15311
 20
126.60886
 30
0.0
 11
99.15311
 21
126.60886
 31
0.0
  0
LINE
  5
1F4
330
1F
100
AcDbEntity
  8
SLD-0
  6
HIDDEN
 62
   179
100
AcDbLine
 10
99.15311
 20
126.60886
 30
0.0
 11
99.15311
 21
132.60886
 31
0.0
  0
LINE
  5
1F5
330
1F
100
AcDbEntity
  8
SLD-0
  6
HIDDEN
 62
   179
100
AcDbLine
 10
99.1531
 20
126.60885
 30
0.0
 11
100.85309
 21
125.62736
 31
0.0
  0
LINE
  5
1F6
330
1F
100
AcDbEntity
  8
SLD-0
  6
HIDDEN
 62
   179
100
AcDbLine
 10
100.85312
 20
125.62736
 30
0.0
 11
94.45309
 21
125.62736
 31
0.0
  0
LINE
  5
1F7
330
1F
100
AcDbEntity
  8
SLD-0
  6
HIDDEN
 62
   179
100
AcDbLine
 10
94.4531
 20
125.62736
 30
0.0
 11
96.15311
 21
126.60885
 31
0.0
  0
LINE
  5
1F8
330
1F
100
AcDbEntity
  8
SLD-0
  6
HIDDEN
 62
   179
100
AcDbLine
 10
94.45309
 20
125.62736
 30
0.0
 11
94.45309
 21
119.10886
 31
0.0
  0
LINE
  5
1F9
330
1F
100
AcDbEntity
  8
SLD-0
  6
HIDDEN
 62
   179
100
AcDbLine
 10
92.65311
 20
119.10886
 30
0.0
 11
92.65311
 21
149.10886
 31
0.0
  0
LINE
  5
1FA
330
1F
100
AcDbEntity
  8
SLD-0
  6
Continuous
 62
   179
100
AcDbLine
 10
111.0531
 20
132.85886
 30
0.0
 11
113.15311
 21
132.85886
 31
0.0
  0
LINE
  5
1FB
330
1F
100
AcDbEntity
  8
SLD-0
  6
HIDDEN
 62
   179
100
AcDbLine
 10
100.85312
 20
125.62736
 30
0.0
 11
100.85312
 21
119.10886
 31
0.0
  0
LINE
  5
1FC
330
1F
100
AcDbEntity
  8
SLD-0
  6
CENTER
 62
   179
100
AcDbLine
 10
97.65311
 20
112.60886
 30
0.0
 11
97.65311
 21
218.90321
 31
0.0
  0
LINE
  5
1FD
330
1F
100
AcDbEntity
  8
SLD-0
  6
Continuous
 62
   179
100
AcDbLine
 10
95.65311
 20
194.60886
 30
0.0
 11
95.65311
 21
185.10886
 31
0.0
  0
LINE
  5
1FE
330
1F
100
AcDbEntity
  8
SLD-0
  6
Continuous
 62
   179
100
AcDbLine
 10
95.6531
 20
184.60886
 30
0.0
 11
95.15311
 21
185.10885
 31
0.0
  0
LINE
  5
1FF
330
1F
100
AcDbEntity
  8
SLD-0
  6
Continuous
 62
   179
100
AcDbLine
 10
95.15311
 20
185.10886
 30
0.0
 11
100.15311
 21
185.10886
 31
0.0
  0
LINE
  5
200
330
1F
100
AcDbEntity
  8
SLD-0
  6
Continuous
 62
   179
100
AcDbLine
 10
100.1531
 20
185.10886
 30
0.0
 11
99.6531
 21
184.60886
 31
0.0
  0
LINE
  5
201
330
1F
100
AcDbEntity
  8
SLD-0
  6
Continuous
 62
   179
100
AcDbLine
 10
99.65311
 20
185.10886
 30
0.0
 11
99.65311
 21
194.60886
 31
0.0
  0
LINE
  5
202
330
1F
100
AcDbEntity
  8
SLD-0
  6
CENTER
 62
   179
100
AcDbLine
 10
169.81367
 20
168.60886
 30
0.0
 11
217.77408
 21
168.60886
 31
0.0
  0
LINE
  5
203
330
1F
100
AcDbEntity
  8
SLD-0
  6
HIDDEN
 62
   179
100
AcDbLine
 10
216.31367
 20
167.35886
 30
0.0
 11
211.31367
 21
167.35886
 31
0.0
  0
LINE
  5
204
330
1F
100
AcDbEntity
  8
SLD-0
  6
HIDDEN
 62
   179
100
AcDbLine
 10
211.31367
 20
167.10886
 30
0.0
 11
211.31367
 21
168.00885
 31
0.0
  0
LINE
  5
205
330
1F
100
AcDbEntity
  8
SLD-0
  6
HIDDEN
 62
   179
100
AcDbLine
 10
211.31367
 20
169.20886
 30
0.0
 11
211.31367
 21
170.10886
 31
0.0
  0
LINE
  5
206
330
1F
100
AcDbEntity
  8
SLD-0
  6
HIDDEN
 62
   179
100
AcDbLine
 10
211.31367
 20
170.10886
 30
0.0
 11
216.31367
 21
170.10886
 31
0.0
  0
LINE
  5
207
330
1F
100
AcDbEntity
  8
SLD-0
  6
HIDDEN
 62
   179
100
AcDbLine
 10
216.31367
 20
169.85886
 30
0.0
 11
211.31367
 21
169.85886
 31
0.0
  0
LINE
  5
208
330
1F
100
AcDbEntity
  8
SLD-0
  6
HIDDEN
 62
   179
100
AcDbLine
 10
211.31367
 20
167.10886
 30
0.0
 11
216.31367
 21
167.10886
 31
0.0
  0
LINE
  5
209
330
1F
100
AcDbEntity
  8
SLD-0
  6
HIDDEN
 62
   179
100
AcDbLine
 10
217.31367
 20
161.60886
 30
0.0
 11
217.31367
 21
126.60886
 31
0.0
  0
LINE
  5
20A
330
1F
100
AcDbEntity
  8
SLD-0
  6
HIDDEN
 62
   179
100
AcDbLine
 10
214.31367
 20
126.60886
 30
0.0
 11
214.31367
 21
161.60886
 31
0.0
  0
LINE
  5
20B
330
1F
100
AcDbEntity
  8
SLD-0
  6
HIDDEN
 62
   179
100
AcDbLine
 10
211.31367
 20
161.60886
 30
0.0
 11
211.31367
 21
126.60886
 31
0.0
  0
LINE
  5
20C
330
1F
100
AcDbEntity
  8
SLD-0
  6
HIDDEN
 62
   179
100
AcDbLine
 10
208.31367
 20
126.60886
 30
0.0
 11
208.31367
 21
161.60886
 31
0.0
  0
LINE
  5
20D
330
1F
100
AcDbEntity
  8
SLD-0
  6
HIDDEN
 62
   179
100
AcDbLine
 10
206.81367
 20
161.60886
 30
0.0
 11
206.81367
 21
126.60886
 31
0.0
  0
LINE
  5
20E
330
1F
100
AcDbEntity
  8
SLD-0
  6
HIDDEN
 62
   179
100
AcDbLine
 10
206.81367
 20
125.10886
 30
0.0
 11
206.81367
 21
112.60886
 31
0.0
  0
LINE
  5
20F
330
1F
100
AcDbEntity
  8
SLD-0
  6
HIDDEN
 62
   179
100
AcDbLine
 10
207.08717
 20
112.60886
 30
0.0
 11
207.08717
 21
108.608856
 31
0.0
  0
LINE
  5
210
330
1F
100
AcDbEntity
  8
SLD-0
  6
HIDDEN
 62
   179
100
AcDbLine
 10
204.20042
 20
108.608856
 30
0.0
 11
204.20042
 21
112.60886
 31
0.0
  0
LINE
  5
211
330
1F
100
AcDbEntity
  8
SLD-0
  6
HIDDEN
 62
   179
100
AcDbLine
 10
207.08717
 20
112.60886
 30
0.0
 11
195.54018
 21
112.60886
 31
0.0
  0
LINE
  5
212
330
1F
100
AcDbEntity
  8
SLD-0
  6
HIDDEN
 62
   179
100
AcDbLine
 10
195.54018
 20
112.60886
 30
0.0
 11
195.54018
 21
108.608856
 31
0.0
  0
LINE
  5
213
330
1F
100
AcDbEntity
  8
SLD-0
  6
HIDDEN
 62
   179
100
AcDbLine
 10
198.42693
 20
108.608856
 30
0.0
 11
198.42693
 21
112.60886
 31
0.0
  0
LINE
  5
214
330
1F
100
AcDbEntity
  8
SLD-0
  6
HIDDEN
 62
   179
100
AcDbLine
 10
204.31367
 20
107.608856
 30
0.0
 11
204.31367
 21
105.108856
 31
0.0
  0
LINE
  5
215
330
1F
100
AcDbEntity
  8
SLD-0
  6
HIDDEN
 62
   179
100
AcDbLine
 10
205.6438
 20
107.608856
 30
0.0
 11
196.98355
 21
107.608856
 31
0.0
  0
LINE
  5
216
330
1F
100
AcDbEntity
  8
SLD-0
  6
HIDDEN
 62
   179
100
AcDbLine
 10
198.31367
 20
107.608856
 30
0.0
 11
198.31367
 21
105.108856
 31
0.0
  0
LINE
  5
217
330
1F
100
AcDbEntity
  8
SLD-0
  6
HIDDEN
 62
   179
100
AcDbLine
 10
209.31367
 20
105.108856
 30
0.0
 11
193.31367
 21
105.108856
 31
0.0
  0
LINE
  5
218
330
1F
100
AcDbEntity
  8
SLD-0
  6
HIDDEN
 62
   179
100
AcDbLine
 10
193.31367
 20
105.108856
 30
0.0
 11
193.31367
 21
100.108856
 31
0.0
  0
LINE
  5
219
330
1F
100
AcDbEntity
  8
SLD-0
  6
HIDDEN
 62
   179
100
AcDbLine
 10
193.31367
 20
100.108856
 30
0.0
 11
209.31367
 21
100.108856
 31
0.0
  0
LINE
  5
21A
330
1F
100
AcDbEntity
  8
SLD-0
  6
HIDDEN
 62
   179
100
AcDbLine
 10
209.31367
 20
100.108856
 30
0.0
 11
209.31367
 21
105.108856
 31
0.0
  0
LINE
  5
21B
330
1F
100
AcDbEntity
  8
SLD-0
  6
HIDDEN
 62
   179
100
AcDbLine
 10
208.31367
 20
100.108856
 30
0.0
 11
208.31367
 21
90.236717
 31
0.0
  0
LINE
  5
21C
330
1F
100
AcDbEntity
  8
SLD-0
  6
HIDDEN
 62
   179
100
AcDbLine
 10
208.31367
 20
90.236717
 30
0.0
 11
194.31367
 21
90.236717
 31
0.0
  0
LINE
  5
21D
330
1F
100
AcDbEntity
  8
SLD-0
  6
HIDDEN
 62
   179
100
AcDbLine
 10
194.31367
 20
90.236717
 30
0.0
 11
194.31367
 21
100.108856
 31
0.0
  0
LINE
  5
21E
330
1F
100
AcDbEntity
  8
SLD-0
  6
CENTER
 62
   179
100
AcDbLine
 10
189.16499
 20
98.108856
 30
0.0
 11
176.72212
 21
98.108856
 31
0.0
  0
LINE
  5
21F
330
1F
100
AcDbEntity
  8
SLD-0
  6
CENTER
 62
   179
100
AcDbLine
 10
182.81367
 20
92.530029
 30
0.0
 11
182.81367
 21
113.45667
 31
0.0
  0
LINE
  5
220
330
1F
100
AcDbEntity
  8
SLD-0
  6
CENTER
 62
   179
100
AcDbLine
 10
176.72212
 20
108.108856
 30
0.0
 11
189.73058
 21
108.108856
 31
0.0
  0
LINE
  5
221
330
1F
100
AcDbEntity
  8
SLD-0
  6
HIDDEN
 62
   179
100
AcDbLine
 10
195.81367
 20
112.60886
 30
0.0
 11
195.81367
 21
125.10886
 31
0.0
  0
LINE
  5
222
330
1F
100
AcDbEntity
  8
SLD-0
  6
HIDDEN
 62
   179
100
AcDbLine
 10
195.81367
 20
126.60886
 30
0.0
 11
195.81367
 21
161.60886
 31
0.0
  0
LINE
  5
223
330
1F
100
AcDbEntity
  8
SLD-0
  6
HIDDEN
 62
   179
100
AcDbLine
 10
194.31367
 20
161.60886
 30
0.0
 11
194.31367
 21
126.60886
 31
0.0
  0
LINE
  5
224
330
1F
100
AcDbEntity
  8
SLD-0
  6
HIDDEN
 62
   179
100
AcDbLine
 10
191.31367
 20
126.60886
 30
0.0
 11
191.31367
 21
161.60886
 31
0.0
  0
LINE
  5
225
330
1F
100
AcDbEntity
  8
SLD-0
  6
CENTER
 62
   179
100
AcDbLine
 10
188.81367
 20
169.01086
 30
0.0
 11
188.81367
 21
120.34113
 31
0.0
  0
LINE
  5
226
330
1F
100
AcDbEntity
  8
SLD-0
  6
CENTER
 62
   179
100
AcDbLine
 10
184.34734
 20
124.10886
 30
0.0
 11
156.50458
 21
124.10886
 31
0.0
  0
LINE
  5
227
330
1F
100
AcDbEntity
  8
SLD-0
  6
HIDDEN
 62
   179
100
AcDbLine
 10
166.71368
 20
125.91604
 30
0.0
 11
166.71368
 21
119.10886
 31
0.0
  0
LINE
  5
228
330
1F
100
AcDbEntity
  8
SLD-0
  6
PHANTOM
 62
   179
100
AcDbLine
 10
166.71368
 20
95.608856
 30
0.0
 11
167.26367
 21
95.608856
 31
0.0
  0
LINE
  5
229
330
1F
100
AcDbEntity
  8
SLD-0
  6
PHANTOM
 62
   179
100
AcDbLine
 10
167.26367
 20
95.608856
 30
0.0
 11
167.26367
 21
45.108856
 31
0.0
  0
LINE
  5
22A
330
1F
100
AcDbEntity
  8
SLD-0
  6
PHANTOM
 62
   179
100
AcDbLine
 10
167.26367
 20
45.108856
 30
0.0
 11
168.91368
 21
45.108856
 31
0.0
  0
LINE
  5
22B
330
1F
100
AcDbEntity
  8
SLD-0
  6
PHANTOM
 62
   179
100
AcDbLine
 10
168.91368
 20
45.108856
 30
0.0
 11
168.91368
 21
42.608854
 31
0.0
  0
LINE
  5
22C
330
1F
100
AcDbEntity
  8
SLD-0
  6
PHANTOM
 62
   179
100
AcDbLine
 10
168.91368
 20
42.608854
 30
0.0
 11
175.81367
 21
42.608854
 31
0.0
  0
LINE
  5
22D
330
1F
100
AcDbEntity
  8
SLD-0
  6
PHANTOM
 62
   179
100
AcDbLine
 10
175.81367
 20
42.608854
 30
0.0
 11
175.81367
 21
119.10886
 31
0.0
  0
LINE
  5
22E
330
1F
100
AcDbEntity
  8
SLD-0
  6
HIDDEN
 62
   179
100
AcDbLine
 10
175.81367
 20
147.60886
 30
0.0
 11
169.41368
 21
147.60886
 31
0.0
  0
LINE
  5
22F
330
1F
100
AcDbEntity
  8
SLD-0
  6
HIDDEN
 62
   179
100
AcDbLine
 10
169.41368
 20
147.60886
 30
0.0
 11
169.41368
 21
133.10886
 31
0.0
  0
LINE
  5
230
330
1F
100
AcDbEntity
  8
SLD-0
  6
HIDDEN
 62
   179
100
AcDbLine
 10
169.41368
 20
133.10886
 30
0.0
 11
168.41368
 21
133.10886
 31
0.0
  0
LINE
  5
231
330
1F
100
AcDbEntity
  8
SLD-0
  6
HIDDEN
 62
   179
100
AcDbLine
 10
168.41368
 20
133.10886
 30
0.0
 11
168.41368
 21
126.89753
 31
0.0
  0
LINE
  5
232
330
1F
100
AcDbEntity
  8
SLD-0
  6
HIDDEN
 62
   179
100
AcDbLine
 10
168.41368
 20
126.89753
 30
0.0
 11
166.71368
 21
125.91604
 31
0.0
  0
LINE
  5
233
330
1F
100
AcDbEntity
  8
SLD-0
  6
HIDDEN
 62
   179
100
AcDbLine
 10
167.21368
 20
125.62736
 30
0.0
 11
167.21368
 21
119.10886
 31
0.0
  0
LINE
  5
234
330
1F
100
AcDbEntity
  8
SLD-0
  6
HIDDEN
 62
   179
100
AcDbLine
 10
166.31367
 20
119.10886
 30
0.0
 11
166.31367
 21
149.10886
 31
0.0
  0
LINE
  5
235
330
1F
100
AcDbEntity
  8
SLD-0
  6
HIDDEN
 62
   179
100
AcDbLine
 10
166.6797
 20
149.10886
 30
0.0
 11
169.2438
 21
144.66771
 31
0.0
  0
LINE
  5
236
330
1F
100
AcDbEntity
  8
SLD-0
  6
HIDDEN
 62
   179
100
AcDbLine
 10
169.91368
 20
142.16769
 30
0.0
 11
169.91368
 21
132.60886
 31
0.0
  0
LINE
  5
237
330
1F
100
AcDbEntity
  8
SLD-0
  6
HIDDEN
 62
   179
100
AcDbLine
 10
170.91368
 20
132.60886
 30
0.0
 11
170.91368
 21
142.16769
 31
0.0
  0
LINE
  5
238
330
1F
100
AcDbEntity
  8
SLD-0
  6
HIDDEN
 62
   179
100
AcDbLine
 10
170.10984
 20
145.1677
 30
0.0
 11
167.8344
 21
149.10886
 31
0.0
  0
LINE
  5
239
330
1F
100
AcDbEntity
  8
SLD-0
  6
HIDDEN
 62
   179
100
AcDbLine
 10
170.36235
 20
149.12101
 30
0.0
 11
173.27294
 21
138.25854
 31
0.0
  0
LINE
  5
23A
330
1F
100
AcDbEntity
  8
SLD-0
  6
HIDDEN
 62
   179
100
AcDbLine
 10
173.61368
 20
135.67034
 30
0.0
 11
173.61368
 21
119.10886
 31
0.0
  0
LINE
  5
23B
330
1F
100
AcDbEntity
  8
SLD-0
  6
HIDDEN
 62
   179
100
AcDbLine
 10
175.31367
 20
119.10886
 30
0.0
 11
175.31367
 21
135.67034
 31
0.0
  0
LINE
  5
23C
330
1F
100
AcDbEntity
  8
SLD-0
  6
HIDDEN
 62
   179
100
AcDbLine
 10
174.91501
 20
138.69853
 30
0.0
 11
172.12556
 21
149.10885
 31
0.0
  0
LINE
  5
23D
330
1F
100
AcDbEntity
  8
SLD-0
  6
CENTER
 62
   179
100
AcDbLine
 10
170.81367
 20
150.72076
 30
0.0
 11
170.81367
 21
167.60886
 31
0.0
  0
LINE
  5
23E
330
1F
100
AcDbEntity
  8
SLD-0
  6
CENTER
 62
   179
100
AcDbLine
 10
170.81367
 20
167.60886
 30
0.0
 11
204.04927
 21
167.60886
 31
0.0
  0
LINE
  5
23F
330
1F
100
AcDbEntity
  8
SLD-0
  6
HIDDEN
 62
   179
100
AcDbLine
 10
201.81367
 20
170.75885
 30
0.0
 11
201.81367
 21
164.45886
 31
0.0
  0
LINE
  5
240
330
1F
100
AcDbEntity
  8
SLD-0
  6
HIDDEN
 62
   179
100
AcDbLine
 10
201.81367
 20
164.45886
 30
0.0
 11
176.81367
 21
164.45886
 31
0.0
  0
LINE
  5
241
330
1F
100
AcDbEntity
  8
SLD-0
  6
HIDDEN
 62
   179
100
AcDbLine
 10
176.81367
 20
168.10886
 30
0.0
 11
176.81367
 21
169.10886
 31
0.0
  0
LINE
  5
242
330
1F
100
AcDbEntity
  8
SLD-0
  6
HIDDEN
 62
   179
100
AcDbLine
 10
176.81367
 20
170.75885
 30
0.0
 11
201.81367
 21
170.75885
 31
0.0
  0
LINE
  5
243
330
1F
100
AcDbEntity
  8
SLD-0
  6
CENTER
 62
   179
100
AcDbLine
 10
213.31367
 20
181.61797
 30
0.0
 11
213.31367
 21
217.17902
 31
0.0
  0
LINE
  5
244
330
1F
100
AcDbEntity
  8
SLD-0
  6
HIDDEN
 62
   179
100
AcDbLine
 10
215.31367
 20
211.60886
 30
0.0
 11
215.31367
 21
193.60886
 31
0.0
  0
LINE
  5
245
330
1F
100
AcDbEntity
  8
SLD-0
  6
Continuous
 62
   179
100
AcDbLine
 10
215.31367
 20
193.60886
 30
0.0
 11
215.31367
 21
185.10886
 31
0.0
  0
LINE
  5
246
330
1F
100
AcDbEntity
  8
SLD-0
  6
Continuous
 62
   179
100
AcDbLine
 10
215.31367
 20
184.60886
 30
0.0
 11
215.81367
 21
185.10886
 31
0.0
  0
LINE
  5
247
330
1F
100
AcDbEntity
  8
SLD-0
  6
Continuous
 62
   179
100
AcDbLine
 10
215.81367
 20
185.10886
 30
0.0
 11
210.81367
 21
185.10886
 31
0.0
  0
LINE
  5
248
330
1F
100
AcDbEntity
  8
SLD-0
  6
Continuous
 62
   179
100
AcDbLine
 10
210.81367
 20
185.10886
 30
0.0
 11
211.31368
 21
184.60885
 31
0.0
  0
LINE
  5
249
330
1F
100
AcDbEntity
  8
SLD-0
  6
Continuous
 62
   179
100
AcDbLine
 10
211.31367
 20
185.10886
 30
0.0
 11
211.31367
 21
194.60886
 31
0.0
  0
LINE
  5
24A
330
1F
100
AcDbEntity
  8
SLD-0
  6
HIDDEN
 62
   179
100
AcDbLine
 10
211.31367
 20
194.60886
 30
0.0
 11
211.31367
 21
211.60886
 31
0.0
  0
LINE
  5
24B
330
1F
100
AcDbEntity
  8
SLD-0
  6
HIDDEN
 62
   179
100
AcDbLine
 10
210.81367
 20
211.60886
 30
0.0
 11
210.81367
 21
194.60886
 31
0.0
  0
LINE
  5
24C
330
1F
100
AcDbEntity
  8
SLD-0
  6
HIDDEN
 62
   179
100
AcDbLine
 10
215.81367
 20
193.17957
 30
0.0
 11
215.81367
 21
211.60886
 31
0.0
  0
LINE
  5
24D
330
1F
100
AcDbEntity
  8
SLD-0
  6
HIDDEN
 62
   179
100
AcDbLine
 10
215.31367
 20
206.60886
 30
0.0
 11
211.31367
 21
206.60886
 31
0.0
  0
LINE
  5
24E
330
1F
100
AcDbEntity
  8
SLD-0
  6
HIDDEN
 62
   179
100
AcDbLine
 10
211.31367
 20
206.60886
 30
0.0
 11
210.81367
 21
206.10886
 31
0.0
  0
LINE
  5
24F
330
1F
100
AcDbEntity
  8
SLD-0
  6
HIDDEN
 62
   179
100
AcDbLine
 10
215.31367
 20
206.60886
 30
0.0
 11
215.81369
 21
206.10885
 31
0.0
  0
LINE
  5
250
330
1F
100
AcDbEntity
  8
SLD-0
  6
HIDDEN
 62
   179
100
AcDbLine
 10
215.81367
 20
203.60886
 30
0.0
 11
229.31367
 21
203.60886
 31
0.0
  0
LINE
  5
251
330
1F
100
AcDbEntity
  8
SLD-0
  6
HIDDEN
 62
   179
100
AcDbLine
 10
229.31367
 20
203.25885
 30
0.0
 11
215.81367
 21
203.25885
 31
0.0
  0
LINE
  5
252
330
1F
100
AcDbEntity
  8
SLD-0
  6
CENTER
 62
   179
100
AcDbLine
 10
214.24014
 20
201.60886
 30
0.0
 11
232.19366
 21
201.60886
 31
0.0
  0
LINE
  5
253
330
1F
100
AcDbEntity
  8
SLD-0
  6
HIDDEN
 62
   179
100
AcDbLine
 10
229.31367
 20
199.95886
 30
0.0
 11
215.81367
 21
199.95886
 31
0.0
  0
LINE
  5
254
330
1F
100
AcDbEntity
  8
SLD-0
  6
HIDDEN
 62
   179
100
AcDbLine
 10
215.81367
 20
199.60886
 30
0.0
 11
229.31367
 21
199.60886
 31
0.0
  0
LINE
  5
255
330
1F
100
AcDbEntity
  8
SLD-0
  6
HIDDEN
 62
   179
100
AcDbLine
 10
226.81368
 20
199.95886
 30
0.0
 11
226.61161
 21
199.60885
 31
0.0
  0
LINE
  5
256
330
1F
100
AcDbEntity
  8
SLD-0
  6
HIDDEN
 62
   179
100
AcDbLine
 10
226.81367
 20
199.95886
 30
0.0
 11
226.81367
 21
203.25885
 31
0.0
  0
LINE
  5
257
330
1F
100
AcDbEntity
  8
SLD-0
  6
HIDDEN
 62
   179
100
AcDbLine
 10
226.81367
 20
203.25886
 30
0.0
 11
226.6116
 21
203.60886
 31
0.0
  0
LINE
  5
258
330
1F
100
AcDbEntity
  8
SLD-0
  6
HIDDEN
 62
   179
100
AcDbLine
 10
219.01575
 20
203.60886
 30
0.0
 11
218.81368
 21
203.25886
 31
0.0
  0
LINE
  5
259
330
1F
100
AcDbEntity
  8
SLD-0
  6
HIDDEN
 62
   179
100
AcDbLine
 10
218.81367
 20
203.25885
 30
0.0
 11
218.81367
 21
199.95886
 31
0.0
  0
LINE
  5
25A
330
1F
100
AcDbEntity
  8
SLD-0
  6
HIDDEN
 62
   179
100
AcDbLine
 10
218.81367
 20
199.95886
 30
0.0
 11
219.01574
 21
199.60885
 31
0.0
  0
LINE
  5
25B
330
1F
100
AcDbEntity
  8
SLD-0
  6
Continuous
 62
   179
100
AcDbLine
 10
216.89626
 20
191.60886
 30
0.0
 11
229.31367
 21
191.60886
 31
0.0
  0
LINE
  5
25C
330
1F
100
AcDbEntity
  8
SLD-0
  6
CENTER
 62
   179
100
AcDbLine
 10
235.81367
 20
168.54587
 30
0.0
 11
235.81367
 21
120.49613
 31
0.0
  0
LINE
  5
25D
330
1F
100
AcDbEntity
  8
SLD-0
  6
HIDDEN
 62
   179
100
AcDbLine
 10
232.31367
 20
126.60886
 30
0.0
 11
232.31367
 21
161.60886
 31
0.0
  0
LINE
  5
25E
330
1F
100
AcDbEntity
  8
SLD-0
  6
HIDDEN
 62
   179
100
AcDbLine
 10
229.31367
 20
161.60886
 30
0.0
 11
229.31367
 21
126.60886
 31
0.0
  0
LINE
  5
25F
330
1F
100
AcDbEntity
  8
SLD-0
  6
CENTER
 62
   179
100
AcDbLine
 10
230.50168
 20
130.60886
 30
0.0
 11
218.33459
 21
130.60886
 31
0.0
  0
LINE
  5
260
330
1F
100
AcDbEntity
  8
SLD-0
  6
CENTER
 62
   179
100
AcDbLine
 10
223.31367
 20
126.74268
 30
0.0
 11
223.31367
 21
162.86653
 31
0.0
  0
LINE
  5
261
330
1F
100
AcDbEntity
  8
SLD-0
  6
CENTER
 62
   179
100
AcDbLine
 10
218.33459
 20
157.60886
 30
0.0
 11
230.50168
 21
157.60886
 31
0.0
  0
LINE
  5
262
330
1F
100
AcDbEntity
  8
SLD-0
  6
HIDDEN
 62
   179
100
AcDbLine
 10
299.00739
 20
163.60886
 30
0.0
 11
307.007393
 21
163.60886
 31
0.0
  0
LINE
  5
263
330
1F
100
AcDbEntity
  8
SLD-0
  6
HIDDEN
 62
   179
100
AcDbLine
 10
307.007393
 20
162.80885
 30
0.0
 11
307.007393
 21
112.60886
 31
0.0
  0
LINE
  5
264
330
1F
100
AcDbEntity
  8
SLD-0
  6
HIDDEN
 62
   179
100
AcDbLine
 10
308.007393
 20
112.60886
 30
0.0
 11
298.00739
 21
112.60886
 31
0.0
  0
LINE
  5
265
330
1F
100
AcDbEntity
  8
SLD-0
  6
HIDDEN
 62
   179
100
AcDbLine
 10
298.00739
 20
112.60886
 30
0.0
 11
298.00739
 21
107.608856
 31
0.0
  0
LINE
  5
266
330
1F
100
AcDbEntity
  8
SLD-0
  6
HIDDEN
 62
   179
100
AcDbLine
 10
298.00739
 20
107.608856
 30
0.0
 11
308.007393
 21
107.608856
 31
0.0
  0
LINE
  5
267
330
1F
100
AcDbEntity
  8
SLD-0
  6
HIDDEN
 62
   179
100
AcDbLine
 10
308.007393
 20
107.608856
 30
0.0
 11
308.007393
 21
112.60886
 31
0.0
  0
LINE
  5
268
330
1F
100
AcDbEntity
  8
SLD-0
  6
HIDDEN
 62
   179
100
AcDbLine
 10
300.00739
 20
107.608856
 30
0.0
 11
300.00739
 21
105.108856
 31
0.0
  0
LINE
  5
269
330
1F
100
AcDbEntity
  8
SLD-0
  6
HIDDEN
 62
   179
100
AcDbLine
 10
295.00739
 20
105.108856
 30
0.0
 11
295.00739
 21
100.108856
 31
0.0
  0
LINE
  5
26A
330
1F
100
AcDbEntity
  8
SLD-0
  6
HIDDEN
 62
   179
100
AcDbLine
 10
295.00739
 20
100.108856
 30
0.0
 11
311.007393
 21
100.108856
 31
0.0
  0
LINE
  5
26B
330
1F
100
AcDbEntity
  8
SLD-0
  6
HIDDEN
 62
   179
100
AcDbLine
 10
311.007393
 20
100.108856
 30
0.0
 11
311.007393
 21
105.108856
 31
0.0
  0
LINE
  5
26C
330
1F
100
AcDbEntity
  8
SLD-0
  6
HIDDEN
 62
   179
100
AcDbLine
 10
311.007393
 20
105.108856
 30
0.0
 11
295.00739
 21
105.108856
 31
0.0
  0
LINE
  5
26D
330
1F
100
AcDbEntity
  8
SLD-0
  6
HIDDEN
 62
   179
100
AcDbLine
 10
296.00739
 20
100.108856
 30
0.0
 11
296.00739
 21
90.236717
 31
0.0
  0
LINE
  5
26E
330
1F
100
AcDbEntity
  8
SLD-0
  6
HIDDEN
 62
   179
100
AcDbLine
 10
296.00739
 20
90.236717
 30
0.0
 11
310.007393
 21
90.236717
 31
0.0
  0
LINE
  5
26F
330
1F
100
AcDbEntity
  8
SLD-0
  6
HIDDEN
 62
   179
100
AcDbLine
 10
310.007393
 20
90.236717
 30
0.0
 11
310.007393
 21
100.108856
 31
0.0
  0
LINE
  5
270
330
1F
100
AcDbEntity
  8
SLD-0
  6
HIDDEN
 62
   179
100
AcDbLine
 10
306.007393
 20
105.108856
 30
0.0
 11
306.007393
 21
107.608856
 31
0.0
  0
LINE
  5
271
330
1F
100
AcDbEntity
  8
SLD-0
  6
CENTER
 62
   179
100
AcDbLine
 10
303.007393
 20
108.608856
 30
0.0
 11
303.007393
 21
90.236717
 31
0.0
  0
LINE
  5
272
330
1F
100
AcDbEntity
  8
SLD-0
  6
HIDDEN
 62
   179
100
AcDbLine
 10
303.007393
 20
90.236717
 30
0.0
 11
303.007393
 21
86.236717
 31
0.0
  0
LINE
  5
273
330
1F
100
AcDbEntity
  8
SLD-0
  6
HIDDEN
 62
   179
100
AcDbLine
 10
298.00739
 20
85.236717
 30
0.0
 11
308.007393
 21
85.236717
 31
0.0
  0
LINE
  5
274
330
1F
100
AcDbEntity
  8
SLD-0
  6
CENTER
 62
   179
100
AcDbLine
 10
303.007393
 20
86.236717
 30
0.0
 11
303.007393
 21
85.236717
 31
0.0
  0
LINE
  5
275
330
1F
100
AcDbEntity
  8
SLD-0
  6
HIDDEN
 62
   179
100
AcDbLine
 10
303.007393
 20
85.236717
 30
0.0
 11
303.007393
 21
81.236717
 31
0.0
  0
LINE
  5
276
330
1F
100
AcDbEntity
  8
SLD-0
  6
HIDDEN
 62
   179
100
AcDbLine
 10
298.00739
 20
80.236717
 30
0.0
 11
308.007393
 21
80.236717
 31
0.0
  0
LINE
  5
277
330
1F
100
AcDbEntity
  8
SLD-0
  6
HIDDEN
 62
   179
100
AcDbLine
 10
308.007393
 20
80.236717
 30
0.0
 11
308.007393
 21
90.236717
 31
0.0
  0
LINE
  5
278
330
1F
100
AcDbEntity
  8
SLD-0
  6
HIDDEN
 62
   179
100
AcDbLine
 10
303.007393
 20
108.608856
 30
0.0
 11
303.007393
 21
112.60886
 31
0.0
  0
LINE
  5
279
330
1F
100
AcDbEntity
  8
SLD-0
  6
CENTER
 62
   179
100
AcDbLine
 10
303.007393
 20
112.60886
 30
0.0
 11
303.007393
 21
215.82907
 31
0.0
  0
LINE
  5
27A
330
1F
100
AcDbEntity
  8
SLD-0
  6
CENTER
 62
   179
100
AcDbLine
 10
306.634819
 20
201.60886
 30
0.0
 11
299.72282
 21
201.60886
 31
0.0
  0
LINE
  5
27B
330
1F
100
AcDbEntity
  8
SLD-0
  6
HIDDEN
 62
   179
100
AcDbLine
 10
299.00739
 20
194.60886
 30
0.0
 11
305.007393
 21
194.60886
 31
0.0
  0
LINE
  5
27C
330
1F
100
AcDbEntity
  8
SLD-0
  6
HIDDEN
 62
   179
100
AcDbLine
 10
305.007396
 20
194.60885
 30
0.0
 11
299.00739
 21
208.74397
 31
0.0
  0
LINE
  5
27D
330
1F
100
AcDbEntity
  8
SLD-0
  6
HIDDEN
 62
   179
100
AcDbLine
 10
307.007388
 20
186.60886
 30
0.0
 11
305.943971
 21
184.60886
 31
0.0
  0
LINE
  5
27E
330
1F
100
AcDbEntity
  8
SLD-0
  6
HIDDEN
 62
   179
100
AcDbLine
 10
305.943973
 20
184.60885
 30
0.0
 11
302.543757
 21
175.26683
 31
0.0
  0
LINE
  5
27F
330
1F
100
AcDbEntity
  8
SLD-0
  6
HIDDEN
 62
   179
100
AcDbLine
 10
307.007393
 20
174.60886
 30
0.0
 11
300.62688
 21
174.60886
 31
0.0
  0
LINE
  5
280
330
1F
100
AcDbEntity
  8
SLD-0
  6
HIDDEN
 62
   179
100
AcDbLine
 10
300.62688
 20
174.60885
 30
0.0
 11
299.0074
 21
171.56304
 31
0.0
  0
LINE
  5
281
330
1F
100
AcDbEntity
  8
SLD-0
  6
CENTER
 62
   179
100
AcDbLine
 10
300.26772
 20
168.60886
 30
0.0
 11
307.007393
 21
168.60886
 31
0.0
  0
LINE
  5
282
330
1F
100
AcDbEntity
  8
SLD-0
  6
CENTER
 62
   179
100
AcDbLine
 10
309.129387
 20
167.60886
 30
0.0
 11
296.16499
 21
167.60886
 31
0.0
  0
LINE
  5
283
330
1F
100
AcDbEntity
  8
SLD-0
  6
CENTER
 62
   179
100
AcDbLine
 10
235.81367
 20
235.59828
 30
0.0
 11
235.81367
 21
242.14847
 31
0.0
  0
LINE
  5
284
330
1F
100
AcDbEntity
  8
SLD-0
  6
CENTER
 62
   179
100
AcDbLine
 10
219.93311
 20
251.746
 30
0.0
 11
174.9317
 21
251.746
 31
0.0
  0
LINE
  5
285
330
1F
100
AcDbEntity
  8
SLD-0
  6
CENTER
 62
   179
100
AcDbLine
 10
179.81367
 20
256.43721
 30
0.0
 11
179.81367
 21
246.30247
 31
0.0
  0
LINE
  5
286
330
1F
100
AcDbEntity
  8
SLD-0
  6
CENTER
 62
   179
100
AcDbLine
 10
185.81367
 20
246.60251
 30
0.0
 11
185.81367
 21
256.40387
 31
0.0
  0
LINE
  5
287
330
1F
100
AcDbEntity
  8
SLD-0
  6
HIDDEN
 62
   179
100
AcDbLine
 10
188.31367
 20
257.45956
 30
0.0
 11
208.31367
 21
257.45956
 31
0.0
  0
LINE
  5
288
330
1F
100
AcDbEntity
  8
SLD-0
  6
CENTER
 62
   179
100
AcDbLine
 10
213.31367
 20
256.60771
 30
0.0
 11
213.31367
 21
246.67
 31
0.0
  0
LINE
  5
289
330
1F
100
AcDbEntity
  8
SLD-0
  6
CENTER
 62
   179
100
AcDbLine
 10
201.31367
 20
240.746
 30
0.0
 11
201.31367
 21
273.86609
 31
0.0
  0
LINE
  5
28A
330
1F
100
AcDbEntity
  8
SLD-0
  6
CENTER
 62
   179
100
AcDbLine
 10
201.31367
 20
238.59161
 30
0.0
 11
201.31367
 21
228.63914
 31
0.0
  0
LINE
  5
28B
330
1F
100
AcDbEntity
  8
SLD-0
  6
CENTER
 62
   179
100
AcDbLine
 10
201.31367
 20
217.58347
 30
0.0
 11
201.31367
 21
30.931559
 31
0.0
  0
LINE
  5
28C
330
1F
100
AcDbEntity
  8
SLD-0
  6
CENTER
 62
   179
100
AcDbLine
 10
207.48083
 20
43.608856
 30
0.0
 11
195.2435
 21
43.608856
 31
0.0
  0
LINE
  5
28D
330
1F
100
AcDbEntity
  8
SLD-0
  6
CENTER
 62
   179
100
AcDbLine
 10
195.15762
 20
59.608856
 30
0.0
 11
207.4379
 21
59.608856
 31
0.0
  0
LINE
  5
28E
330
1F
100
AcDbEntity
  8
SLD-0
  6
HIDDEN
 62
   179
100
AcDbLine
 10
207.31367
 20
70.608856
 30
0.0
 11
207.31367
 21
75.608856
 31
0.0
  0
LINE
  5
28F
330
1F
100
AcDbEntity
  8
SLD-0
  6
HIDDEN
 62
   179
100
AcDbLine
 10
207.31367
 20
75.608856
 30
0.0
 11
195.31367
 21
75.608856
 31
0.0
  0
LINE
  5
290
330
1F
100
AcDbEntity
  8
SLD-0
  6
HIDDEN
 62
   179
100
AcDbLine
 10
195.31367
 20
75.608856
 30
0.0
 11
195.31367
 21
70.608856
 31
0.0
  0
LINE
  5
291
330
1F
100
AcDbEntity
  8
SLD-0
  6
HIDDEN
 62
   179
100
AcDbLine
 10
194.81367
 20
70.608856
 30
0.0
 11
194.81367
 21
78.608856
 31
0.0
  0
LINE
  5
292
330
1F
100
AcDbEntity
  8
SLD-0
  6
HIDDEN
 62
   179
100
AcDbLine
 10
198.42693
 20
81.236717
 30
0.0
 11
198.42693
 21
85.236717
 31
0.0
  0
LINE
  5
293
330
1F
100
AcDbEntity
  8
SLD-0
  6
HIDDEN
 62
   179
100
AcDbLine
 10
195.54018
 20
86.236717
 30
0.0
 11
195.54018
 21
90.236717
 31
0.0
  0
LINE
  5
294
330
1F
100
AcDbEntity
  8
SLD-0
  6
HIDDEN
 62
   179
100
AcDbLine
 10
195.54018
 20
85.236717
 30
0.0
 11
207.08717
 21
85.236717
 31
0.0
  0
LINE
  5
295
330
1F
100
AcDbEntity
  8
SLD-0
  6
HIDDEN
 62
   179
100
AcDbLine
 10
207.08717
 20
85.236717
 30
0.0
 11
207.08717
 21
81.236717
 31
0.0
  0
LINE
  5
296
330
1F
100
AcDbEntity
  8
SLD-0
  6
HIDDEN
 62
   179
100
AcDbLine
 10
204.20042
 20
81.236717
 30
0.0
 11
204.20042
 21
85.236717
 31
0.0
  0
LINE
  5
297
330
1F
100
AcDbEntity
  8
SLD-0
  6
HIDDEN
 62
   179
100
AcDbLine
 10
198.42693
 20
86.236717
 30
0.0
 11
198.42693
 21
90.236717
 31
0.0
  0
LINE
  5
298
330
1F
100
AcDbEntity
  8
SLD-0
  6
HIDDEN
 62
   179
100
AcDbLine
 10
204.20042
 20
90.236717
 30
0.0
 11
204.20042
 21
86.236717
 31
0.0
  0
LINE
  5
299
330
1F
100
AcDbEntity
  8
SLD-0
  6
HIDDEN
 62
   179
100
AcDbLine
 10
207.08717
 20
86.236717
 30
0.0
 11
207.08717
 21
90.236717
 31
0.0
  0
LINE
  5
29A
330
1F
100
AcDbEntity
  8
SLD-0
  6
CENTER
 62
   179
100
AcDbLine
 10
211.47749
 20
88.608856
 30
0.0
 11
227.24805
 21
88.608856
 31
0.0
  0
LINE
  5
29B
330
1F
100
AcDbEntity
  8
SLD-0
  6
CENTER
 62
   179
100
AcDbLine
 10
219.31367
 20
93.455521
 30
0.0
 11
219.31367
 21
82.941826
 31
0.0
  0
LINE
  5
29C
330
1F
100
AcDbEntity
  8
SLD-0
  6
CENTER
 62
   179
100
AcDbLine
 10
219.31367
 20
112.02972
 30
0.0
 11
219.31367
 21
119.38931
 31
0.0
  0
LINE
  5
29D
330
1F
100
AcDbEntity
  8
SLD-0
  6
CENTER
 62
   179
100
AcDbLine
 10
211.47749
 20
115.60886
 30
0.0
 11
227.24805
 21
115.60886
 31
0.0
  0
LINE
  5
29E
330
1F
100
AcDbEntity
  8
SLD-0
  6
CENTER
 62
   179
100
AcDbLine
 10
231.25597
 20
136.60886
 30
0.0
 11
242.82446
 21
136.60886
 31
0.0
  0
LINE
  5
29F
330
1F
100
AcDbEntity
  8
SLD-0
  6
CENTER
 62
   179
100
AcDbLine
 10
241.03596
 20
144.10886
 30
0.0
 11
156.50458
 21
144.10886
 31
0.0
  0
LINE
  5
2A0
330
1F
100
AcDbEntity
  8
SLD-0
  6
CENTER
 62
   179
100
AcDbLine
 10
165.31368
 20
152.47488
 30
0.0
 11
170.41368
 21
143.64142
 31
0.0
  0
LINE
  5
2A1
330
1F
100
AcDbEntity
  8
SLD-0
  6
CENTER
 62
   179
100
AcDbLine
 10
170.41368
 20
143.64142
 30
0.0
 11
170.41368
 21
33.479422
 31
0.0
  0
LINE
  5
2A2
330
1F
100
AcDbEntity
  8
SLD-0
  6
CENTER
 62
   179
100
AcDbLine
 10
174.46368
 20
34.231552
 30
0.0
 11
174.46368
 21
137.09878
 31
0.0
  0
LINE
  5
2A3
330
1F
100
AcDbEntity
  8
SLD-0
  6
CENTER
 62
   179
100
AcDbLine
 10
174.46367
 20
137.09878
 30
0.0
 11
170.81367
 21
150.72076
 31
0.0
  0
LINE
  5
2A4
330
1F
100
AcDbEntity
  8
SLD-0
  6
HIDDEN
 62
   179
100
AcDbLine
 10
176.31367
 20
149.10886
 30
0.0
 11
176.31367
 21
119.10886
 31
0.0
  0
LINE
  5
2A5
330
1F
100
AcDbEntity
  8
SLD-0
  6
HIDDEN
 62
   179
100
AcDbLine
 10
173.61368
 20
125.62736
 30
0.0
 11
167.21368
 21
125.62736
 31
0.0
  0
LINE
  5
2A6
330
1F
100
AcDbEntity
  8
SLD-0
  6
HIDDEN
 62
   179
100
AcDbLine
 10
167.21367
 20
125.62736
 30
0.0
 11
168.91368
 21
126.60886
 31
0.0
  0
LINE
  5
2A7
330
1F
100
AcDbEntity
  8
SLD-0
  6
HIDDEN
 62
   179
100
AcDbLine
 10
168.91368
 20
126.60886
 30
0.0
 11
171.91368
 21
126.60886
 31
0.0
  0
LINE
  5
2A8
330
1F
100
AcDbEntity
  8
SLD-0
  6
HIDDEN
 62
   179
100
AcDbLine
 10
171.91368
 20
126.60886
 30
0.0
 11
171.91368
 21
132.60886
 31
0.0
  0
LINE
  5
2A9
330
1F
100
AcDbEntity
  8
SLD-0
  6
HIDDEN
 62
   179
100
AcDbLine
 10
171.91368
 20
132.60886
 30
0.0
 11
168.91368
 21
132.60886
 31
0.0
  0
LINE
  5
2AA
330
1F
100
AcDbEntity
  8
SLD-0
  6
HIDDEN
 62
   179
100
AcDbLine
 10
168.91368
 20
132.60886
 30
0.0
 11
168.91368
 21
126.60886
 31
0.0
  0
LINE
  5
2AB
330
1F
100
AcDbEntity
  8
SLD-0
  6
HIDDEN
 62
   179
100
AcDbLine
 10
171.91367
 20
126.60886
 30
0.0
 11
173.61368
 21
125.62736
 31
0.0
  0
LINE
  5
2AC
330
1F
100
AcDbEntity
  8
SLD-0
  6
CENTER
 62
   179
100
AcDbLine
 10
182.85478
 20
136.60886
 30
0.0
 11
193.70473
 21
136.60886
 31
0.0
  0
LINE
  5
2AD
330
1F
100
AcDbEntity
  8
SLD-0
  6
CENTER
 62
   179
100
AcDbLine
 10
196.15527
 20
134.10886
 30
0.0
 11
205.73108
 21
134.10886
 31
0.0
  0
LINE
  5
2AE
330
1F
100
AcDbEntity
  8
SLD-0
  6
HIDDEN
 62
   179
100
AcDbLine
 10
197.81367
 20
134.10886
 30
0.0
 11
197.81367
 21
154.10886
 31
0.0
  0
LINE
  5
2AF
330
1F
100
AcDbEntity
  8
SLD-0
  6
HIDDEN
 62
   179
100
AcDbLine
 10
204.81367
 20
154.10886
 30
0.0
 11
204.81367
 21
134.10886
 31
0.0
  0
LINE
  5
2B0
330
1F
100
AcDbEntity
  8
SLD-0
  6
CENTER
 62
   179
100
AcDbLine
 10
205.78917
 20
154.10886
 30
0.0
 11
196.95795
 21
154.10886
 31
0.0
  0
LINE
  5
2B1
330
1F
100
AcDbEntity
  8
SLD-0
  6
CENTER
 62
   179
100
AcDbLine
 10
218.33459
 20
149.85886
 30
0.0
 11
230.50168
 21
149.85886
 31
0.0
  0
LINE
  5
2B2
330
1F
100
AcDbEntity
  8
SLD-0
  6
CENTER
 62
   179
100
AcDbLine
 10
230.12453
 20
151.60886
 30
0.0
 11
242.97946
 21
151.60886
 31
0.0
  0
LINE
  5
2B3
330
1F
100
AcDbEntity
  8
SLD-0
  6
CENTER
 62
   179
100
AcDbLine
 10
230.50168
 20
138.35886
 30
0.0
 11
218.33459
 21
138.35886
 31
0.0
  0
LINE
  5
2B4
330
1F
100
AcDbEntity
  8
SLD-0
  6
HIDDEN
 62
   179
100
AcDbLine
 10
299.00739
 20
125.10886
 30
0.0
 11
299.00739
 21
112.60886
 31
0.0
  0
LINE
  5
2B5
330
1F
100
AcDbEntity
  8
SLD-0
  6
HIDDEN
 62
   179
100
AcDbLine
 10
293.40739
 20
116.60886
 30
0.0
 11
293.40739
 21
78.608856
 31
0.0
  0
LINE
  5
2B6
330
1F
100
AcDbEntity
  8
SLD-0
  6
HIDDEN
 62
   179
100
AcDbLine
 10
296.50739
 20
78.608856
 30
0.0
 11
296.50739
 21
70.608856
 31
0.0
  0
LINE
  5
2B7
330
1F
100
AcDbEntity
  8
SLD-0
  6
HIDDEN
 62
   179
100
AcDbLine
 10
297.00739
 20
70.608856
 30
0.0
 11
297.00739
 21
75.608856
 31
0.0
  0
LINE
  5
2B8
330
1F
100
AcDbEntity
  8
SLD-0
  6
HIDDEN
 62
   179
100
AcDbLine
 10
297.00739
 20
75.608856
 30
0.0
 11
309.007393
 21
75.608856
 31
0.0
  0
LINE
  5
2B9
330
1F
100
AcDbEntity
  8
SLD-0
  6
HIDDEN
 62
   179
100
AcDbLine
 10
309.007393
 20
75.608856
 30
0.0
 11
309.007393
 21
70.608856
 31
0.0
  0
LINE
  5
2BA
330
1F
100
AcDbEntity
  8
SLD-0
  6
HIDDEN
 62
   179
100
AcDbLine
 10
309.507393
 20
70.608856
 30
0.0
 11
309.507393
 21
78.608856
 31
0.0
  0
LINE
  5
2BB
330
1F
100
AcDbEntity
  8
SLD-0
  6
CENTER
 62
   179
100
AcDbLine
 10
303.007393
 20
81.236717
 30
0.0
 11
303.007393
 21
34.433935
 31
0.0
  0
LINE
  5
2BC
330
1F
100
AcDbEntity
  8
SLD-0
  6
HIDDEN
 62
   179
100
AcDbLine
 10
300.00739
 20
75.608856
 30
0.0
 11
300.00739
 21
80.236717
 31
0.0
  0
LINE
  5
2BD
330
1F
100
AcDbEntity
  8
SLD-0
  6
HIDDEN
 62
   179
100
AcDbLine
 10
300.50739
 20
80.236717
 30
0.0
 11
300.50739
 21
75.608856
 31
0.0
  0
LINE
  5
2BE
330
1F
100
AcDbEntity
  8
SLD-0
  6
HIDDEN
 62
   179
100
AcDbLine
 10
298.00739
 20
80.236717
 30
0.0
 11
298.00739
 21
90.236717
 31
0.0
  0
LINE
  5
2BF
330
1F
100
AcDbEntity
  8
SLD-0
  6
HIDDEN
 62
   179
100
AcDbLine
 10
305.507393
 20
80.236717
 30
0.0
 11
305.507393
 21
75.608856
 31
0.0
  0
LINE
  5
2C0
330
1F
100
AcDbEntity
  8
SLD-0
  6
HIDDEN
 62
   179
100
AcDbLine
 10
306.007393
 20
75.608856
 30
0.0
 11
306.007393
 21
80.236717
 31
0.0
  0
LINE
  5
2C1
330
1F
100
AcDbEntity
  8
SLD-0
  6
HIDDEN
 62
   179
100
AcDbLine
 10
314.407394
 20
78.608856
 30
0.0
 11
314.407394
 21
116.60886
 31
0.0
  0
LINE
  5
2C2
330
1F
100
AcDbEntity
  8
SLD-0
  6
CENTER
 62
   179
100
AcDbLine
 10
319.007393
 20
117.11062
 30
0.0
 11
319.007393
 21
151.60886
 31
0.0
  0
LINE
  5
2C3
330
1F
100
AcDbEntity
  8
SLD-0
  6
CENTER
 62
   179
100
AcDbLine
 10
327.033104
 20
144.10886
 30
0.0
 11
310.596535
 21
144.10886
 31
0.0
  0
LINE
  5
2C4
330
1F
100
AcDbEntity
  8
SLD-0
  6
CENTER
 62
   179
100
AcDbLine
 10
311.007393
 20
128.93277
 30
0.0
 11
311.007393
 21
121.5485
 31
0.0
  0
LINE
  5
2C5
330
1F
100
AcDbEntity
  8
SLD-0
  6
CENTER
 62
   179
100
AcDbLine
 10
310.596535
 20
124.10886
 30
0.0
 11
327.033104
 21
124.10886
 31
0.0
  0
LINE
  5
2C6
330
1F
100
AcDbEntity
  8
SLD-0
  6
HIDDEN
 62
   179
100
AcDbLine
 10
313.683269
 20
124.56161
 30
0.0
 11
313.731143
 21
125.10885
 31
0.0
  0
LINE
  5
2C7
330
1F
100
AcDbEntity
  8
SLD-0
  6
HIDDEN
 62
   179
100
AcDbLine
 10
308.331514
 20
124.56161
 30
0.0
 11
308.283636
 21
125.10886
 31
0.0
  0
LINE
  5
2C8
330
1F
100
AcDbEntity
  8
SLD-0
  6
HIDDEN
 62
   179
100
AcDbLine
 10
310.007393
 20
126.60886
 30
0.0
 11
310.007393
 21
161.60886
 31
0.0
  0
LINE
  5
2C9
330
1F
100
AcDbEntity
  8
SLD-0
  6
HIDDEN
 62
   179
100
AcDbLine
 10
311.507393
 20
161.60886
 30
0.0
 11
311.507393
 21
126.60886
 31
0.0
  0
LINE
  5
2CA
330
1F
100
AcDbEntity
  8
SLD-0
  6
CENTER
 62
   179
100
AcDbLine
 10
311.007393
 20
158.58006
 30
0.0
 11
311.007393
 21
166.68762
 31
0.0
  0
LINE
  5
2CB
330
1F
100
AcDbEntity
  8
SLD-0
  6
HIDDEN
 62
   179
100
AcDbLine
 10
306.945793
 20
181.11209
 30
0.0
 11
307.007393
 21
181.10886
 31
0.0
  0
LINE
  5
2CC
330
1F
100
AcDbEntity
  8
SLD-0
  6
HIDDEN
 62
   179
100
AcDbLine
 10
306.756541
 20
181.32228
 30
0.0
 11
307.007394
 21
186.10885
 31
0.0
  0
LINE
  5
2CD
330
1F
100
AcDbEntity
  8
SLD-0
  6
Continuous
 62
   179
100
AcDbLine
 10
202.56367
 20
236.246
 30
0.0
 11
202.56367
 21
238.34599
 31
0.0
  0
LINE
  5
2CE
330
1F
100
AcDbEntity
  8
SLD-0
  6
Continuous
 62
   179
100
AcDbLine
 10
200.06367
 20
238.34599
 30
0.0
 11
200.06367
 21
236.246
 31
0.0
  0
LINE
  5
2CF
330
1F
100
AcDbEntity
  8
SLD-0
  6
CENTER
 62
   179
100
AcDbLine
 10
188.81367
 20
235.59828
 30
0.0
 11
188.81367
 21
242.14847
 31
0.0
  0
LINE
  5
2D0
330
1F
100
AcDbEntity
  8
SLD-0
  6
CENTER
 62
   179
100
AcDbLine
 10
185.81367
 20
177.23058
 30
0.0
 11
185.81367
 21
168.53862
 31
0.0
  0
LINE
  5
2D1
330
1F
100
AcDbEntity
  8
SLD-0
  6
HIDDEN
 62
   179
100
AcDbLine
 10
187.06367
 20
170.75885
 30
0.0
 11
187.06367
 21
174.60886
 31
0.0
  0
LINE
  5
2D2
330
1F
100
AcDbEntity
  8
SLD-0
  6
HIDDEN
 62
   179
100
AcDbLine
 10
187.31367
 20
174.60886
 30
0.0
 11
187.31367
 21
170.75885
 31
0.0
  0
LINE
  5
2D3
330
1F
100
AcDbEntity
  8
SLD-0
  6
HIDDEN
 62
   179
100
AcDbLine
 10
184.56367
 20
170.75885
 30
0.0
 11
184.56367
 21
174.60886
 31
0.0
  0
LINE
  5
2D4
330
1F
100
AcDbEntity
  8
SLD-0
  6
HIDDEN
 62
   179
100
AcDbLine
 10
184.31367
 20
174.60886
 30
0.0
 11
184.31367
 21
170.75885
 31
0.0
  0
LINE
  5
2D5
330
1F
100
AcDbEntity
  8
SLD-0
  6
HIDDEN
 62
   179
100
AcDbLine
 10
181.31367
 20
170.75885
 30
0.0
 11
181.31367
 21
174.60886
 31
0.0
  0
LINE
  5
2D6
330
1F
100
AcDbEntity
  8
SLD-0
  6
HIDDEN
 62
   179
100
AcDbLine
 10
181.06367
 20
174.60886
 30
0.0
 11
181.06367
 21
170.75885
 31
0.0
  0
LINE
  5
2D7
330
1F
100
AcDbEntity
  8
SLD-0
  6
HIDDEN
 62
   179
100
AcDbLine
 10
178.56367
 20
170.75885
 30
0.0
 11
178.56367
 21
174.60886
 31
0.0
  0
LINE
  5
2D8
330
1F
100
AcDbEntity
  8
SLD-0
  6
CENTER
 62
   179
100
AcDbLine
 10
179.81367
 20
177.23058
 30
0.0
 11
179.81367
 21
168.53862
 31
0.0
  0
LINE
  5
2D9
330
1F
100
AcDbEntity
  8
SLD-0
  6
HIDDEN
 62
   179
100
AcDbLine
 10
170.31368
 20
168.10885
 30
0.0
 11
169.34922
 21
169.07331
 31
0.0
  0
LINE
  5
2DA
330
1F
100
AcDbEntity
  8
SLD-0
  6
HIDDEN
 62
   179
100
AcDbLine
 10
165.81367
 20
167.10886
 30
0.0
 11
165.81367
 21
164.8472
 31
0.0
  0
LINE
  5
2DB
330
1F
100
AcDbEntity
  8
SLD-0
  6
CENTER
 62
   179
100
AcDbLine
 10
165.31367
 20
164.10886
 30
0.0
 11
165.31367
 21
152.47488
 31
0.0
  0
LINE
  5
2DC
330
1F
100
AcDbEntity
  8
SLD-0
  6
CENTER
 62
   179
100
AcDbLine
 10
183.47478
 20
151.60886
 30
0.0
 11
192.77472
 21
151.60886
 31
0.0
  0
LINE
  5
2DD
330
1F
100
AcDbEntity
  8
SLD-0
  6
HIDDEN
 62
   179
100
AcDbLine
 10
195.54018
 20
85.236717
 30
0.0
 11
195.54018
 21
81.236717
 31
0.0
  0
LINE
  5
2DE
330
1F
100
AcDbEntity
  8
SLD-0
  6
HIDDEN
 62
   179
100
AcDbLine
 10
104.15311
 20
70.608856
 30
0.0
 11
104.15311
 21
78.608856
 31
0.0
  0
LINE
  5
2DF
330
1F
100
AcDbEntity
  8
SLD-0
  6
HIDDEN
 62
   179
100
AcDbLine
 10
103.65311
 20
75.608856
 30
0.0
 11
103.65311
 21
70.608856
 31
0.0
  0
LINE
  5
2E0
330
1F
100
AcDbEntity
  8
SLD-0
  6
HIDDEN
 62
   179
100
AcDbLine
 10
103.65311
 20
75.608856
 30
0.0
 11
91.65311
 21
75.608856
 31
0.0
  0
LINE
  5
2E1
330
1F
100
AcDbEntity
  8
SLD-0
  6
HIDDEN
 62
   179
100
AcDbLine
 10
91.65311
 20
75.608856
 30
0.0
 11
91.65311
 21
70.608856
 31
0.0
  0
LINE
  5
2E2
330
1F
100
AcDbEntity
  8
SLD-0
  6
HIDDEN
 62
   179
100
AcDbLine
 10
94.65311
 20
75.608856
 30
0.0
 11
94.65311
 21
80.236717
 31
0.0
  0
LINE
  5
2E3
330
1F
100
AcDbEntity
  8
SLD-0
  6
HIDDEN
 62
   179
100
AcDbLine
 10
95.15311
 20
80.236717
 30
0.0
 11
95.15311
 21
75.608856
 31
0.0
  0
LINE
  5
2E4
330
1F
100
AcDbEntity
  8
SLD-0
  6
CENTER
 62
   179
100
AcDbLine
 10
97.65311
 20
81.236717
 30
0.0
 11
97.65311
 21
33.184855
 31
0.0
  0
LINE
  5
2E5
330
1F
100
AcDbEntity
  8
SLD-0
  6
HIDDEN
 62
   179
100
AcDbLine
 10
198.31367
 20
75.608856
 30
0.0
 11
198.31367
 21
80.236717
 31
0.0
  0
LINE
  5
2E6
330
1F
100
AcDbEntity
  8
SLD-0
  6
HIDDEN
 62
   179
100
AcDbLine
 10
198.81367
 20
80.236717
 30
0.0
 11
198.81367
 21
75.608856
 31
0.0
  0
LINE
  5
2E7
330
1F
100
AcDbEntity
  8
SLD-0
  6
HIDDEN
 62
   179
100
AcDbLine
 10
196.98355
 20
80.236717
 30
0.0
 11
205.6438
 21
80.236717
 31
0.0
  0
LINE
  5
2E8
330
1F
100
AcDbEntity
  8
SLD-0
  6
HIDDEN
 62
   179
100
AcDbLine
 10
204.31367
 20
80.236717
 30
0.0
 11
204.31367
 21
75.608856
 31
0.0
  0
LINE
  5
2E9
330
1F
100
AcDbEntity
  8
SLD-0
  6
HIDDEN
 62
   179
100
AcDbLine
 10
203.81367
 20
75.608856
 30
0.0
 11
203.81367
 21
80.236717
 31
0.0
  0
LINE
  5
2EA
330
1F
100
AcDbEntity
  8
SLD-0
  6
HIDDEN
 62
   179
100
AcDbLine
 10
207.81367
 20
78.608856
 30
0.0
 11
207.81367
 21
70.608856
 31
0.0
  0
LINE
  5
2EB
330
1F
100
AcDbEntity
  8
SLD-0
  6
PHANTOM
 62
   179
100
AcDbLine
 10
228.31367
 20
72.608856
 30
0.0
 11
238.31367
 21
72.608856
 31
0.0
  0
LINE
  5
2EC
330
1F
100
AcDbEntity
  8
SLD-0
  6
PHANTOM
 62
   179
100
AcDbLine
 10
238.31367
 20
72.608856
 30
0.0
 11
238.31367
 21
76.608856
 31
0.0
  0
LINE
  5
2ED
330
1F
100
AcDbEntity
  8
SLD-0
  6
PHANTOM
 62
   179
100
AcDbLine
 10
238.31367
 20
76.608856
 30
0.0
 11
228.31367
 21
76.608856
 31
0.0
  0
LINE
  5
2EE
330
1F
100
AcDbEntity
  8
SLD-0
  6
PHANTOM
 62
   179
100
AcDbLine
 10
228.31367
 20
76.608856
 30
0.0
 11
228.31367
 21
72.608856
 31
0.0
  0
LINE
  5
2EF
330
1F
100
AcDbEntity
  8
SLD-0
  6
CENTER
 62
   179
100
AcDbLine
 10
89.67883
 20
124.10886
 30
0.0
 11
73.24225
 21
124.10886
 31
0.0
  0
LINE
  5
2F0
330
1F
100
AcDbEntity
  8
SLD-0
  6
HIDDEN
 62
   179
100
AcDbLine
 10
77.65311
 20
122.67271
 30
0.0
 11
77.65311
 21
125.545
 31
0.0
  0
LINE
  5
2F1
330
1F
100
AcDbEntity
  8
SLD-0
  6
CENTER
 62
   179
100
AcDbLine
 10
81.65311
 20
117.11062
 30
0.0
 11
81.65311
 21
151.60886
 31
0.0
  0
LINE
  5
2F2
330
1F
100
AcDbEntity
  8
SLD-0
  6
HIDDEN
 62
   179
100
AcDbLine
 10
85.65311
 20
149.10886
 30
0.0
 11
85.65311
 21
119.10886
 31
0.0
  0
LINE
  5
2F3
330
1F
100
AcDbEntity
  8
SLD-0
  6
HIDDEN
 62
   179
100
AcDbLine
 10
77.65311
 20
142.67271
 30
0.0
 11
77.65311
 21
145.545
 31
0.0
  0
LINE
  5
2F4
330
1F
100
AcDbEntity
  8
SLD-0
  6
CENTER
 62
   179
100
AcDbLine
 10
73.24225
 20
144.10886
 30
0.0
 11
89.67883
 21
144.10886
 31
0.0
  0
LINE
  5
2F5
330
1F
100
AcDbEntity
  8
SLD-0
  6
CENTER
 62
   179
100
AcDbLine
 10
89.65311
 20
166.68762
 30
0.0
 11
89.65311
 21
158.58006
 31
0.0
  0
LINE
  5
2F6
330
1F
100
AcDbEntity
  8
SLD-0
  6
Continuous
 62
   179
100
AcDbLine
 10
283.00739
 20
57.446571
 30
0.0
 11
283.00739
 21
55.924286
 31
0.0
  0
LINE
  5
2F7
330
1F
100
AcDbEntity
  8
SLD-0
  6
PHANTOM
 62
   179
100
AcDbLine
 10
229.72789
 20
72.608852
 30
0.0
 11
228.31368
 21
74.023065
 31
0.0
  0
LINE
  5
2F8
330
1F
100
AcDbEntity
  8
SLD-0
  6
PHANTOM
 62
   179
100
AcDbLine
 10
231.14211
 20
72.608854
 30
0.0
 11
228.31368
 21
75.437281
 31
0.0
  0
LINE
  5
2F9
330
1F
100
AcDbEntity
  8
SLD-0
  6
PHANTOM
 62
   179
100
AcDbLine
 10
232.55632
 20
72.608852
 30
0.0
 11
228.55631
 21
76.608856
 31
0.0
  0
LINE
  5
2FA
330
1F
100
AcDbEntity
  8
SLD-0
  6
PHANTOM
 62
   179
100
AcDbLine
 10
233.97053
 20
72.608852
 30
0.0
 11
229.97053
 21
76.608856
 31
0.0
  0
LINE
  5
2FB
330
1F
100
AcDbEntity
  8
SLD-0
  6
PHANTOM
 62
   179
100
AcDbLine
 10
235.38474
 20
72.608852
 30
0.0
 11
231.38474
 21
76.608856
 31
0.0
  0
LINE
  5
2FC
330
1F
100
AcDbEntity
  8
SLD-0
  6
PHANTOM
 62
   179
100
AcDbLine
 10
236.79896
 20
72.608852
 30
0.0
 11
232.79895
 21
76.608856
 31
0.0
  0
LINE
  5
2FD
330
1F
100
AcDbEntity
  8
SLD-0
  6
PHANTOM
 62
   179
100
AcDbLine
 10
238.21317
 20
72.608852
 30
0.0
 11
234.21317
 21
76.608856
 31
0.0
  0
LINE
  5
2FE
330
1F
100
AcDbEntity
  8
SLD-0
  6
PHANTOM
 62
   179
100
AcDbLine
 10
238.31368
 20
73.922565
 30
0.0
 11
235.62738
 21
76.60886
 31
0.0
  0
LINE
  5
2FF
330
1F
100
AcDbEntity
  8
SLD-0
  6
PHANTOM
 62
   179
100
AcDbLine
 10
238.31368
 20
75.336774
 30
0.0
 11
237.04159
 21
76.608856
 31
0.0
  0
LINE
  5
300
330
1F
100
AcDbEntity
  8
SLD-0
  6
HIDDEN
 62
   179
100
AcDbLine
 10
172.2421
 20
147.60886
 30
0.0
 11
169.41367
 21
144.78044
 31
0.0
  0
LINE
  5
301
330
1F
100
AcDbEntity
  8
SLD-0
  6
HIDDEN
 62
   179
100
AcDbLine
 10
175.07052
 20
147.60886
 30
0.0
 11
169.41367
 21
141.95201
 31
0.0
  0
LINE
  5
302
330
1F
100
AcDbEntity
  8
SLD-0
  6
HIDDEN
 62
   179
100
AcDbLine
 10
175.81368
 20
145.52357
 30
0.0
 11
169.41368
 21
139.12357
 31
0.0
  0
LINE
  5
303
330
1F
100
AcDbEntity
  8
SLD-0
  6
HIDDEN
 62
   179
100
AcDbLine
 10
175.81368
 20
142.69514
 30
0.0
 11
169.41368
 21
136.29514
 31
0.0
  0
LINE
  5
304
330
1F
100
AcDbEntity
  8
SLD-0
  6
HIDDEN
 62
   179
100
AcDbLine
 10
175.81368
 20
139.86671
 30
0.0
 11
169.41368
 21
133.46672
 31
0.0
  0
LINE
  5
305
330
1F
100
AcDbEntity
  8
SLD-0
  6
HIDDEN
 62
   179
100
AcDbLine
 10
169.05581
 20
133.10885
 30
0.0
 11
168.41368
 21
132.46671
 31
0.0
  0
LINE
  5
306
330
1F
100
AcDbEntity
  8
SLD-0
  6
HIDDEN
 62
   179
100
AcDbLine
 10
175.81368
 20
137.03829
 30
0.0
 11
168.41368
 21
129.63829
 31
0.0
  0
LINE
  5
307
330
1F
100
AcDbEntity
  8
SLD-0
  6
HIDDEN
 62
   179
100
AcDbLine
 10
175.81368
 20
134.20986
 30
0.0
 11
166.71368
 21
125.10986
 31
0.0
  0
LINE
  5
308
330
1F
100
AcDbEntity
  8
SLD-0
  6
HIDDEN
 62
   179
100
AcDbLine
 10
175.81368
 20
131.38143
 30
0.0
 11
166.71368
 21
122.28144
 31
0.0
  0
LINE
  5
309
330
1F
100
AcDbEntity
  8
SLD-0
  6
HIDDEN
 62
   179
100
AcDbLine
 10
175.81368
 20
128.55301
 30
0.0
 11
166.71368
 21
119.45301
 31
0.0
  0
LINE
  5
30A
330
1F
100
AcDbEntity
  8
SLD-0
  6
HIDDEN
 62
   179
100
AcDbLine
 10
175.81368
 20
125.72458
 30
0.0
 11
169.19795
 21
119.10885
 31
0.0
  0
LINE
  5
30B
330
1F
100
AcDbEntity
  8
SLD-0
  6
HIDDEN
 62
   179
100
AcDbLine
 10
175.81368
 20
122.89615
 30
0.0
 11
172.02638
 21
119.10885
 31
0.0
  0
LINE
  5
30C
330
1F
100
AcDbEntity
  8
SLD-0
  6
HIDDEN
 62
   179
100
AcDbLine
 10
175.81368
 20
120.06772
 30
0.0
 11
174.85481
 21
119.10885
 31
0.0
  0
LINE
  5
30D
330
1F
100
AcDbEntity
  8
SLD-0
  6
PHANTOM
 62
   179
100
AcDbLine
 10
175.81368
 20
117.2393
 30
0.0
 11
166.71368
 21
108.139301
 31
0.0
  0
LINE
  5
30E
330
1F
100
AcDbEntity
  8
SLD-0
  6
PHANTOM
 62
   179
100
AcDbLine
 10
175.81368
 20
114.41087
 30
0.0
 11
166.71368
 21
105.310874
 31
0.0
  0
LINE
  5
30F
330
1F
100
AcDbEntity
  8
SLD-0
  6
PHANTOM
 62
   179
100
AcDbLine
 10
175.81368
 20
111.58244
 30
0.0
 11
166.71368
 21
102.482446
 31
0.0
  0
LINE
  5
310
330
1F
100
AcDbEntity
  8
SLD-0
  6
PHANTOM
 62
   179
100
AcDbLine
 10
175.81368
 20
108.754016
 30
0.0
 11
166.71368
 21
99.654019
 31
0.0
  0
LINE
  5
311
330
1F
100
AcDbEntity
  8
SLD-0
  6
PHANTOM
 62
   179
100
AcDbLine
 10
175.81368
 20
105.925589
 30
0.0
 11
166.71368
 21
96.825592
 31
0.0
  0
LINE
  5
312
330
1F
100
AcDbEntity
  8
SLD-0
  6
PHANTOM
 62
   179
100
AcDbLine
 10
175.81368
 20
103.097162
 30
0.0
 11
167.26368
 21
94.547165
 31
0.0
  0
LINE
  5
313
330
1F
100
AcDbEntity
  8
SLD-0
  6
PHANTOM
 62
   179
100
AcDbLine
 10
175.81368
 20
100.268735
 30
0.0
 11
167.26368
 21
91.718737
 31
0.0
  0
LINE
  5
314
330
1F
100
AcDbEntity
  8
SLD-0
  6
PHANTOM
 62
   179
100
AcDbLine
 10
175.81368
 20
97.440308
 30
0.0
 11
167.26368
 21
88.89031
 31
0.0
  0
LINE
  5
315
330
1F
100
AcDbEntity
  8
SLD-0
  6
PHANTOM
 62
   179
100
AcDbLine
 10
175.81368
 20
94.611881
 30
0.0
 11
167.26368
 21
86.061883
 31
0.0
  0
LINE
  5
316
330
1F
100
AcDbEntity
  8
SLD-0
  6
PHANTOM
 62
   179
100
AcDbLine
 10
175.81368
 20
91.783453
 30
0.0
 11
167.26368
 21
83.233456
 31
0.0
  0
LINE
  5
317
330
1F
100
AcDbEntity
  8
SLD-0
  6
PHANTOM
 62
   179
100
AcDbLine
 10
175.81368
 20
88.955026
 30
0.0
 11
167.26368
 21
80.405029
 31
0.0
  0
LINE
  5
318
330
1F
100
AcDbEntity
  8
SLD-0
  6
PHANTOM
 62
   179
100
AcDbLine
 10
175.81368
 20
86.126599
 30
0.0
 11
167.26368
 21
77.576602
 31
0.0
  0
LINE
  5
319
330
1F
100
AcDbEntity
  8
SLD-0
  6
PHANTOM
 62
   179
100
AcDbLine
 10
175.81368
 20
83.298172
 30
0.0
 11
167.26368
 21
74.748175
 31
0.0
  0
LINE
  5
31A
330
1F
100
AcDbEntity
  8
SLD-0
  6
PHANTOM
 62
   179
100
AcDbLine
 10
175.81368
 20
80.469745
 30
0.0
 11
167.26368
 21
71.919748
 31
0.0
  0
LINE
  5
31B
330
1F
100
AcDbEntity
  8
SLD-0
  6
PHANTOM
 62
   179
100
AcDbLine
 10
175.81368
 20
77.641318
 30
0.0
 11
167.26368
 21
69.09132
 31
0.0
  0
LINE
  5
31C
330
1F
100
AcDbEntity
  8
SLD-0
  6
PHANTOM
 62
   179
100
AcDbLine
 10
175.81368
 20
74.812891
 30
0.0
 11
167.26368
 21
66.262893
 31
0.0
  0
LINE
  5
31D
330
1F
100
AcDbEntity
  8
SLD-0
  6
PHANTOM
 62
   179
100
AcDbLine
 10
175.81368
 20
71.984464
 30
0.0
 11
167.26368
 21
63.434466
 31
0.0
  0
LINE
  5
31E
330
1F
100
AcDbEntity
  8
SLD-0
  6
PHANTOM
 62
   179
100
AcDbLine
 10
175.81368
 20
69.156036
 30
0.0
 11
167.26368
 21
60.606039
 31
0.0
  0
LINE
  5
31F
330
1F
100
AcDbEntity
  8
SLD-0
  6
PHANTOM
 62
   179
100
AcDbLine
 10
175.81368
 20
66.327609
 30
0.0
 11
167.26368
 21
57.777612
 31
0.0
  0
LINE
  5
320
330
1F
100
AcDbEntity
  8
SLD-0
  6
PHANTOM
 62
   179
100
AcDbLine
 10
175.81368
 20
63.499182
 30
0.0
 11
167.26368
 21
54.949185
 31
0.0
  0
LINE
  5
321
330
1F
100
AcDbEntity
  8
SLD-0
  6
PHANTOM
 62
   179
100
AcDbLine
 10
175.81368
 20
60.670755
 30
0.0
 11
167.26368
 21
52.120758
 31
0.0
  0
LINE
  5
322
330
1F
100
AcDbEntity
  8
SLD-0
  6
PHANTOM
 62
   179
100
AcDbLine
 10
175.81368
 20
57.842328
 30
0.0
 11
167.26368
 21
49.292331
 31
0.0
  0
LINE
  5
323
330
1F
100
AcDbEntity
  8
SLD-0
  6
PHANTOM
 62
   179
100
AcDbLine
 10
175.81368
 20
55.013901
 30
0.0
 11
167.26368
 21
46.463903
 31
0.0
  0
LINE
  5
324
330
1F
100
AcDbEntity
  8
SLD-0
  6
PHANTOM
 62
   179
100
AcDbLine
 10
175.81368
 20
52.185474
 30
0.0
 11
168.73705
 21
45.108849
 31
0.0
  0
LINE
  5
325
330
1F
100
AcDbEntity
  8
SLD-0
  6
PHANTOM
 62
   179
100
AcDbLine
 10
175.81368
 20
49.357049
 30
0.0
 11
169.06548
 21
42.608848
 31
0.0
  0
LINE
  5
326
330
1F
100
AcDbEntity
  8
SLD-0
  6
PHANTOM
 62
   179
100
AcDbLine
 10
175.81368
 20
46.528623
 30
0.0
 11
171.89391
 21
42.60885
 31
0.0
  0
LINE
  5
327
330
1F
100
AcDbEntity
  8
SLD-0
  6
PHANTOM
 62
   179
100
AcDbLine
 10
175.81368
 20
43.700195
 30
0.0
 11
174.72234
 21
42.608849
 31
0.0
  0
LINE
  5
328
330
1F
100
AcDbEntity
  8
SLD-0
  6
PHANTOM
 62
   179
100
AcDbLine
 10
169.19795
 20
119.10885
 30
0.0
 11
166.71368
 21
116.62458
 31
0.0
  0
LINE
  5
329
330
1F
100
AcDbEntity
  8
SLD-0
  6
PHANTOM
 62
   179
100
AcDbLine
 10
172.02638
 20
119.10885
 30
0.0
 11
166.71368
 21
113.79615
 31
0.0
  0
LINE
  5
32A
330
1F
100
AcDbEntity
  8
SLD-0
  6
PHANTOM
 62
   179
100
AcDbLine
 10
174.85481
 20
119.10885
 30
0.0
 11
166.71368
 21
110.967728
 31
0.0
  0
LINE
  5
32B
330
1F
100
AcDbEntity
  8
SLD-0
  6
Continuous
 62
   179
100
AcDbLine
 10
175.51216
 20
152.60887
 30
0.0
 11
175.81367
 21
152.91039
 31
0.0
  0
LINE
  5
32C
330
1F
100
AcDbEntity
  8
SLD-0
  6
CENTER
 62
   179
100
AcDbLine
 10
111.26105
 20
59.608856
 30
0.0
 11
122.04462
 21
59.608856
 31
0.0
  0
LINE
  5
32D
330
1F
100
AcDbEntity
  8
SLD-0
  6
CENTER
 62
   179
100
AcDbLine
 10
111.41733
 20
43.608856
 30
0.0
 11
122.04462
 21
43.608856
 31
0.0
  0
LINE
  5
32E
330
1F
100
AcDbEntity
  8
SLD-0
  6
CENTER
 62
   179
100
AcDbLine
 10
276.61533
 20
59.608856
 30
0.0
 11
287.39891
 21
59.608856
 31
0.0
  0
LINE
  5
32F
330
1F
100
AcDbEntity
  8
SLD-0
  6
CENTER
 62
   179
100
AcDbLine
 10
276.77161
 20
43.608856
 30
0.0
 11
287.39891
 21
43.608856
 31
0.0
  0
LINE
  5
330
330
1F
100
AcDbEntity
  8
SLD-0
  6
Continuous
 62
   179
100
AcDbLine
 10
195.31367
 20
162.80885
 30
0.0
 11
195.31367
 21
161.60886
 31
0.0
  0
LINE
  5
331
330
1F
100
AcDbEntity
  8
SLD-0
  6
Continuous
 62
   179
100
AcDbLine
 10
207.31367
 20
162.80885
 30
0.0
 11
207.31367
 21
161.60886
 31
0.0
  0
LINE
  5
332
330
1F
100
AcDbEntity
  8
SLD-0
  6
HIDDEN
 62
   179
100
AcDbLine
 10
191.53743
 20
125.10886
 30
0.0
 11
191.48955
 21
124.56161
 31
0.0
  0
LINE
  5
333
330
1F
100
AcDbEntity
  8
SLD-0
  6
Continuous
 62
   179
100
AcDbLine
 10
195.31367
 20
125.40885
 30
0.0
 11
195.31367
 21
126.60886
 31
0.0
  0
LINE
  5
334
330
1F
100
AcDbEntity
  8
SLD-0
  6
Continuous
 62
   179
100
AcDbLine
 10
207.31367
 20
125.40885
 30
0.0
 11
207.31367
 21
126.60886
 31
0.0
  0
LINE
  5
335
330
1F
100
AcDbEntity
  8
SLD-0
  6
Continuous
 62
   179
100
AcDbLine
 10
216.81367
 20
161.60886
 30
0.0
 11
216.81367
 21
162.80885
 31
0.0
  0
LINE
  5
336
330
1F
100
AcDbEntity
  8
SLD-0
  6
Continuous
 62
   179
100
AcDbLine
 10
216.81367
 20
125.40885
 30
0.0
 11
216.81367
 21
126.60886
 31
0.0
  0
LINE
  5
337
330
1F
100
AcDbEntity
  8
SLD-0
  6
HIDDEN
 62
   179
100
AcDbLine
 10
102.65311
 20
166.90309
 30
0.0
 11
102.65311
 21
167.60886
 31
0.0
  0
LINE
  5
338
330
1F
100
AcDbEntity
  8
SLD-0
  6
PHANTOM
 62
   179
100
AcDbLine
 10
166.71368
 20
119.10886
 30
0.0
 11
166.71368
 21
95.608856
 31
0.0
  0
LINE
  5
339
330
1F
100
AcDbEntity
  8
SLD-0
  6
HIDDEN
 62
   179
100
AcDbLine
 10
175.81367
 20
119.10886
 30
0.0
 11
175.81367
 21
147.60886
 31
0.0
  0
LINE
  5
33A
330
1F
100
AcDbEntity
  8
SLD-0
  6
HIDDEN
 62
   179
100
AcDbLine
 10
178.31367
 20
170.75885
 30
0.0
 11
178.31367
 21
174.60886
 31
0.0
  0
LINE
  5
33B
330
1F
100
AcDbEntity
  8
SLD-0
  6
Continuous
 62
   179
100
AcDbLine
 10
287.50739
 20
132.85886
 30
0.0
 11
287.50739
 21
135.35886
 31
0.0
  0
LINE
  5
33C
330
1F
100
AcDbEntity
  8
SLD-0
  6
Continuous
 62
   179
100
AcDbLine
 10
287.50739
 20
135.35886
 30
0.0
 11
287.75739
 21
135.60886
 31
0.0
  0
LINE
  5
33D
330
1F
100
AcDbEntity
  8
SLD-0
  6
Continuous
 62
   179
100
AcDbLine
 10
287.75739
 20
135.60886
 30
0.0
 11
288.50739
 21
135.60886
 31
0.0
  0
LINE
  5
33E
330
1F
100
AcDbEntity
  8
SLD-0
  6
Continuous
 62
   179
100
AcDbLine
 10
287.75739
 20
135.60886
 30
0.0
 11
287.75739
 21
132.60886
 31
0.0
  0
LINE
  5
33F
330
1F
100
AcDbEntity
  8
SLD-0
  6
Continuous
 62
   179
100
AcDbLine
 10
287.75739
 20
132.60886
 30
0.0
 11
289.60739
 21
132.60886
 31
0.0
  0
LINE
  5
340
330
1F
100
AcDbEntity
  8
SLD-0
  6
Continuous
 62
   179
100
AcDbLine
 10
289.60739
 20
133.85886
 30
0.0
 11
289.60739
 21
131.35886
 31
0.0
  0
LINE
  5
341
330
1F
100
AcDbEntity
  8
SLD-0
  6
Continuous
 62
   179
100
AcDbLine
 10
289.60739
 20
131.35886
 30
0.0
 11
289.85301
 21
130.93343
 31
0.0
  0
LINE
  5
342
330
1F
100
AcDbEntity
  8
SLD-0
  6
Continuous
 62
   179
100
AcDbLine
 10
289.85301
 20
130.93343
 30
0.0
 11
292.00739
 21
130.93343
 31
0.0
  0
LINE
  5
343
330
1F
100
AcDbEntity
  8
SLD-0
  6
Continuous
 62
   179
100
AcDbLine
 10
292.00739
 20
132.52114
 30
0.0
 11
289.85301
 21
132.52114
 31
0.0
  0
LINE
  5
344
330
1F
100
AcDbEntity
  8
SLD-0
  6
Continuous
 62
   179
100
AcDbLine
 10
287.75739
 20
132.60886
 30
0.0
 11
287.5074
 21
132.85885
 31
0.0
  0
LINE
  5
345
330
1F
100
AcDbEntity
  8
SLD-0
  6
Continuous
 62
   179
100
AcDbLine
 10
289.00739
 20
133.85886
 30
0.0
 11
292.00739
 21
133.85886
 31
0.0
  0
LINE
  5
346
330
1F
100
AcDbEntity
  8
SLD-0
  6
Continuous
 62
   179
100
AcDbLine
 10
288.50739
 20
134.35886
 30
0.0
 11
288.50739
 21
138.85886
 31
0.0
  0
LINE
  5
347
330
1F
100
AcDbEntity
  8
SLD-0
  6
Continuous
 62
   179
100
AcDbLine
 10
289.00739
 20
139.35886
 30
0.0
 11
292.00739
 21
139.35886
 31
0.0
  0
LINE
  5
348
330
1F
100
AcDbEntity
  8
SLD-0
  6
Continuous
 62
   179
100
AcDbLine
 10
292.00739
 20
148.85886
 30
0.0
 11
289.00739
 21
148.85886
 31
0.0
  0
LINE
  5
349
330
1F
100
AcDbEntity
  8
SLD-0
  6
Continuous
 62
   179
100
AcDbLine
 10
288.50739
 20
149.35886
 30
0.0
 11
288.50739
 21
153.85886
 31
0.0
  0
LINE
  5
34A
330
1F
100
AcDbEntity
  8
SLD-0
  6
Continuous
 62
   179
100
AcDbLine
 10
289.00739
 20
154.35886
 30
0.0
 11
292.00739
 21
154.35886
 31
0.0
  0
LINE
  5
34B
330
1F
100
AcDbEntity
  8
SLD-0
  6
Continuous
 62
   179
100
AcDbLine
 10
292.00739
 20
155.69656
 30
0.0
 11
289.85301
 21
155.69656
 31
0.0
  0
LINE
  5
34C
330
1F
100
AcDbEntity
  8
SLD-0
  6
Continuous
 62
   179
100
AcDbLine
 10
289.60739
 20
154.35886
 30
0.0
 11
289.60739
 21
156.85886
 31
0.0
  0
LINE
  5
34D
330
1F
100
AcDbEntity
  8
SLD-0
  6
Continuous
 62
   179
100
AcDbLine
 10
289.60739
 20
156.85886
 30
0.0
 11
289.85301
 21
157.28428
 31
0.0
  0
LINE
  5
34E
330
1F
100
AcDbEntity
  8
SLD-0
  6
Continuous
 62
   179
100
AcDbLine
 10
289.85301
 20
157.28428
 30
0.0
 11
292.00739
 21
157.28429
 31
0.0
  0
LINE
  5
34F
330
1F
100
AcDbEntity
  8
SLD-0
  6
Continuous
 62
   179
100
AcDbLine
 10
289.60739
 20
155.60886
 30
0.0
 11
287.75739
 21
155.60886
 31
0.0
  0
LINE
  5
350
330
1F
100
AcDbEntity
  8
SLD-0
  6
Continuous
 62
   179
100
AcDbLine
 10
287.75739
 20
155.60886
 30
0.0
 11
287.75739
 21
152.60886
 31
0.0
  0
LINE
  5
351
330
1F
100
AcDbEntity
  8
SLD-0
  6
Continuous
 62
   179
100
AcDbLine
 10
287.75739
 20
152.60886
 30
0.0
 11
288.50739
 21
152.60886
 31
0.0
  0
LINE
  5
352
330
1F
100
AcDbEntity
  8
SLD-0
  6
Continuous
 62
   179
100
AcDbLine
 10
287.50739
 20
152.85886
 30
0.0
 11
287.50739
 21
155.35886
 31
0.0
  0
LINE
  5
353
330
1F
100
AcDbEntity
  8
SLD-0
  6
Continuous
 62
   179
100
AcDbLine
 10
287.50739
 20
155.35886
 30
0.0
 11
287.75739
 21
155.60886
 31
0.0
  0
LINE
  5
354
330
1F
100
AcDbEntity
  8
SLD-0
  6
CENTER
 62
   179
100
AcDbLine
 10
298.30513
 20
154.10886
 30
0.0
 11
286.19878
 21
154.10886
 31
0.0
  0
LINE
  5
355
330
1F
100
AcDbEntity
  8
SLD-0
  6
Continuous
 62
   179
100
AcDbLine
 10
287.50739
 20
152.85886
 30
0.0
 11
288.50739
 21
152.85886
 31
0.0
  0
LINE
  5
356
330
1F
100
AcDbEntity
  8
SLD-0
  6
CENTER
 62
   179
100
AcDbLine
 10
286.85968
 20
151.60886
 30
0.0
 11
293.40986
 21
151.60886
 31
0.0
  0
LINE
  5
357
330
1F
100
AcDbEntity
  8
SLD-0
  6
Continuous
 62
   179
100
AcDbLine
 10
289.60739
 20
155.35886
 30
0.0
 11
287.50739
 21
155.35886
 31
0.0
  0
LINE
  5
358
330
1F
100
AcDbEntity
  8
SLD-0
  6
CENTER
 62
   179
100
AcDbLine
 10
284.89978
 20
136.60886
 30
0.0
 11
293.30671
 21
136.60886
 31
0.0
  0
LINE
  5
359
330
1F
100
AcDbEntity
  8
SLD-0
  6
Continuous
 62
   179
100
AcDbLine
 10
288.50739
 20
135.35886
 30
0.0
 11
287.50739
 21
135.35886
 31
0.0
  0
LINE
  5
35A
330
1F
100
AcDbEntity
  8
SLD-0
  6
CENTER
 62
   179
100
AcDbLine
 10
286.19878
 20
134.10886
 30
0.0
 11
298.30513
 21
134.10886
 31
0.0
  0
LINE
  5
35B
330
1F
100
AcDbEntity
  8
SLD-0
  6
Continuous
 62
   179
100
AcDbLine
 10
289.60739
 20
132.85886
 30
0.0
 11
287.50739
 21
132.85886
 31
0.0
  0
LINE
  5
35C
330
1F
100
AcDbEntity
  8
SLD-0
  6
Continuous
 62
   179
100
AcDbLine
 10
17.5
 20
11.5
 30
0.0
 11
402.5
 21
11.5
 31
0.0
  0
LINE
  5
35D
330
1F
100
AcDbEntity
  8
SLD-0
  6
Continuous
 62
   179
100
AcDbLine
 10
402.5
 20
285.5
 30
0.0
 11
402.5
 21
11.5
 31
0.0
  0
LINE
  5
35E
330
1F
100
AcDbEntity
  8
SLD-0
  6
Continuous
 62
   179
100
AcDbLine
 10
17.5
 20
285.5
 30
0.0
 11
17.5
 21
11.5
 31
0.0
  0
LINE
  5
35F
330
1F
100
AcDbEntity
  8
SLD-0
  6
Continuous
 62
   179
100
AcDbLine
 10
17.5
 20
285.5
 30
0.0
 11
402.5
 21
285.5
 31
0.0
  0
LINE
  5
360
330
1F
100
AcDbEntity
  8
SLD-0
  6
Continuous
 62
   179
100
AcDbLine
 10
334.5
 20
50.0
 30
0.0
 11
334.5
 21
11.5
 31
0.0
  0
LINE
  5
361
330
1F
100
AcDbEntity
  8
SLD-0
  6
Continuous
 62
   179
100
AcDbLine
 10
334.5
 20
24.0
 30
0.0
 11
402.5
 21
24.0
 31
0.0
  0
LINE
  5
362
330
1F
100
AcDbEntity
  8
SLD-0
  6
Continuous
 62
   179
100
AcDbLine
 10
334.5
 20
36.5
 30
0.0
 11
402.5
 21
36.5
 31
0.0
  0
LINE
  5
363
330
1F
100
AcDbEntity
  8
SLD-0
  6
Continuous
 62
   179
100
AcDbLine
 10
334.5
 20
50.0
 30
0.0
 11
402.5
 21
50.0
 31
0.0
  0
LINE
  5
364
330
1F
100
AcDbEntity
  8
SLD-0
  6
Continuous
 62
   179
100
AcDbLine
 10
17.29999
 20
11.3
 30
0.0
 11
402.7
 21
11.3
 31
0.0
  0
LINE
  5
365
330
1F
100
AcDbEntity
  8
SLD-0
  6
Continuous
 62
   179
100
AcDbLine
 10
17.29999
 20
285.70001
 30
0.0
 11
17.29999
 21
11.3
 31
0.0
  0
LINE
  5
366
330
1F
100
AcDbEntity
  8
SLD-0
  6
Continuous
 62
   179
100
AcDbLine
 10
17.29999
 20
285.70001
 30
0.0
 11
402.7
 21
285.70001
 31
0.0
  0
LINE
  5
367
330
1F
100
AcDbEntity
  8
SLD-0
  6
Continuous
 62
   179
100
AcDbLine
 10
402.7
 20
285.70001
 30
0.0
 11
402.7
 21
11.3
 31
0.0
  0
CIRCLE
  5
368
330
1F
100
AcDbEntity
  8
SLD-0
  6
Continuous
 62
   179
100
AcDbCircle
 10
81.65311
 20
124.10886
 30
0.0
 40
4.25
  0
CIRCLE
  5
369
330
1F
100
AcDbEntity
  8
SLD-0
  6
Continuous
 62
   179
100
AcDbCircle
 10
81.65311
 20
124.10886
 30
0.0
 40
3.730385099999992
  0
CIRCLE
  5
36A
330
1F
100
AcDbEntity
  8
SLD-0
  6
Continuous
 62
   179
100
AcDbCircle
 10
81.65311
 20
144.10886
 30
0.0
 40
4.25
  0
CIRCLE
  5
36B
330
1F
100
AcDbEntity
  8
SLD-0
  6
Continuous
 62
   179
100
AcDbCircle
 10
81.65311
 20
144.10886
 30
0.0
 40
3.730385099999992
  0
ARC
  5
36C
330
1F
100
AcDbEntity
  8
SLD-0
  6
Continuous
 62
   179
100
AcDbCircle
 10
207.81367
 20
162.60886
 30
0.0
 40
1.0
100
AcDbArc
 50
90.0
 51
180.0
  0
ARC
  5
36D
330
1F
100
AcDbEntity
  8
SLD-0
  6
Continuous
 62
   179
100
AcDbCircle
 10
212.31367
 20
189.60886
 30
0.0
 40
5.0
100
AcDbArc
 50
0.0
 51
90.0
  0
CIRCLE
  5
36E
330
1F
100
AcDbEntity
  8
SLD-0
  6
Continuous
 62
   179
100
AcDbCircle
 10
201.31367
 20
134.10886
 30
0.0
 40
2.75
  0
CIRCLE
  5
36F
330
1F
100
AcDbEntity
  8
SLD-0
  6
Continuous
 62
   179
100
AcDbCircle
 10
201.31367
 20
134.10886
 30
0.0
 40
1.5
  0
CIRCLE
  5
370
330
1F
100
AcDbEntity
  8
SLD-0
  6
Continuous
 62
   179
100
AcDbCircle
 10
201.31367
 20
59.608856
 30
0.0
 40
2.0999999
  0
CIRCLE
  5
371
330
1F
100
AcDbEntity
  8
SLD-0
  6
Continuous
 62
   179
100
AcDbCircle
 10
201.31367
 20
43.608856
 30
0.0
 40
2.0999999
  0
CIRCLE
  5
372
330
1F
100
AcDbEntity
  8
SLD-0
  6
Continuous
 62
   179
100
AcDbCircle
 10
182.81367
 20
98.108856
 30
0.0
 40
2.1500001
  0
CIRCLE
  5
373
330
1F
100
AcDbEntity
  8
SLD-0
  6
Continuous
 62
   179
100
AcDbCircle
 10
182.81367
 20
108.108856
 30
0.0
 40
2.1500001
  0
ARC
  5
374
330
1F
100
AcDbEntity
  8
SLD-0
  6
Continuous
 62
   179
100
AcDbCircle
 10
169.81367
 20
153.68065
 30
0.0
 40
5.000000000000006
100
AcDbArc
 50
180.0
 51
210.0
  0
ARC
  5
375
330
1F
100
AcDbEntity
  8
SLD-0
  6
Continuous
 62
   179
100
AcDbCircle
 10
169.81367
 20
164.10886
 30
0.0
 40
5.0
100
AcDbArc
 50
90.0
 51
180.0
  0
ARC
  5
376
330
1F
100
AcDbEntity
  8
SLD-0
  6
Continuous
 62
   179
100
AcDbCircle
 10
211.31367
 20
168.60886
 30
0.0
 40
0.5
100
AcDbArc
 50
270.0
 51
90.0
  0
ARC
  5
377
330
1F
100
AcDbEntity
  8
SLD-0
  6
Continuous
 62
   179
100
AcDbCircle
 10
169.81367
 20
164.10886
 30
0.0
 40
4.000000000000004
100
AcDbArc
 50
90.0
 51
180.0
  0
ARC
  5
378
330
1F
100
AcDbEntity
  8
SLD-0
  6
Continuous
 62
   179
100
AcDbCircle
 10
181.66368
 20
152.14919
 30
0.0
 40
10.0
100
AcDbArc
 50
180.0
 51
195.00001
  0
ARC
  5
379
330
1F
100
AcDbEntity
  8
SLD-0
  6
Continuous
 62
   179
100
AcDbCircle
 10
181.66368
 20
152.14919
 30
0.0
 40
11.69999999999999
100
AcDbArc
 50
180.0
 51
195.0000410124
  0
CIRCLE
  5
37A
330
1F
100
AcDbEntity
  8
SLD-0
  6
Continuous
 62
   179
100
AcDbCircle
 10
188.81367
 20
151.60886
 30
0.0
 40
2.75
  0
CIRCLE
  5
37B
330
1F
100
AcDbEntity
  8
SLD-0
  6
Continuous
 62
   179
100
AcDbCircle
 10
188.81367
 20
136.60886
 30
0.0
 40
2.75
  0
ARC
  5
37C
330
1F
100
AcDbEntity
  8
SLD-0
  6
Continuous
 62
   179
100
AcDbCircle
 10
237.49336
 20
124.64877
 30
0.0
 40
0.9999999999999977
100
AcDbArc
 50
286.25703
 51
354.9969124472
  0
ARC
  5
37D
330
1F
100
AcDbEntity
  8
SLD-0
  6
Continuous
 62
   179
100
AcDbCircle
 10
235.81367
 20
130.40885
 30
0.0
 40
6.999999999999994
100
AcDbArc
 50
253.74297
 51
286.25703
  0
ARC
  5
37E
330
1F
100
AcDbEntity
  8
SLD-0
  6
Continuous
 62
   179
100
AcDbCircle
 10
234.134
 20
124.64877
 30
0.0
 40
1.000000000000005
100
AcDbArc
 50
184.99999
 51
253.74297
  0
ARC
  5
37F
330
1F
100
AcDbEntity
  8
SLD-0
  6
Continuous
 62
   179
100
AcDbCircle
 10
309.327713
 20
163.56895
 30
0.0
 40
1.000000000000006
100
AcDbArc
 50
106.25703
 51
174.9995410987
  0
ARC
  5
380
330
1F
100
AcDbEntity
  8
SLD-0
  6
Continuous
 62
   179
100
AcDbCircle
 10
311.007393
 20
157.80885
 30
0.0
 40
7.000006409363143
100
AcDbArc
 50
73.7429862981
 51
106.2570075322
  0
ARC
  5
381
330
1F
100
AcDbEntity
  8
SLD-0
  6
Continuous
 62
   179
100
AcDbCircle
 10
312.687073
 20
163.56895
 30
0.0
 40
1.000000796457681
100
AcDbArc
 50
4.9996657159
 51
73.7429401185
  0
CIRCLE
  5
382
330
1F
100
AcDbEntity
  8
SLD-0
  6
Continuous
 62
   179
100
AcDbCircle
 10
303.007393
 20
168.60886
 30
0.0
 40
1.5
  0
CIRCLE
  5
383
330
1F
100
AcDbEntity
  8
SLD-0
  6
Continuous
 62
   179
100
AcDbCircle
 10
303.007393
 20
201.60886
 30
0.0
 40
2.0
  0
ARC
  5
384
330
1F
100
AcDbEntity
  8
SLD-0
  6
Continuous
 62
   179
100
AcDbCircle
 10
186.56367
 20
237.746
 30
0.0
 40
0.5
100
AcDbArc
 50
180.0
 51
270.0
  0
ARC
  5
385
330
1F
100
AcDbEntity
  8
SLD-0
  6
Continuous
 62
   179
100
AcDbCircle
 10
191.06367
 20
237.746
 30
0.0
 40
0.5
100
AcDbArc
 50
270.0
 51
0.0
  0
CIRCLE
  5
386
330
1F
100
AcDbEntity
  8
SLD-0
  6
Continuous
 62
   179
100
AcDbCircle
 10
213.31367
 20
251.746
 30
0.0
 40
2.5
  0
ARC
  5
387
330
1F
100
AcDbEntity
  8
SLD-0
  6
Continuous
 62
   179
100
AcDbCircle
 10
199.93867
 20
242.31749
 30
0.0
 40
3.971486999999985
100
AcDbArc
 50
249.74384
 51
290.25616
  0
ARC
  5
388
330
1F
100
AcDbEntity
  8
SLD-0
  6
Continuous
 62
   179
100
AcDbCircle
 10
202.68867
 20
242.31749
 30
0.0
 40
3.971487015885457
100
AcDbArc
 50
249.743839379
 51
290.2561599154
  0
CIRCLE
  5
389
330
1F
100
AcDbEntity
  8
SLD-0
  6
Continuous
 62
   179
100
AcDbCircle
 10
179.81367
 20
251.746
 30
0.0
 40
1.5
  0
ARC
  5
38A
330
1F
100
AcDbEntity
  8
SLD-0
  6
Continuous
 62
   179
100
AcDbCircle
 10
238.06367
 20
237.746
 30
0.0
 40
0.5
100
AcDbArc
 50
270.0
 51
0.0
  0
ARC
  5
38B
330
1F
100
AcDbEntity
  8
SLD-0
  6
Continuous
 62
   179
100
AcDbCircle
 10
233.56367
 20
237.746
 30
0.0
 40
0.5
100
AcDbArc
 50
180.0
 51
270.0
  0
ARC
  5
38C
330
1F
100
AcDbEntity
  8
SLD-0
  6
Continuous
 62
   179
100
AcDbCircle
 10
187.81367
 20
175.60886
 30
0.0
 40
1.000000000000028
100
AcDbArc
 50
270.0
 51
0.0
  0
ARC
  5
38D
330
1F
100
AcDbEntity
  8
SLD-0
  6
Continuous
 62
   179
100
AcDbCircle
 10
208.81367
 20
175.60886
 30
0.0
 40
1.0
100
AcDbArc
 50
180.0
 51
270.0
  0
ARC
  5
38E
330
1F
100
AcDbEntity
  8
SLD-0
  6
Continuous
 62
   179
100
AcDbCircle
 10
194.81367
 20
162.60886
 30
0.0
 40
1.0
100
AcDbArc
 50
0.0
 51
90.0
  0
ARC
  5
38F
330
1F
100
AcDbEntity
  8
SLD-0
  6
Continuous
 62
   179
100
AcDbCircle
 10
188.81367
 20
130.40885
 30
0.0
 40
7.000000000000009
100
AcDbArc
 50
253.74297
 51
260.9589
  0
ARC
  5
390
330
1F
100
AcDbEntity
  8
SLD-0
  6
Continuous
 62
   179
100
AcDbCircle
 10
187.134
 20
124.64877
 30
0.0
 40
1.00000565278401
100
AcDbArc
 50
185.0002165173
 51
253.7430644452
  0
ARC
  5
391
330
1F
100
AcDbEntity
  8
SLD-0
  6
Continuous
 62
   179
100
AcDbCircle
 10
105.79874
 20
134.10886
 30
0.0
 40
5.254382126948888
100
AcDbArc
 50
342.4119765743
 51
357.2724289125
  0
ARC
  5
392
330
1F
100
AcDbEntity
  8
SLD-0
  6
Continuous
 62
   179
100
AcDbCircle
 10
106.07297
 20
130.91353
 30
0.0
 40
5.000001362579789
100
AcDbArc
 50
5.109875647
 51
18.755108984
  0
ARC
  5
393
330
1F
100
AcDbEntity
  8
SLD-0
  6
Continuous
 62
   179
100
AcDbCircle
 10
111.65311
 20
134.35886
 30
0.0
 40
0.5
100
AcDbArc
 50
270.0
 51
0.0
  0
ARC
  5
394
330
1F
100
AcDbEntity
  8
SLD-0
  6
Continuous
 62
   179
100
AcDbCircle
 10
111.65311
 20
138.85886
 30
0.0
 40
0.5
100
AcDbArc
 50
0.0
 51
90.0
  0
ARC
  5
395
330
1F
100
AcDbEntity
  8
SLD-0
  6
Continuous
 62
   179
100
AcDbCircle
 10
111.65311
 20
149.35886
 30
0.0
 40
0.5
100
AcDbArc
 50
270.0
 51
0.0
  0
ARC
  5
396
330
1F
100
AcDbEntity
  8
SLD-0
  6
Continuous
 62
   179
100
AcDbCircle
 10
111.65311
 20
153.85886
 30
0.0
 40
0.5
100
AcDbArc
 50
0.0
 51
90.0
  0
ARC
  5
397
330
1F
100
AcDbEntity
  8
SLD-0
  6
Continuous
 62
   179
100
AcDbCircle
 10
105.79874
 20
154.10886
 30
0.0
 40
5.254380200000043
100
AcDbArc
 50
2.7271259
 51
17.587954
  0
ARC
  5
398
330
1F
100
AcDbEntity
  8
SLD-0
  6
Continuous
 62
   179
100
AcDbCircle
 10
106.07297
 20
157.30418
 30
0.0
 40
5.000000471929953
100
AcDbArc
 50
341.2449240734
 51
354.8902384892
  0
ARC
  5
399
330
1F
100
AcDbEntity
  8
SLD-0
  6
HIDDEN
 62
   179
100
AcDbCircle
 10
97.65311
 20
167.60886
 30
0.0
 40
5.000000000000017
100
AcDbArc
 50
0.0
 51
4.833511
  0
ARC
  5
39A
330
1F
100
AcDbEntity
  8
SLD-0
  6
Continuous
 62
   179
100
AcDbCircle
 10
107.15311
 20
159.10886
 30
0.0
 40
10.0
100
AcDbArc
 50
90.0
 51
180.0
  0
ARC
  5
39B
330
1F
100
AcDbEntity
  8
SLD-0
  6
Continuous
 62
   179
100
AcDbCircle
 10
109.15311
 20
168.60886
 30
0.0
 40
0.5
100
AcDbArc
 50
270.0
 51
90.0
  0
ARC
  5
39C
330
1F
100
AcDbEntity
  8
SLD-0
  6
Continuous
 62
   179
100
AcDbCircle
 10
107.15311
 20
159.10886
 30
0.0
 40
9.0
100
AcDbArc
 50
90.0
 51
180.0
  0
ARC
  5
39D
330
1F
100
AcDbEntity
  8
SLD-0
  6
Continuous
 62
   179
100
AcDbCircle
 10
91.33279
 20
163.56895
 30
0.0
 40
1.000004781238544
100
AcDbArc
 50
4.9996457427
 51
73.7430508837
  0
ARC
  5
39E
330
1F
100
AcDbEntity
  8
SLD-0
  6
Continuous
 62
   179
100
AcDbCircle
 10
89.65311
 20
157.80885
 30
0.0
 40
7.000006409363159
100
AcDbArc
 50
73.7429926107
 51
106.2570147019
  0
ARC
  5
39F
330
1F
100
AcDbEntity
  8
SLD-0
  6
Continuous
 62
   179
100
AcDbCircle
 10
87.97342
 20
163.56895
 30
0.0
 40
1.000000000000004
100
AcDbArc
 50
106.2564833679
 51
175.00001
  0
ARC
  5
3A0
330
1F
100
AcDbEntity
  8
SLD-0
  6
Continuous
 62
   179
100
AcDbCircle
 10
95.65311
 20
196.60886
 30
0.0
 40
2.0
100
AcDbArc
 50
180.0
 51
270.0
  0
ARC
  5
3A1
330
1F
100
AcDbEntity
  8
SLD-0
  6
Continuous
 62
   179
100
AcDbCircle
 10
99.05643
 20
175.60886
 30
0.0
 40
1.000000000000024
100
AcDbArc
 50
200.0
 51
270.0
  0
ARC
  5
3A2
330
1F
100
AcDbEntity
  8
SLD-0
  6
Continuous
 62
   179
100
AcDbCircle
 10
93.70422
 20
181.31181
 30
0.0
 40
0.2000000000000239
100
AcDbArc
 50
273.0
 51
3.0000001
  0
ARC
  5
3A3
330
1F
100
AcDbEntity
  8
SLD-0
  6
Continuous
 62
   179
100
AcDbCircle
 10
185.81367
 20
251.746
 30
0.0
 40
1.499999999999996
100
AcDbArc
 50
70.528779
 51
289.47123
  0
CIRCLE
  5
3A4
330
1F
100
AcDbEntity
  8
SLD-0
  6
Continuous
 62
   179
100
AcDbCircle
 10
223.31367
 20
157.60886
 30
0.0
 40
2.0
  0
ARC
  5
3A5
330
1F
100
AcDbEntity
  8
SLD-0
  6
Continuous
 62
   179
100
AcDbCircle
 10
234.134
 20
163.56895
 30
0.0
 40
1.000004781238558
100
AcDbArc
 50
106.2569501163
 51
175.0003542573
  0
ARC
  5
3A6
330
1F
100
AcDbEntity
  8
SLD-0
  6
Continuous
 62
   179
100
AcDbCircle
 10
235.81367
 20
157.80885
 30
0.0
 40
7.000000000000008
100
AcDbArc
 50
73.742971
 51
106.25703
  0
ARC
  5
3A7
330
1F
100
AcDbEntity
  8
SLD-0
  6
Continuous
 62
   179
100
AcDbCircle
 10
237.49336
 20
163.56895
 30
0.0
 40
0.9999948192865936
100
AcDbArc
 50
4.999695676
 51
73.7434370762
  0
CIRCLE
  5
3A8
330
1F
100
AcDbEntity
  8
SLD-0
  6
Continuous
 62
   179
100
AcDbCircle
 10
235.81367
 20
136.60886
 30
0.0
 40
2.75
  0
CIRCLE
  5
3A9
330
1F
100
AcDbEntity
  8
SLD-0
  6
Continuous
 62
   179
100
AcDbCircle
 10
235.81367
 20
151.60886
 30
0.0
 40
2.75
  0
CIRCLE
  5
3AA
330
1F
100
AcDbEntity
  8
SLD-0
  6
Continuous
 62
   179
100
AcDbCircle
 10
223.31367
 20
130.60886
 30
0.0
 40
2.0
  0
ARC
  5
3AB
330
1F
100
AcDbEntity
  8
SLD-0
  6
Continuous
 62
   179
100
AcDbCircle
 10
219.31367
 20
117.37663
 30
0.0
 40
1.00000455208964
100
AcDbArc
 50
225.0
 51
315.0
  0
ARC
  5
3AC
330
1F
100
AcDbEntity
  8
SLD-0
  6
Continuous
 62
   179
100
AcDbCircle
 10
217.54591
 20
115.60886
 30
0.0
 40
0.9999974810468053
100
AcDbArc
 50
314.9995948566
 51
44.9995948566
  0
ARC
  5
3AD
330
1F
100
AcDbEntity
  8
SLD-0
  6
Continuous
 62
   179
100
AcDbCircle
 10
219.31367
 20
113.84109
 30
0.0
 40
1.000000000000018
100
AcDbArc
 50
45.000001
 51
135.0
  0
ARC
  5
3AE
330
1F
100
AcDbEntity
  8
SLD-0
  6
Continuous
 62
   179
100
AcDbCircle
 10
221.08145
 20
115.60886
 30
0.0
 40
0.999999999999998
100
AcDbArc
 50
135.0002608161
 51
225.0
  0
CIRCLE
  5
3AF
330
1F
100
AcDbEntity
  8
SLD-0
  6
Continuous
 62
   179
100
AcDbCircle
 10
219.31367
 20
115.60886
 30
0.0
 40
2.800000000000011
  0
ARC
  5
3B0
330
1F
100
AcDbEntity
  8
SLD-0
  6
Continuous
 62
   179
100
AcDbCircle
 10
219.31367
 20
90.376625
 30
0.0
 40
1.000001723666522
100
AcDbArc
 50
225.0006482232
 51
315.0001620567
  0
ARC
  5
3B1
330
1F
100
AcDbEntity
  8
SLD-0
  6
Continuous
 62
   179
100
AcDbCircle
 10
217.54591
 20
88.608856
 30
0.0
 40
1.00000384498309
100
AcDbArc
 50
315.0000405141
 51
44.9999594859
  0
ARC
  5
3B2
330
1F
100
AcDbEntity
  8
SLD-0
  6
Continuous
 62
   179
100
AcDbCircle
 10
219.31367
 20
86.841087
 30
0.0
 40
1.000005259196679
100
AcDbArc
 50
45.000040514
 51
134.9991492119
  0
ARC
  5
3B3
330
1F
100
AcDbEntity
  8
SLD-0
  6
Continuous
 62
   179
100
AcDbCircle
 10
221.08145
 20
88.608856
 30
0.0
 40
1.00000384498311
100
AcDbArc
 50
135.0000405141
 51
224.9999594859
  0
CIRCLE
  5
3B4
330
1F
100
AcDbEntity
  8
SLD-0
  6
Continuous
 62
   179
100
AcDbCircle
 10
219.31367
 20
88.608856
 30
0.0
 40
2.800000000000011
  0
CIRCLE
  5
3B5
330
1F
100
AcDbEntity
  8
SLD-0
  6
Continuous
 62
   179
100
AcDbCircle
 10
201.31367
 20
154.10886
 30
0.0
 40
1.5
  0
CIRCLE
  5
3B6
330
1F
100
AcDbEntity
  8
SLD-0
  6
Continuous
 62
   179
100
AcDbCircle
 10
201.31367
 20
154.10886
 30
0.0
 40
2.75
  0
CIRCLE
  5
3B7
330
1F
100
AcDbEntity
  8
SLD-0
  6
Continuous
 62
   179
100
AcDbCircle
 10
319.007393
 20
124.10886
 30
0.0
 40
2.0999999
  0
CIRCLE
  5
3B8
330
1F
100
AcDbEntity
  8
SLD-0
  6
Continuous
 62
   179
100
AcDbCircle
 10
319.007393
 20
144.10886
 30
0.0
 40
2.0999999
  0
ARC
  5
3B9
330
1F
100
AcDbEntity
  8
SLD-0
  6
HIDDEN
 62
   179
100
AcDbCircle
 10
95.15311
 20
88.861717
 30
0.0
 40
3.625000000000027
100
AcDbArc
 50
226.39718
 51
313.6028189727
  0
ARC
  5
3BA
330
1F
100
AcDbEntity
  8
SLD-0
  6
HIDDEN
 62
   179
100
AcDbCircle
 10
100.15311
 20
88.861717
 30
0.0
 40
3.625000000000027
100
AcDbArc
 50
226.3971810273
 51
313.60282
  0
ARC
  5
3BB
330
1F
100
AcDbEntity
  8
SLD-0
  6
HIDDEN
 62
   179
100
AcDbCircle
 10
100.15311
 20
83.861717
 30
0.0
 40
3.625000000000017
100
AcDbArc
 50
226.3971810273
 51
313.60282
  0
ARC
  5
3BC
330
1F
100
AcDbEntity
  8
SLD-0
  6
HIDDEN
 62
   179
100
AcDbCircle
 10
95.15311
 20
83.861717
 30
0.0
 40
3.625000000000017
100
AcDbArc
 50
226.39718
 51
313.6028189727
  0
ARC
  5
3BD
330
1F
100
AcDbEntity
  8
SLD-0
  6
HIDDEN
 62
   179
100
AcDbCircle
 10
100.15311
 20
111.233856
 30
0.0
 40
3.625000000000007
100
AcDbArc
 50
226.3971810273
 51
313.60282
  0
ARC
  5
3BE
330
1F
100
AcDbEntity
  8
SLD-0
  6
HIDDEN
 62
   179
100
AcDbCircle
 10
95.15311
 20
111.233856
 30
0.0
 40
3.625000000000007
100
AcDbArc
 50
226.39718
 51
313.6028189727
  0
CIRCLE
  5
3BF
330
1F
100
AcDbEntity
  8
SLD-0
  6
HIDDEN
 62
   179
100
AcDbCircle
 10
97.65311
 20
167.60886
 30
0.0
 40
3.1500001
  0
ARC
  5
3C0
330
1F
100
AcDbEntity
  8
SLD-0
  6
HIDDEN
 62
   179
100
AcDbCircle
 10
189.19736
 20
167.09116
 30
0.0
 40
100.0
100
AcDbArc
 50
153.56533
 51
162.8318315817
  0
ARC
  5
3C1
330
1F
100
AcDbEntity
  8
SLD-0
  6
CENTER
 62
   179
100
AcDbCircle
 10
169.81367
 20
164.10886
 30
0.0
 40
4.5
100
AcDbArc
 50
90.0
 51
180.0
  0
ARC
  5
3C2
330
1F
100
AcDbEntity
  8
SLD-0
  6
HIDDEN
 62
   179
100
AcDbCircle
 10
211.31367
 20
168.60886
 30
0.0
 40
0.5
100
AcDbArc
 50
90.0
 51
270.0
  0
ARC
  5
3C3
330
1F
100
AcDbEntity
  8
SLD-0
  6
HIDDEN
 62
   179
100
AcDbCircle
 10
205.6438
 20
109.15052
 30
0.0
 40
1.541669780885664
100
AcDbArc
 50
200.5698428029
 51
339.4290994497
  0
ARC
  5
3C4
330
1F
100
AcDbEntity
  8
SLD-0
  6
HIDDEN
 62
   179
100
AcDbCircle
 10
196.98355
 20
109.15052
 30
0.0
 40
1.541669780885638
100
AcDbArc
 50
200.5709005503
 51
339.4301571971
  0
ARC
  5
3C5
330
1F
100
AcDbEntity
  8
SLD-0
  6
HIDDEN
 62
   179
100
AcDbCircle
 10
201.31367
 20
112.27552
 30
0.0
 40
4.666666999999978
100
AcDbArc
 50
231.78679
 51
308.2131864477
  0
ARC
  5
3C6
330
1F
100
AcDbEntity
  8
SLD-0
  6
HIDDEN
 62
   179
100
AcDbCircle
 10
188.81367
 20
130.40885
 30
0.0
 40
7.000000000000009
100
AcDbArc
 50
260.9589
 51
286.25703
  0
ARC
  5
3C7
330
1F
100
AcDbEntity
  8
SLD-0
  6
HIDDEN
 62
   179
100
AcDbCircle
 10
190.49336
 20
124.64877
 30
0.0
 40
0.9999999999999977
100
AcDbArc
 50
286.25703
 51
354.9969124472
  0
ARC
  5
3C8
330
1F
100
AcDbEntity
  8
SLD-0
  6
HIDDEN
 62
   179
100
AcDbCircle
 10
164.91368
 20
142.16769
 30
0.0
 40
5.0
100
AcDbArc
 50
0.0
 51
30.000001
  0
ARC
  5
3C9
330
1F
100
AcDbEntity
  8
SLD-0
  6
HIDDEN
 62
   179
100
AcDbCircle
 10
164.91368
 20
142.16769
 30
0.0
 40
6.000011562130535
100
AcDbArc
 50
0.1124813682
 51
30.0000465203
  0
ARC
  5
3CA
330
1F
100
AcDbEntity
  8
SLD-0
  6
HIDDEN
 62
   179
100
AcDbCircle
 10
163.61368
 20
135.67034
 30
0.0
 40
10.00000414937915
100
AcDbArc
 50
0.0521950256
 51
15.0000502713
  0
ARC
  5
3CB
330
1F
100
AcDbEntity
  8
SLD-0
  6
HIDDEN
 62
   179
100
AcDbCircle
 10
163.61368
 20
135.67034
 30
0.0
 40
11.69999976260687
100
AcDbArc
 50
0.0740163448
 51
15.0000366738
  0
ARC
  5
3CC
330
1F
100
AcDbEntity
  8
SLD-0
  6
HIDDEN
 62
   179
100
AcDbCircle
 10
305.507393
 20
111.233856
 30
0.0
 40
3.625000000000007
100
AcDbArc
 50
226.3971810273
 51
313.60282
  0
ARC
  5
3CD
330
1F
100
AcDbEntity
  8
SLD-0
  6
HIDDEN
 62
   179
100
AcDbCircle
 10
300.50739
 20
111.233856
 30
0.0
 40
3.625002068966163
100
AcDbArc
 50
226.3972111443
 51
313.6028533093
  0
ARC
  5
3CE
330
1F
100
AcDbEntity
  8
SLD-0
  6
HIDDEN
 62
   179
100
AcDbCircle
 10
300.50739
 20
88.861717
 30
0.0
 40
3.625002068966173
100
AcDbArc
 50
226.3972111443
 51
313.6028533093
  0
ARC
  5
3CF
330
1F
100
AcDbEntity
  8
SLD-0
  6
HIDDEN
 62
   179
100
AcDbCircle
 10
305.507393
 20
88.861717
 30
0.0
 40
3.625000000000027
100
AcDbArc
 50
226.3971810273
 51
313.60282
  0
ARC
  5
3D0
330
1F
100
AcDbEntity
  8
SLD-0
  6
HIDDEN
 62
   179
100
AcDbCircle
 10
300.50739
 20
83.861717
 30
0.0
 40
3.625002068966163
100
AcDbArc
 50
226.3972111443
 51
313.6028533093
  0
CIRCLE
  5
3D1
330
1F
100
AcDbEntity
  8
SLD-0
  6
Continuous
 62
   179
100
AcDbCircle
 10
303.007393
 20
201.60886
 30
0.0
 40
1.649999999999977
  0
ARC
  5
3D2
330
1F
100
AcDbEntity
  8
SLD-0
  6
HIDDEN
 62
   179
100
AcDbCircle
 10
211.46313
 20
167.09116
 30
0.0
 40
100.0
100
AcDbArc
 50
17.168153
 51
26.434666
  0
ARC
  5
3D3
330
1F
100
AcDbEntity
  8
SLD-0
  6
HIDDEN
 62
   179
100
AcDbCircle
 10
305.007393
 20
196.60886
 30
0.0
 40
2.0
100
AcDbArc
 50
270.0
 51
0.1288428459
  0
ARC
  5
3D4
330
1F
100
AcDbEntity
  8
SLD-0
  6
HIDDEN
 62
   179
100
AcDbCircle
 10
301.60406
 20
175.60886
 30
0.0
 40
1.000007486326498
100
AcDbArc
 50
270.0
 51
339.9995551323
  0
CIRCLE
  5
3D5
330
1F
100
AcDbEntity
  8
SLD-0
  6
Continuous
 62
   179
100
AcDbCircle
 10
179.81367
 20
251.746
 30
0.0
 40
1.25
  0
CIRCLE
  5
3D6
330
1F
100
AcDbEntity
  8
SLD-0
  6
Continuous
 62
   179
100
AcDbCircle
 10
213.31367
 20
251.746
 30
0.0
 40
2.099999900000029
  0
CIRCLE
  5
3D7
330
1F
100
AcDbEntity
  8
SLD-0
  6
Continuous
 62
   179
100
AcDbCircle
 10
201.31367
 20
43.608856
 30
0.0
 40
2.5
  0
CIRCLE
  5
3D8
330
1F
100
AcDbEntity
  8
SLD-0
  6
Continuous
 62
   179
100
AcDbCircle
 10
201.31367
 20
59.608856
 30
0.0
 40
2.5
  0
ARC
  5
3D9
330
1F
100
AcDbEntity
  8
SLD-0
  6
HIDDEN
 62
   179
100
AcDbCircle
 10
196.98355
 20
81.778381
 30
0.0
 40
1.541669780885638
100
AcDbArc
 50
200.5709005503
 51
339.4301571971
  0
ARC
  5
3DA
330
1F
100
AcDbEntity
  8
SLD-0
  6
HIDDEN
 62
   179
100
AcDbCircle
 10
196.98355
 20
86.778381
 30
0.0
 40
1.541669780885638
100
AcDbArc
 50
200.5709005503
 51
339.4301571971
  0
ARC
  5
3DB
330
1F
100
AcDbEntity
  8
SLD-0
  6
HIDDEN
 62
   179
100
AcDbCircle
 10
205.6438
 20
81.778381
 30
0.0
 40
1.541669780885664
100
AcDbArc
 50
200.5698428029
 51
339.4290994497
  0
ARC
  5
3DC
330
1F
100
AcDbEntity
  8
SLD-0
  6
HIDDEN
 62
   179
100
AcDbCircle
 10
201.31367
 20
89.903381
 30
0.0
 40
4.66666699999999
100
AcDbArc
 50
231.78679
 51
308.2131864477
  0
ARC
  5
3DD
330
1F
100
AcDbEntity
  8
SLD-0
  6
HIDDEN
 62
   179
100
AcDbCircle
 10
205.6438
 20
86.778381
 30
0.0
 40
1.541669780885664
100
AcDbArc
 50
200.5698428029
 51
339.4290994497
  0
ARC
  5
3DE
330
1F
100
AcDbEntity
  8
SLD-0
  6
HIDDEN
 62
   179
100
AcDbCircle
 10
201.31367
 20
134.10886
 30
0.0
 40
3.5
100
AcDbArc
 50
180.0
 51
0.0
  0
ARC
  5
3DF
330
1F
100
AcDbEntity
  8
SLD-0
  6
HIDDEN
 62
   179
100
AcDbCircle
 10
201.31367
 20
154.10886
 30
0.0
 40
3.5
100
AcDbArc
 50
0.0
 51
180.0
  0
CIRCLE
  5
3E0
330
1F
100
AcDbEntity
  8
SLD-0
  6
Continuous
 62
   179
100
AcDbCircle
 10
201.31367
 20
134.10886
 30
0.0
 40
1.25
  0
CIRCLE
  5
3E1
330
1F
100
AcDbEntity
  8
SLD-0
  6
HIDDEN
 62
   179
100
AcDbCircle
 10
201.31367
 20
134.10886
 30
0.0
 40
2.0
  0
CIRCLE
  5
3E2
330
1F
100
AcDbEntity
  8
SLD-0
  6
HIDDEN
 62
   179
100
AcDbCircle
 10
201.31367
 20
134.10886
 30
0.0
 40
1.650000000000006
  0
ARC
  5
3E3
330
1F
100
AcDbEntity
  8
SLD-0
  6
HIDDEN
 62
   179
100
AcDbCircle
 10
201.31367
 20
139.10886
 30
0.0
 40
3.5
100
AcDbArc
 50
180.0
 51
0.0
  0
CIRCLE
  5
3E4
330
1F
100
AcDbEntity
  8
SLD-0
  6
HIDDEN
 62
   179
100
AcDbCircle
 10
201.31367
 20
144.10886
 30
0.0
 40
2.0250001
  0
ARC
  5
3E5
330
1F
100
AcDbEntity
  8
SLD-0
  6
HIDDEN
 62
   179
100
AcDbCircle
 10
201.31367
 20
149.10886
 30
0.0
 40
3.5
100
AcDbArc
 50
0.0
 51
180.0
  0
CIRCLE
  5
3E6
330
1F
100
AcDbEntity
  8
SLD-0
  6
HIDDEN
 62
   179
100
AcDbCircle
 10
201.31367
 20
154.10886
 30
0.0
 40
1.650000000000006
  0
CIRCLE
  5
3E7
330
1F
100
AcDbEntity
  8
SLD-0
  6
HIDDEN
 62
   179
100
AcDbCircle
 10
201.31367
 20
154.10886
 30
0.0
 40
2.0
  0
CIRCLE
  5
3E8
330
1F
100
AcDbEntity
  8
SLD-0
  6
Continuous
 62
   179
100
AcDbCircle
 10
201.31367
 20
154.10886
 30
0.0
 40
1.25
  0
CIRCLE
  5
3E9
330
1F
100
AcDbEntity
  8
SLD-0
  6
HIDDEN
 62
   179
100
AcDbCircle
 10
223.31367
 20
138.35886
 30
0.0
 40
1.650000000000006
  0
CIRCLE
  5
3EA
330
1F
100
AcDbEntity
  8
SLD-0
  6
HIDDEN
 62
   179
100
AcDbCircle
 10
223.31367
 20
138.35886
 30
0.0
 40
2.0
  0
CIRCLE
  5
3EB
330
1F
100
AcDbEntity
  8
SLD-0
  6
HIDDEN
 62
   179
100
AcDbCircle
 10
223.31367
 20
149.85886
 30
0.0
 40
2.0
  0
CIRCLE
  5
3EC
330
1F
100
AcDbEntity
  8
SLD-0
  6
HIDDEN
 62
   179
100
AcDbCircle
 10
223.31367
 20
149.85886
 30
0.0
 40
1.650000000000006
  0
ARC
  5
3ED
330
1F
100
AcDbEntity
  8
SLD-0
  6
HIDDEN
 62
   179
100
AcDbCircle
 10
305.507393
 20
83.861717
 30
0.0
 40
3.625000000000017
100
AcDbArc
 50
226.3971810273
 51
313.60282
  0
CIRCLE
  5
3EE
330
1F
100
AcDbEntity
  8
SLD-0
  6
Continuous
 62
   179
100
AcDbCircle
 10
319.007393
 20
144.10886
 30
0.0
 40
2.5
  0
CIRCLE
  5
3EF
330
1F
100
AcDbEntity
  8
SLD-0
  6
Continuous
 62
   179
100
AcDbCircle
 10
319.007393
 20
124.10886
 30
0.0
 40
2.5
  0
ARC
  5
3F0
330
1F
100
AcDbEntity
  8
SLD-0
  6
HIDDEN
 62
   179
100
AcDbCircle
 10
312.687073
 20
124.64877
 30
0.0
 40
1.000001668006606
100
AcDbArc
 50
286.2570021313
 51
354.9997635073
  0
ARC
  5
3F1
330
1F
100
AcDbEntity
  8
SLD-0
  6
HIDDEN
 62
   179
100
AcDbCircle
 10
311.007393
 20
130.40885
 30
0.0
 40
7.00000000000001
100
AcDbArc
 50
253.74297
 51
286.25703
  0
ARC
  5
3F2
330
1F
100
AcDbEntity
  8
SLD-0
  6
HIDDEN
 62
   179
100
AcDbCircle
 10
309.327713
 20
124.64877
 30
0.0
 40
1.000004656589705
100
AcDbArc
 50
185.0002215111
 51
253.7430478011
  0
CIRCLE
  5
3F3
330
1F
100
AcDbEntity
  8
SLD-0
  6
HIDDEN
 62
   179
100
AcDbCircle
 10
303.007393
 20
167.60886
 30
0.0
 40
3.1500001
  0
ARC
  5
3F4
330
1F
100
AcDbEntity
  8
SLD-0
  6
HIDDEN
 62
   179
100
AcDbCircle
 10
306.956261
 20
181.31181
 30
0.0
 40
0.1999942481673044
100
AcDbArc
 50
176.9991078653
 51
266.9996816262
  0
ARC
  5
3F5
330
1F
100
AcDbEntity
  8
SLD-0
  6
Continuous
 62
   179
100
AcDbCircle
 10
185.81367
 20
251.746
 30
0.0
 40
1.250000000000011
100
AcDbArc
 50
66.421821
 51
293.57817
  0
ARC
  5
3F6
330
1F
100
AcDbEntity
  8
SLD-0
  6
HIDDEN
 62
   179
100
AcDbCircle
 10
201.31367
 20
84.903381
 30
0.0
 40
4.666666999999978
100
AcDbArc
 50
231.78679
 51
308.2131864477
  0
CIRCLE
  5
3F7
330
1F
100
AcDbEntity
  8
SLD-0
  6
Continuous
 62
   179
100
AcDbCircle
 10
191.48898
 20
116.66978
 30
0.0
 40
0.3000000099999909
  0
CIRCLE
  5
3F8
330
1F
100
AcDbEntity
  8
SLD-0
  6
Continuous
 62
   179
100
AcDbCircle
 10
191.48898
 20
116.66978
 30
0.0
 40
0.1500000100000136
  0
ARC
  5
3F9
330
1F
100
AcDbEntity
  8
SLD-0
  6
HIDDEN
 62
   179
100
AcDbCircle
 10
211.31367
 20
168.60886
 30
0.0
 40
0.6000000199999998
100
AcDbArc
 50
123.55732
 51
236.44268
  0
ARC
  5
3FA
330
1F
100
AcDbEntity
  8
SLD-0
  6
Continuous
 62
   179
100
AcDbCircle
 10
211.31367
 20
168.60886
 30
0.0
 40
0.6000000199999998
100
AcDbArc
 50
236.44268
 51
123.55732
  0
ARC
  5
3FB
330
1F
100
AcDbEntity
  8
SLD-0
  6
Continuous
 62
   179
100
AcDbCircle
 10
97.65311
 20
167.60886
 30
0.0
 40
5.000000000000017
100
AcDbArc
 50
4.833511
 51
180.0
  0
ARC
  5
3FC
330
1F
100
AcDbEntity
  8
SLD-0
  6
Continuous
 62
   179
100
AcDbCircle
 10
294.86177
 20
134.10886
 30
0.0
 40
5.254382126948888
100
AcDbArc
 50
182.7275710875
 51
197.5880234257
  0
ARC
  5
3FD
330
1F
100
AcDbEntity
  8
SLD-0
  6
Continuous
 62
   179
100
AcDbCircle
 10
294.58752
 20
130.91353
 30
0.0
 40
5.000001362579789
100
AcDbArc
 50
161.24494065
 51
174.890124353
  0
ARC
  5
3FE
330
1F
100
AcDbEntity
  8
SLD-0
  6
Continuous
 62
   179
100
AcDbCircle
 10
289.00739
 20
134.35886
 30
0.0
 40
0.5
100
AcDbArc
 50
180.0
 51
270.0
  0
ARC
  5
3FF
330
1F
100
AcDbEntity
  8
SLD-0
  6
Continuous
 62
   179
100
AcDbCircle
 10
289.00739
 20
138.85886
 30
0.0
 40
0.5
100
AcDbArc
 50
90.0
 51
180.0
  0
ARC
  5
400
330
1F
100
AcDbEntity
  8
SLD-0
  6
Continuous
 62
   179
100
AcDbCircle
 10
289.00739
 20
149.35886
 30
0.0
 40
0.5
100
AcDbArc
 50
180.0
 51
270.0
  0
ARC
  5
401
330
1F
100
AcDbEntity
  8
SLD-0
  6
Continuous
 62
   179
100
AcDbCircle
 10
289.00739
 20
153.85886
 30
0.0
 40
0.5
100
AcDbArc
 50
90.0
 51
180.0
  0
ARC
  5
402
330
1F
100
AcDbEntity
  8
SLD-0
  6
Continuous
 62
   179
100
AcDbCircle
 10
294.86177
 20
154.10886
 30
0.0
 40
5.254380199999984
100
AcDbArc
 50
162.41205
 51
177.27287
  0
ARC
  5
403
330
1F
100
AcDbEntity
  8
SLD-0
  6
Continuous
 62
   179
100
AcDbCircle
 10
294.58752
 20
157.30418
 30
0.0
 40
5.00000270044927
100
AcDbArc
 50
185.1100470891
 51
198.7551045001
  0
POINT
  5
404
330
1F
100
AcDbEntity
  8
SLD-0
100
AcDbPoint
 10
17.5
 20
11.5
 30
0.0
  0
POINT
  5
405
330
1F
100
AcDbEntity
  8
SLD-0
100
AcDbPoint
 10
17.5
 20
285.5
 30
0.0
  0
POINT
  5
406
330
1F
100
AcDbEntity
  8
SLD-0
100
AcDbPoint
 10
402.5
 20
285.5
 30
0.0
  0
POINT
  5
407
330
1F
100
AcDbEntity
  8
SLD-0
100
AcDbPoint
 10
402.5
 20
11.5
 30
0.0
  0
MTEXT
  5
409
330
1F
100
AcDbEntity
  8
SLD-0
 62
     7
100
AcDbMText
 10
200.3248705578
 20
80.951474
 30
0.0
 40
3.0
 41
0.0
 71
     1
 72
     1
  1
NKH20-25
  7
SLDTEXTSTYLE5
 11
6.123031769111886E-17
 21
1.0
 31
0.0
 73
     1
 44
1.0
  0
MTEXT
  5
40B
330
1F
100
AcDbEntity
  8
SLD-0
 62
     7
100
AcDbMText
 10
183.02872
 20
75.5976554422
 30
0.0
 40
3.0
 41
0.0
 71
     1
 72
     1
  1
VESSEL
  7
SLDTEXTSTYLE6
 73
     1
 44
1.0
  0
MTEXT
  5
40D
330
1F
100
AcDbEntity
  8
SLD-0
 62
     7
100
AcDbMText
 10
340.390472
 20
47.0616092496
 30
0.0
 40
4.8000002
 41
0.0
 71
     1
 72
     1
  1
ヒートエアニッパーセット
  7
SLDTEXTSTYLE7
 73
     1
 44
1.0
  0
MTEXT
  5
40F
330
1F
100
AcDbEntity
  8
SLD-0
 62
     7
100
AcDbMText
 10
349.761972
 20
40.9168255369
 30
0.0
 40
3.2
 41
0.0
 71
     1
 72
     1
  1
（ＧＴ－ＮＫＨシリーズ）
  7
SLDTEXTSTYLE8
 73
     1
 44
1.0
  0
MTEXT
  5
411
330
1F
100
AcDbEntity
  8
SLD-0
 62
     7
100
AcDbMText
 10
349.021946
 20
31.7589722496
 30
0.0
 40
4.8000002
 41
0.0
 71
     1
 72
     1
  1
ＧＴ－ＮＫＨ２０
  7
SLDTEXTSTYLE9
 73
     1
 44
1.0
  0
MTEXT
  5
413
330
1F
100
AcDbEntity
  8
SLD-0
 62
     7
100
AcDbMText
 10
354.596765
 20
18.9744913496
 30
0.0
 40
4.8000002
 41
0.0
 71
     1
 72
     1
  1
０６０３５６
  7
SLDTEXTSTYLE10
 73
     1
 44
1.0
  0
INSERT
  5
414
330
1F
100
AcDbEntity
  8
0
  6
Continuous
 62
     7
370
     0
100
AcDbBlockReference
  2
KOZU0001
 10
320.343145
 20
146.22209
 30
0.0
  0
INSERT
  5
415
330
1F
100
AcDbEntity
  8
0
  6
Continuous
 62
     7
370
     0
100
AcDbBlockReference
  2
KOZU0002
 10
202.30408
 20
41.313401
 30
0.0
  0
INSERT
  5
416
330
1F
100
AcDbEntity
  8
0
  6
Continuous
 62
     7
370
     0
100
AcDbBlockReference
  2
KOZU0003
 10
232.71357
 20
74.677155
 30
0.0
  0
INSERT
  5
417
330
1F
100
AcDbEntity
  8
0
  6
Continuous
 62
     7
370
     0
100
AcDbBlockReference
  2
KOZU0004
 10
315.295015
 20
54.187167
 30
0.0
  0
ENDSEC
  0
SECTION
  2
OBJECTS
  0
DICTIONARY
  5
C
330
0
100
AcDbDictionary
281
     1
  3
ACAD_GROUP
350
D
  3
ACAD_LAYOUT
350
1A
  3
ACAD_MLINESTYLE
350
17
  3
ACAD_PLOTSETTINGS
350
19
  3
ACAD_PLOTSTYLENAME
350
E
  0
DICTIONARY
  5
D
102
{ACAD_REACTORS
330
C
102
}
330
C
100
AcDbDictionary
281
     1
  0
DICTIONARY
  5
1A
102
{ACAD_REACTORS
330
C
102
}
330
C
100
AcDbDictionary
281
     1
  3
Layout1
350
1E
  3
Layout2
350
26
  3
Model
350
22
  0
DICTIONARY
  5
17
102
{ACAD_REACTORS
330
C
102
}
330
C
100
AcDbDictionary
281
     1
  3
Standard
350
18
  0
DICTIONARY
  5
19
102
{ACAD_REACTORS
330
C
102
}
330
C
100
AcDbDictionary
281
     1
  0
ACDBDICTIONARYWDFLT
  5
E
102
{ACAD_REACTORS
330
C
102
}
330
C
100
AcDbDictionary
281
     1
  3
Normal
350
F
100
AcDbDictionaryWithDefault
340
F
  0
LAYOUT
  5
1E
102
{ACAD_REACTORS
330
1A
102
}
330
1A
100
AcDbPlotSettings
  1

  2

  4

  6

 40
0.0
 41
0.0
 42
0.0
 43
0.0
 44
0.0
 45
0.0
 46
0.0
 47
0.0
 48
0.0
 49
0.0
140
0.0
141
0.0
142
1.0
143
1.0
 70
   688
 72
     0
 73
     0
 74
     5
  7

 75
    16
147
1.0
148
0.0
149
0.0
100
AcDbLayout
  1
Layout1
 70
     1
 71
     1
 10
0.0
 20
0.0
 11
0.0
 21
0.0
 12
0.0
 22
0.0
 32
0.0
 14
0.0
 24
0.0
 34
0.0
 15
0.0
 25
0.0
 35
0.0
146
0.0
 13
0.0
 23
0.0
 33
0.0
 16
1.0
 26
0.0
 36
0.0
 17
0.0
 27
1.0
 37
0.0
 76
     0
330
1B
  0
LAYOUT
  5
26
102
{ACAD_REACTORS
330
1A
102
}
330
1A
100
AcDbPlotSettings
  1

  2

  4

  6

 40
0.0
 41
0.0
 42
0.0
 43
0.0
 44
0.0
 45
0.0
 46
0.0
 47
0.0
 48
0.0
 49
0.0
140
0.0
141
0.0
142
1.0
143
1.0
 70
   688
 72
     0
 73
     0
 74
     5
  7

 75
    16
147
1.0
148
0.0
149
0.0
100
AcDbLayout
  1
Layout2
 70
     1
 71
     2
 10
0.0
 20
0.0
 11
0.0
 21
0.0
 12
0.0
 22
0.0
 32
0.0
 14
0.0
 24
0.0
 34
0.0
 15
0.0
 25
0.0
 35
0.0
146
0.0
 13
0.0
 23
0.0
 33
0.0
 16
1.0
 26
0.0
 36
0.0
 17
0.0
 27
1.0
 37
0.0
 76
     0
330
23
  0
LAYOUT
  5
22
102
{ACAD_REACTORS
330
1A
102
}
330
1A
100
AcDbPlotSettings
  1

  2

  4

  6

 40
0.0
 41
0.0
 42
0.0
 43
0.0
 44
0.0
 45
0.0
 46
0.0
 47
0.0
 48
0.0
 49
0.0
140
0.0
141
0.0
142
1.0
143
1.0
 70
  1712
 72
     0
 73
     0
 74
     0
  7

 75
     0
147
1.0
148
0.0
149
0.0
100
AcDbLayout
  1
Model
 70
     1
 71
     0
 10
0.0
 20
0.0
 11
0.0
 21
0.0
 12
0.0
 22
0.0
 32
0.0
 14
0.0
 24
0.0
 34
0.0
 15
420.0
 25
297.0
 35
0.0
146
0.0
 13
0.0
 23
0.0
 33
0.0
 16
1.0
 26
0.0
 36
0.0
 17
0.0
 27
1.0
 37
0.0
 76
     0
330
1F
  0
MLINESTYLE
  5
18
102
{ACAD_REACTORS
330
17
102
}
330
17
100
AcDbMlineStyle
  2
Standard
 70
     0
  3

 62
   256
 51
90.0
 52
90.0
 71
     2
 49
0.5
 62
   256
  6
BYLAYER
 49
-0.5
 62
   256
  6
BYLAYER
  0
ACDBPLACEHOLDER
  5
F
102
{ACAD_REACTORS
330
E
102
}
330
E
  0
ENDSEC
  0
EOF
