  0
SECTION
  2
HEADER
  9
$ACADVER
  1
AC1015
  9
$ACADMAINTVER
 70
     6
  9
$DWGCODEPAGE
  3
DOS932
  9
$INSBASE
 10
0.0
 20
0.0
 30
0.0
  9
$EXTMIN
 10
0.0
 20
0.0
 30
0.0
  9
$EXTMAX
 10
420.0
 20
297.0
 30
0.0
  9
$LIMMIN
 10
0.0
 20
0.0
  9
$LIMMAX
 10
0.0
 20
0.0
  9
$ORTHOMODE
 70
     0
  9
$REGENMODE
 70
     1
  9
$FILLMODE
 70
     1
  9
$QTEXTMODE
 70
     0
  9
$MIRRTEXT
 70
     1
  9
$LTSCALE
 40
1.0
  9
$ATTMODE
 70
     1
  9
$TEXTSIZE
 40
3.5
  9
$TRACEWID
 40
1.0
  9
$TEXTSTYLE
  7
Standard
  9
$CLAYER
  8
0
  9
$CELTYPE
  6
ByLayer
  9
$CECOLOR
 62
   256
  9
$CELTSCALE
 40
1.0
  9
$DISPSILH
 70
     0
  9
$DIMSCALE
 40
1.0
  9
$DIMASZ
 40
3.0
  9
$DIMEXO
 40
1.0
  9
$DIMDLI
 40
3.75
  9
$DIMRND
 40
0.0
  9
$DIMDLE
 40
0.0
  9
$DIMEXE
 40
1.0
  9
$DIMTP
 40
0.0
  9
$DIMTM
 40
0.0
  9
$DIMTXT
 40
3.2
  9
$DIMCEN
 40
2.5
  9
$DIMTSZ
 40
0.0
  9
$DIMTOL
 70
     0
  9
$DIMLIM
 70
     0
  9
$DIMTIH
 70
     1
  9
$DIMTOH
 70
     1
  9
$DIMSE1
 70
     0
  9
$DIMSE2
 70
     0
  9
$DIMTAD
 70
     1
  9
$DIMZIN
 70
     1
  9
$DIMBLK
  1

  9
$DIMASO
 70
     1
  9
$DIMSHO
 70
     1
  9
$DIMPOST
  1

  9
$DIMAPOST
  1

  9
$DIMALT
 70
     0
  9
$DIMALTD
 70
     3
  9
$DIMALTF
 40
0.0393700787
  9
$DIMLFAC
 40
1.0
  9
$DIMTOFL
 70
     1
  9
$DIMTVP
 40
0.0
  9
$DIMTIX
 70
     0
  9
$DIMSOXD
 70
     0
  9
$DIMSAH
 70
     0
  9
$DIMBLK1
  1

  9
$DIMBLK2
  1

  9
$DIMSTYLE
  2
ISO-25
  9
$DIMCLRD
 70
     0
  9
$DIMCLRE
 70
     0
  9
$DIMCLRT
 70
     0
  9
$DIMTFAC
 40
1.0
  9
$DIMGAP
 40
1.524
  9
$DIMJUST
 70
     0
  9
$DIMSD1
 70
     0
  9
$DIMSD2
 70
     0
  9
$DIMTOLJ
 70
     0
  9
$DIMTZIN
 70
     1
  9
$DIMALTZ
 70
     0
  9
$DIMALTTZ
 70
     0
  9
$DIMUPT
 70
     0
  9
$DIMDEC
 70
     2
  9
$DIMTDEC
 70
     2
  9
$DIMALTU
 70
     2
  9
$DIMALTTD
 70
     3
  9
$DIMTXSTY
  7
Standard
  9
$DIMAUNIT
 70
     0
  9
$DIMADEC
 70
     0
  9
$DIMALTRND
 40
0.0
  9
$DIMAZIN
 70
     0
  9
$DIMDSEP
 70
    44
  9
$DIMATFIT
 70
     3
  9
$DIMFRAC
 70
     0
  9
$DIMLDRBLK
  1

  9
$DIMLUNIT
 70
     2
  9
$DIMLWD
 70
    -2
  9
$DIMLWE
 70
    -2
  9
$DIMTMOVE
 70
     0
  9
$LUNITS
 70
     2
  9
$LUPREC
 70
     4
  9
$SKETCHINC
 40
1.0
  9
$FILLETRAD
 40
10.0
  9
$AUNITS
 70
     0
  9
$AUPREC
 70
     0
  9
$MENU
  1
.
  9
$ELEVATION
 40
0.0
  9
$PELEVATION
 40
0.0
  9
$THICKNESS
 40
0.0
  9
$LIMCHECK
 70
     0
  9
$CHAMFERA
 40
10.0
  9
$CHAMFERB
 40
10.0
  9
$CHAMFERC
 40
20.0
  9
$CHAMFERD
 40
0.0
  9
$SKPOLY
 70
     0
  9
$TDCREATE
 40
2454307.543013055
  9
$TDUCREATE
 40
2454307.168013055
  9
$TDUPDATE
 40
2454307.543013067
  9
$TDUUPDATE
 40
2454307.168013067
  9
$TDINDWG
 40
0.0000000116
  9
$TDUSRTIMER
 40
0.0000000116
  9
$USRTIMER
 70
     1
  9
$ANGBASE
 50
0.0
  9
$ANGDIR
 70
     0
  9
$PDMODE
 70
     0
  9
$PDSIZE
 40
-1.0
  9
$PLINEWID
 40
0.0
  9
$SPLFRAME
 70
     0
  9
$SPLINETYPE
 70
     6
  9
$SPLINESEGS
 70
     8
  9
$HANDSEED
  5
2FA
  9
$SURFTAB1
 70
     6
  9
$SURFTAB2
 70
     6
  9
$SURFTYPE
 70
     6
  9
$SURFU
 70
     6
  9
$SURFV
 70
     6
  9
$UCSBASE
  2

  9
$UCSNAME
  2

  9
$UCSORG
 10
0.0
 20
0.0
 30
0.0
  9
$UCSXDIR
 10
1.0
 20
0.0
 30
0.0
  9
$UCSYDIR
 10
0.0
 20
1.0
 30
0.0
  9
$UCSORTHOREF
  2

  9
$UCSORTHOVIEW
 70
     0
  9
$UCSORGTOP
 10
0.0
 20
0.0
 30
0.0
  9
$UCSORGBOTTOM
 10
0.0
 20
0.0
 30
0.0
  9
$UCSORGLEFT
 10
0.0
 20
0.0
 30
0.0
  9
$UCSORGRIGHT
 10
0.0
 20
0.0
 30
0.0
  9
$UCSORGFRONT
 10
0.0
 20
0.0
 30
0.0
  9
$UCSORGBACK
 10
0.0
 20
0.0
 30
0.0
  9
$PUCSBASE
  2

  9
$PUCSNAME
  2

  9
$PUCSORG
 10
0.0
 20
0.0
 30
0.0
  9
$PUCSXDIR
 10
1.0
 20
0.0
 30
0.0
  9
$PUCSYDIR
 10
0.0
 20
1.0
 30
0.0
  9
$PUCSORTHOREF
  2

  9
$PUCSORTHOVIEW
 70
     0
  9
$PUCSORGTOP
 10
0.0
 20
0.0
 30
0.0
  9
$PUCSORGBOTTOM
 10
0.0
 20
0.0
 30
0.0
  9
$PUCSORGLEFT
 10
0.0
 20
0.0
 30
0.0
  9
$PUCSORGRIGHT
 10
0.0
 20
0.0
 30
0.0
  9
$PUCSORGFRONT
 10
0.0
 20
0.0
 30
0.0
  9
$PUCSORGBACK
 10
0.0
 20
0.0
 30
0.0
  9
$USERI1
 70
     0
  9
$USERI2
 70
     0
  9
$USERI3
 70
     0
  9
$USERI4
 70
     0
  9
$USERI5
 70
     0
  9
$USERR1
 40
0.0
  9
$USERR2
 40
0.0
  9
$USERR3
 40
0.0
  9
$USERR4
 40
0.0
  9
$USERR5
 40
0.0
  9
$WORLDVIEW
 70
     1
  9
$SHADEDGE
 70
     3
  9
$SHADEDIF
 70
    70
  9
$TILEMODE
 70
     1
  9
$MAXACTVP
 70
    64
  9
$PINSBASE
 10
0.0
 20
0.0
 30
0.0
  9
$PLIMCHECK
 70
     0
  9
$PEXTMIN
 10
1.0000000000E+20
 20
1.0000000000E+20
 30
1.0000000000E+20
  9
$PEXTMAX
 10
-1.0000000000E+20
 20
-1.0000000000E+20
 30
-1.0000000000E+20
  9
$PLIMMIN
 10
0.0
 20
0.0
  9
$PLIMMAX
 10
420.0
 20
297.0
  9
$UNITMODE
 70
     0
  9
$VISRETAIN
 70
     1
  9
$PLINEGEN
 70
     0
  9
$PSLTSCALE
 70
     1
  9
$TREEDEPTH
 70
  3020
  9
$CMLSTYLE
  2
Standard
  9
$CMLJUST
 70
     0
  9
$CMLSCALE
 40
20.0
  9
$PROXYGRAPHICS
 70
     1
  9
$MEASUREMENT
 70
     1
  9
$CELWEIGHT
370
    -1
  9
$ENDCAPS
280
     0
  9
$JOINSTYLE
280
     0
  9
$LWDISPLAY
290
     1
  9
$INSUNITS
 70
     4
  9
$HYPERLINKBASE
  1

  9
$STYLESHEET
  1

  9
$XEDIT
290
     1
  9
$CEPSNTYPE
380
     0
  9
$PSTYLEMODE
290
     1
  9
$FINGERPRINTGUID
  2
{70A6EC13-7B86-4A9B-A097-92DC5583AEC3}
  9
$VERSIONGUID
  2
{FAEB1C32-E019-11D5-929B-00C0DF256EC4}
  9
$EXTNAMES
290
     1
  9
$PSVPSCALE
 40
0.0
  9
$OLESTARTUP
290
     0
  0
ENDSEC
  0
SECTION
  2
CLASSES
  0
CLASS
  1
ACDBDICTIONARYWDFLT
  2
AcDbDictionaryWithDefault
  3
ObjectDBX Classes
 90
        0
280
     0
281
     0
  0
CLASS
  1
ACDBPLACEHOLDER
  2
AcDbPlaceHolder
  3
ObjectDBX Classes
 90
        0
280
     0
281
     0
  0
CLASS
  1
LAYOUT
  2
AcDbLayout
  3
ObjectDBX Classes
 90
        0
280
     0
281
     0
  0
ENDSEC
  0
SECTION
  2
TABLES
  0
TABLE
  2
VPORT
  5
8
330
0
100
AcDbSymbolTable
 70
     1
  0
VPORT
  5
29
330
8
100
AcDbSymbolTableRecord
100
AcDbViewportTableRecord
  2
*Active
 70
     0
 10
0.0
 20
0.0
 11
1.0
 21
1.0
 12
210.0
 22
148.5
 13
0.0
 23
0.0
 14
10.0
 24
10.0
 15
10.0
 25
10.0
 16
0.0
 26
0.0
 36
1.0
 17
0.0
 27
0.0
 37
0.0
 40
297.0
 41
1.9729729729
 42
50.0
 43
0.0
 44
0.0
 50
0.0
 51
0.0
 71
     0
 72
  2000
 73
     1
 74
     3
 75
     0
 76
     0
 77
     0
 78
     0
281
     0
 65
     1
110
0.0
120
0.0
130
0.0
111
1.0
121
0.0
131
0.0
112
0.0
122
1.0
132
0.0
 79
     0
146
0.0
  0
ENDTAB
  0
TABLE
  2
LTYPE
  5
5
330
0
100
AcDbSymbolTable
 70
     6
  0
LTYPE
  5
14
330
5
100
AcDbSymbolTableRecord
100
AcDbLinetypeTableRecord
  2
ByBlock
 70
     0
  3

 72
    65
 73
     0
 40
0.0
  0
LTYPE
  5
15
330
5
100
AcDbSymbolTableRecord
100
AcDbLinetypeTableRecord
  2
ByLayer
 70
     0
  3

 72
    65
 73
     0
 40
0.0
  0
LTYPE
  5
16
330
5
100
AcDbSymbolTableRecord
100
AcDbLinetypeTableRecord
  2
Continuous
 70
     0
  3
Solid line
 72
    65
 73
     0
 40
0.0
  0
LTYPE
  5
2A
330
5
100
AcDbSymbolTableRecord
100
AcDbLinetypeTableRecord
  2
HIDDEN
 70
     0
  3
Hidden __ __ __ __ __ __ __ __ __ __ __ __ __ __
 72
    65
 73
     2
 40
1.905
 49
1.27
 74
     0
 49
-0.635
 74
     0
  0
LTYPE
  5
2B
330
5
100
AcDbSymbolTableRecord
100
AcDbLinetypeTableRecord
  2
PHANTOM
 70
     0
  3
Phantom ______  __  __  ______  __  __  ______
 72
    65
 73
     6
 40
12.7
 49
6.35
 74
     0
 49
-1.27
 74
     0
 49
1.27
 74
     0
 49
-1.27
 74
     0
 49
1.27
 74
     0
 49
-1.27
 74
     0
  0
LTYPE
  5
2C
330
5
100
AcDbSymbolTableRecord
100
AcDbLinetypeTableRecord
  2
CENTER
 70
     0
  3
Center ____ _ ____ _ ____ _ ____ _ ____ _ ____
 72
    65
 73
     4
 40
10.16
 49
6.35
 74
     0
 49
-1.27
 74
     0
 49
1.27
 74
     0
 49
-1.27
 74
     0
  0
LTYPE
  5
2D
330
5
100
AcDbSymbolTableRecord
100
AcDbLinetypeTableRecord
  2
CENTERX2
 70
     0
  3
Center (2x) ________  __  ________  __  _____
 72
    65
 73
     4
 40
20.32
 49
12.7
 74
     0
 49
-2.54
 74
     0
 49
2.54
 74
     0
 49
-2.54
 74
     0
  0
LTYPE
  5
2E
330
5
100
AcDbSymbolTableRecord
100
AcDbLinetypeTableRecord
  2
DOT2
 70
     0
  3
Dot (.5x) ........................................
 72
    65
 73
     2
 40
0.635
 49
0.0
 74
     0
 49
-0.635
 74
     0
  0
ENDTAB
  0
TABLE
  2
LAYER
  5
2
330
0
100
AcDbSymbolTable
 70
     2
  0
LAYER
  5
10
330
2
100
AcDbSymbolTableRecord
100
AcDbLayerTableRecord
  2
0
 70
     0
 62
     7
  6
Continuous
370
    -3
390
F
  0
LAYER
  5
2F
330
2
100
AcDbSymbolTableRecord
100
AcDbLayerTableRecord
  2
SLD-0
 70
     0
 62
   179
  6
Continuous
370
     0
390
F
  0
ENDTAB
  0
TABLE
  2
STYLE
  5
3
330
0
100
AcDbSymbolTable
 70
    13
  0
STYLE
  5
11
330
3
100
AcDbSymbolTableRecord
100
AcDbTextStyleTableRecord
  2
Standard
 70
     0
 40
0.0
 41
1.0
 50
0.0
 71
     0
 42
2.5
  3
txt
  4
bigfont
  0
STYLE
  5
38
330
3
100
AcDbSymbolTableRecord
100
AcDbTextStyleTableRecord
  2
SLDTEXTSTYLE0
 70
     0
 40
0.0
 41
0.6212091789
 50
0.0
 71
     0
 42
0.2
  3
TXT
  4
bigfont
  0
STYLE
  5
43
330
3
100
AcDbSymbolTableRecord
100
AcDbTextStyleTableRecord
  2
SLDTEXTSTYLE1
 70
     0
 40
0.0
 41
0.6272516084
 50
0.0
 71
     0
 42
0.2
  3
TXT
  4
bigfont
  0
STYLE
  5
4D
330
3
100
AcDbSymbolTableRecord
100
AcDbTextStyleTableRecord
  2
SLDTEXTSTYLE2
 70
     0
 40
0.0
 41
0.6244081126
 50
0.0
 71
     0
 42
0.2
  3
TXT
  4
bigfont
  0
STYLE
  5
4F
330
3
100
AcDbSymbolTableRecord
100
AcDbTextStyleTableRecord
  2
SLDTEXTSTYLE3
 70
     0
 40
0.0
 41
0.6230481821
 50
0.0
 71
     0
 42
0.2
  3
TXT
  4
bigfont
  0
STYLE
  5
5D
330
3
100
AcDbSymbolTableRecord
100
AcDbTextStyleTableRecord
  2
SLDTEXTSTYLE4
 70
     0
 40
0.0
 41
0.6210806147
 50
0.0
 71
     0
 42
0.2
  3
TXT
  4
bigfont
  0
STYLE
  5
6D
330
3
100
AcDbSymbolTableRecord
100
AcDbTextStyleTableRecord
  2
SLDTEXTSTYLE5
 70
     0
 40
0.0
 41
0.6302728232
 50
0.0
 71
     0
 42
0.2
  3
TXT
  4
bigfont
  0
STYLE
  5
2E7
330
3
100
AcDbSymbolTableRecord
100
AcDbTextStyleTableRecord
  2
SLDTEXTSTYLE6
 70
     0
 40
0.0
 41
0.5066143084
 50
0.0
 71
     0
 42
0.2
  3
TXT
  4
bigfont
  0
STYLE
  5
2E9
330
3
100
AcDbSymbolTableRecord
100
AcDbTextStyleTableRecord
  2
SLDTEXTSTYLE7
 70
     0
 40
0.0
 41
0.4804099926
 50
0.0
 71
     0
 42
0.2
  3
TXT
  4
bigfont
  0
STYLE
  5
2EC
330
3
100
AcDbSymbolTableRecord
100
AcDbTextStyleTableRecord
  2
SLDTEXTSTYLE8
 70
     0
 40
0.0
 41
0.6215271189
 50
0.0
 71
     0
 42
0.2
  3
TXT
  4
bigfont
  0
STYLE
  5
2EE
330
3
100
AcDbSymbolTableRecord
100
AcDbTextStyleTableRecord
  2
SLDTEXTSTYLE9
 70
     0
 40
0.0
 41
0.6255251211
 50
0.0
 71
     0
 42
0.2
  3
TXT
  4
bigfont
  0
STYLE
  5
2F0
330
3
100
AcDbSymbolTableRecord
100
AcDbTextStyleTableRecord
  2
SLDTEXTSTYLE10
 70
     0
 40
0.0
 41
0.6222508968
 50
0.0
 71
     0
 42
0.2
  3
TXT
  4
bigfont
  0
STYLE
  5
2F2
330
3
100
AcDbSymbolTableRecord
100
AcDbTextStyleTableRecord
  2
SLDTEXTSTYLE11
 70
     0
 40
0.0
 41
0.6244080316
 50
0.0
 71
     0
 42
0.2
  3
TXT
  4
bigfont
  0
ENDTAB
  0
TABLE
  2
VIEW
  5
6
330
0
100
AcDbSymbolTable
 70
     0
  0
ENDTAB
  0
TABLE
  2
UCS
  5
7
330
0
100
AcDbSymbolTable
 70
     0
  0
ENDTAB
  0
TABLE
  2
APPID
  5
9
330
0
100
AcDbSymbolTable
 70
     1
  0
APPID
  5
12
330
9
100
AcDbSymbolTableRecord
100
AcDbRegAppTableRecord
  2
ACAD
 70
     0
  0
ENDTAB
  0
TABLE
  2
DIMSTYLE
  5
A
330
0
100
AcDbSymbolTable
 70
     1
100
AcDbDimStyleTable
  0
DIMSTYLE
105
27
330
A
100
AcDbSymbolTableRecord
100
AcDbDimStyleTableRecord
  2
ISO-25
 70
     0
 41
2.5
 42
0.625
 43
3.75
 44
1.25
 73
     0
 74
     0
 77
     1
 78
     8
140
2.5
141
2.5
143
0.0393700787
147
0.625
171
     3
172
     1
271
     2
272
     2
274
     3
278
    44
283
     0
284
     8
340
11
  0
ENDTAB
  0
TABLE
  2
BLOCK_RECORD
  5
1
330
0
100
AcDbSymbolTable
 70
     8
  0
BLOCK_RECORD
  5
1F
330
1
100
AcDbSymbolTableRecord
100
AcDbBlockTableRecord
  2
*Model_Space
340
22
  0
BLOCK_RECORD
  5
1B
330
1
100
AcDbSymbolTableRecord
100
AcDbBlockTableRecord
  2
*Paper_Space
340
1E
  0
BLOCK_RECORD
  5
23
330
1
100
AcDbSymbolTableRecord
100
AcDbBlockTableRecord
  2
*Paper_Space0
340
26
  0
BLOCK_RECORD
  5
30
330
1
100
AcDbSymbolTableRecord
100
AcDbBlockTableRecord
  2
KOZU0001
340
0
102
{BLKREFS
331
2F4
102
}
  0
BLOCK_RECORD
  5
3B
330
1
100
AcDbSymbolTableRecord
100
AcDbBlockTableRecord
  2
KOZU0002
340
0
102
{BLKREFS
331
2F5
102
}
  0
BLOCK_RECORD
  5
45
330
1
100
AcDbSymbolTableRecord
100
AcDbBlockTableRecord
  2
KOZU0003
340
0
102
{BLKREFS
331
2F6
102
}
  0
BLOCK_RECORD
  5
51
330
1
100
AcDbSymbolTableRecord
100
AcDbBlockTableRecord
  2
KOZU0004
340
0
102
{BLKREFS
331
2F7
102
}
  0
BLOCK_RECORD
  5
5A
330
1
100
AcDbSymbolTableRecord
100
AcDbBlockTableRecord
  2
SW_NOTE_0
340
0
102
{BLKREFS
331
63
102
}
  0
BLOCK_RECORD
  5
64
330
1
100
AcDbSymbolTableRecord
100
AcDbBlockTableRecord
  2
KOZU0005
340
0
102
{BLKREFS
331
2F8
102
}
  0
BLOCK_RECORD
  5
6F
330
1
100
AcDbSymbolTableRecord
100
AcDbBlockTableRecord
  2
KOZU0006
340
0
102
{BLKREFS
331
2F9
102
}
  0
ENDTAB
  0
ENDSEC
  0
SECTION
  2
BLOCKS
  0
BLOCK
  5
20
330
1F
100
AcDbEntity
  8
0
100
AcDbBlockBegin
  2
*Model_Space
 70
     0
 71
     0
 10
0.0
 20
0.0
 30
0.0
  3
*Model_Space
  1

  0
ENDBLK
  5
21
330
1F
100
AcDbEntity
  8
0
100
AcDbBlockEnd
  0
BLOCK
  5
1C
330
1B
100
AcDbEntity
 67
     1
  8
0
100
AcDbBlockBegin
  2
*Paper_Space
 70
     0
 71
     0
 10
0.0
 20
0.0
 30
0.0
  3
*Paper_Space
  1

  0
ENDBLK
  5
1D
330
1B
100
AcDbEntity
 67
     1
  8
0
100
AcDbBlockEnd
  0
BLOCK
  5
24
330
23
100
AcDbEntity
  8
0
100
AcDbBlockBegin
  2
*Paper_Space0
 70
     0
 71
     0
 10
0.0
 20
0.0
 30
0.0
  3
*Paper_Space0
  1

  0
ENDBLK
  5
25
330
23
100
AcDbEntity
  8
0
100
AcDbBlockEnd
  0
BLOCK
  5
31
330
30
100
AcDbEntity
  8
0
100
AcDbBlockBegin
  2
KOZU0001
 70
     0
 71
     0
 10
0.0
 20
0.0
 30
0.0
  3
KOZU0001
  1

  0
LINE
  5
33
330
30
100
AcDbEntity
  8
SLD-0
  6
Continuous
 62
   179
100
AcDbLine
 10
0.0
 20
0.0
 30
0.0
 11
12.323751
 21
-10.357195
 31
0.0
  0
LINE
  5
34
330
30
100
AcDbEntity
  8
SLD-0
  6
Continuous
 62
   179
100
AcDbLine
 10
0.0
 20
0.0
 30
0.0
 11
2.9400162
 21
-1.1646048
 31
0.0
  0
LINE
  5
35
330
30
100
AcDbEntity
  8
SLD-0
  6
Continuous
 62
   179
100
AcDbLine
 10
0.0
 20
0.0
 30
0.0
 11
1.6532501
 21
-2.6956936
 31
0.0
  0
LINE
  5
36
330
30
100
AcDbEntity
  8
SLD-0
  6
Continuous
 62
   179
100
AcDbLine
 10
0.0
 20
0.0
 30
0.0
 11
12.323751
 21
-10.357195
 31
0.0
  0
LINE
  5
37
330
30
100
AcDbEntity
  8
SLD-0
  6
Continuous
 62
   179
100
AcDbLine
 10
12.323751
 20
-10.357195
 30
0.0
 11
65.298239
 21
-10.357196
 31
0.0
  0
MTEXT
  5
39
330
30
100
AcDbEntity
  8
SLD-0
100
AcDbMText
 10
16.384238
 20
-6.9024768631
 30
0.0
 40
3.2
 41
0.0
 71
     1
 72
     1
  1
有接点オートスイッチ（ＳＭＣ）
  7
SLDTEXTSTYLE0
 73
     1
 44
1.0
  0
MTEXT
  5
3A
330
30
100
AcDbEntity
  8
SLD-0
100
AcDbMText
 10
16.384238
 20
-12.5184774631
 30
0.0
 40
3.2
 41
0.0
 71
     1
 72
     1
  1
Ｄ－Ａ９３　２ヶ（オプション）
  7
SLDTEXTSTYLE0
 73
     1
 44
1.0
  0
ENDBLK
  5
32
330
30
100
AcDbEntity
  8
0
100
AcDbBlockEnd
  0
BLOCK
  5
3C
330
3B
100
AcDbEntity
  8
0
100
AcDbBlockBegin
  2
KOZU0002
 70
     0
 71
     0
 10
0.0
 20
0.0
 30
0.0
  3
KOZU0002
  1

  0
LINE
  5
3E
330
3B
100
AcDbEntity
  8
SLD-0
  6
Continuous
 62
   179
100
AcDbLine
 10
0.0
 20
0.0
 30
0.0
 11
7.7165711
 21
-13.665491
 31
0.0
  0
LINE
  5
3F
330
3B
100
AcDbEntity
  8
SLD-0
  6
Continuous
 62
   179
100
AcDbLine
 10
0.0
 20
0.0
 30
0.0
 11
2.3458641
 21
-2.1205946
 31
0.0
  0
LINE
  5
40
330
3B
100
AcDbEntity
  8
SLD-0
  6
Continuous
 62
   179
100
AcDbLine
 10
0.0
 20
0.0
 30
0.0
 11
0.60433447
 21
-3.1039941
 31
0.0
  0
LINE
  5
41
330
3B
100
AcDbEntity
  8
SLD-0
  6
Continuous
 62
   179
100
AcDbLine
 10
0.0
 20
0.0
 30
0.0
 11
7.7165711
 21
-13.665491
 31
0.0
  0
LINE
  5
42
330
3B
100
AcDbEntity
  8
SLD-0
  6
Continuous
 62
   179
100
AcDbLine
 10
7.7165711
 20
-13.665491
 30
0.0
 11
25.413869
 21
-13.665482
 31
0.0
  0
MTEXT
  5
44
330
3B
100
AcDbEntity
  8
SLD-0
100
AcDbMText
 10
11.699863
 20
-10.2107624631
 30
0.0
 40
3.2
 41
0.0
 71
     1
 72
     1
  1
４－Ｍ５
  7
SLDTEXTSTYLE1
 73
     1
 44
1.0
  0
ENDBLK
  5
3D
330
3B
100
AcDbEntity
  8
0
100
AcDbBlockEnd
  0
BLOCK
  5
46
330
45
100
AcDbEntity
  8
0
100
AcDbBlockBegin
  2
KOZU0003
 70
     0
 71
     0
 10
0.0
 20
0.0
 30
0.0
  3
KOZU0003
  1

  0
LINE
  5
48
330
45
100
AcDbEntity
  8
SLD-0
  6
Continuous
 62
   179
100
AcDbLine
 10
0.0
 20
0.0
 30
0.0
 11
-11.539219
 21
15.088128
 31
0.0
  0
LINE
  5
49
330
45
100
AcDbEntity
  8
SLD-0
  6
Continuous
 62
   179
100
AcDbLine
 10
0.0
 20
0.0
 30
0.0
 11
-2.6168001
 21
1.7754878
 31
0.0
  0
LINE
  5
4A
330
45
100
AcDbEntity
  8
SLD-0
  6
Continuous
 62
   179
100
AcDbLine
 10
0.0
 20
0.0
 30
0.0
 11
-1.0281474
 21
2.9904703
 31
0.0
  0
LINE
  5
4B
330
45
100
AcDbEntity
  8
SLD-0
  6
Continuous
 62
   179
100
AcDbLine
 10
0.0
 20
0.0
 30
0.0
 11
-11.539219
 21
15.088128
 31
0.0
  0
LINE
  5
4C
330
45
100
AcDbEntity
  8
SLD-0
  6
Continuous
 62
   179
100
AcDbLine
 10
-11.539219
 20
15.088128
 30
0.0
 11
-39.947403
 21
15.088134
 31
0.0
  0
MTEXT
  5
4E
330
45
100
AcDbEntity
  8
SLD-0
100
AcDbMText
 10
-38.119409
 20
18.5428535369
 30
0.0
 40
3.2
 41
0.0
 71
     1
 72
     1
  1
２ｘ２－Ｍ５
  7
SLDTEXTSTYLE2
 73
     1
 44
1.0
  0
MTEXT
  5
50
330
45
100
AcDbEntity
  8
SLD-0
100
AcDbMText
 10
-38.119409
 20
12.9268535369
 30
0.0
 40
3.2
 41
0.0
 71
     1
 72
     1
  1
取付ネジ（両側）
  7
SLDTEXTSTYLE3
 73
     1
 44
1.0
  0
ENDBLK
  5
47
330
45
100
AcDbEntity
  8
0
100
AcDbBlockEnd
  0
BLOCK
  5
52
330
51
100
AcDbEntity
  8
0
100
AcDbBlockBegin
  2
KOZU0004
 70
     0
 71
     0
 10
0.0
 20
0.0
 30
0.0
  3
KOZU0004
  1

  0
LINE
  5
54
330
51
100
AcDbEntity
  8
SLD-0
  6
Continuous
 62
   179
100
AcDbLine
 10
0.0
 20
0.0
 30
0.0
 11
-21.351987
 21
34.827955
 31
0.0
  0
LINE
  5
55
330
51
100
AcDbEntity
  8
SLD-0
  6
Continuous
 62
   179
100
AcDbLine
 10
0.0
 20
0.0
 30
0.0
 11
-2.4205346
 21
2.0349476
 31
0.0
  0
LINE
  5
56
330
51
100
AcDbEntity
  8
SLD-0
  6
Continuous
 62
   179
100
AcDbLine
 10
0.0
 20
0.0
 30
0.0
 11
-0.71545911
 21
3.0802789
 31
0.0
  0
LINE
  5
57
330
51
100
AcDbEntity
  8
SLD-0
  6
Continuous
 62
   179
100
AcDbLine
 10
0.0
 20
0.0
 30
0.0
 11
-21.351987
 21
34.827955
 31
0.0
  0
LINE
  5
58
330
51
100
AcDbEntity
  8
SLD-0
  6
Continuous
 62
   179
100
AcDbLine
 10
-21.351998
 20
34.827975
 30
0.0
 11
-75.919823
 21
34.827975
 31
0.0
  0
MTEXT
  5
59
330
51
100
AcDbEntity
  8
SLD-0
100
AcDbMText
 10
-74.091838
 20
38.2826945369
 30
0.0
 40
3.2
 41
0.0
 71
     1
 72
     1
  1
４－Ｍ６深１２（裏側ヨリ加工）
  7
SLDTEXTSTYLE0
 73
     1
 44
1.0
  0
INSERT
  5
63
330
51
100
AcDbEntity
  8
SLD-0
 62
     7
100
AcDbBlockReference
  2
SW_NOTE_0
 10
-74.091838
 20
28.3764195537
 30
0.0
  0
ENDBLK
  5
53
330
51
100
AcDbEntity
  8
0
100
AcDbBlockEnd
  0
BLOCK
  5
5B
330
5A
100
AcDbEntity
  8
0
100
AcDbBlockBegin
  2
SW_NOTE_0
 70
     0
 71
     0
 10
0.0
 20
0.0
 30
0.0
  3
SW_NOTE_0
  1

  0
MTEXT
  5
5E
330
5A
100
AcDbEntity
  8
SLD-0
100
AcDbMText
 10
0.0
 20
4.2902749832
 30
0.0
 40
3.2
 41
0.0
 71
     1
 72
     1
  1
４－
  7
SLDTEXTSTYLE4
 73
     1
 44
1.0
  0
MTEXT
  5
5F
330
5A
100
AcDbEntity
  8
SLD-0
100
AcDbMText
 10
10.6177777052
 20
4.2902749832
 30
0.0
 40
3.2
 41
0.0
 71
     1
 72
     1
  1
%%c
  7
SLDTEXTSTYLE4
 73
     1
 44
1.0
  0
MTEXT
  5
60
330
5A
100
AcDbEntity
  8
SLD-0
100
AcDbMText
 10
15.8026665449
 20
4.2902749832
 30
0.0
 40
3.2
 41
0.0
 71
     1
 72
     1
  1
５．２　
  7
SLDTEXTSTYLE4
 73
     1
 44
1.0
  0
MTEXT
  5
61
330
5A
100
AcDbEntity
  8
SLD-0
100
AcDbMText
 10
32.7982231975
 20
4.2902749832
 30
0.0
 40
3.2
 41
0.0
 71
     1
 72
     1
  1
%%c
  7
SLDTEXTSTYLE4
 73
     1
 44
1.0
  0
MTEXT
  5
62
330
5A
100
AcDbEntity
  8
SLD-0
100
AcDbMText
 10
37.9831120372
 20
4.2902749832
 30
0.0
 40
3.2
 41
0.0
 71
     1
 72
     1
  1
９ザグリ深５．５
  7
SLDTEXTSTYLE4
 73
     1
 44
1.0
  0
ENDBLK
  5
5C
330
5A
100
AcDbEntity
  8
0
100
AcDbBlockEnd
  0
BLOCK
  5
65
330
64
100
AcDbEntity
  8
0
100
AcDbBlockBegin
  2
KOZU0005
 70
     0
 71
     0
 10
0.0
 20
0.0
 30
0.0
  3
KOZU0005
  1

  0
LINE
  5
67
330
64
100
AcDbEntity
  8
SLD-0
  6
Continuous
 62
   179
100
AcDbLine
 10
0.0
 20
0.0
 30
0.0
 11
15.380072
 21
-21.325609
 31
0.0
  0
LINE
  5
68
330
64
100
AcDbEntity
  8
SLD-0
  6
Continuous
 62
   179
100
AcDbLine
 10
0.0
 20
0.0
 30
0.0
 11
2.5659116
 21
-1.8482687
 31
0.0
  0
LINE
  5
69
330
64
100
AcDbEntity
  8
SLD-0
  6
Continuous
 62
   179
100
AcDbLine
 10
0.0
 20
0.0
 30
0.0
 11
0.94376805
 21
-3.018162
 31
0.0
  0
LINE
  5
6A
330
64
100
AcDbEntity
  8
SLD-0
  6
Continuous
 62
   179
100
AcDbLine
 10
0.0
 20
0.0
 30
0.0
 11
15.380072
 21
-21.325609
 31
0.0
  0
LINE
  5
6B
330
64
100
AcDbEntity
  8
SLD-0
  6
Continuous
 62
   179
100
AcDbLine
 10
15.380072
 20
-21.325609
 30
0.0
 11
32.898087
 21
-21.32561
 31
0.0
  0
MTEXT
  5
6C
330
64
100
AcDbEntity
  8
SLD-0
100
AcDbMText
 10
19.184096
 20
-17.8708904631
 30
0.0
 40
3.2
 41
0.0
 71
     1
 72
     1
  1
２－Ｍ５
  7
SLDTEXTSTYLE1
 73
     1
 44
1.0
  0
MTEXT
  5
6E
330
64
100
AcDbEntity
  8
SLD-0
100
AcDbMText
 10
19.184096
 20
-23.4868904631
 30
0.0
 40
3.2
 41
0.0
 71
     1
 72
     1
  1
配管用
  7
SLDTEXTSTYLE5
 73
     1
 44
1.0
  0
ENDBLK
  5
66
330
64
100
AcDbEntity
  8
0
100
AcDbBlockEnd
  0
BLOCK
  5
70
330
6F
100
AcDbEntity
  8
0
100
AcDbBlockBegin
  2
KOZU0006
 70
     0
 71
     0
 10
0.0
 20
0.0
 30
0.0
  3
KOZU0006
  1

  0
LINE
  5
72
330
6F
100
AcDbEntity
  8
SLD-0
  6
Continuous
 62
   179
100
AcDbLine
 10
0.0
 20
0.0
 30
0.0
 11
-4.6504164
 21
13.052831
 31
0.0
  0
LINE
  5
73
330
6F
100
AcDbEntity
  8
SLD-0
  6
Continuous
 62
   179
100
AcDbLine
 10
0.0
 20
0.0
 30
0.0
 11
-1.9488375
 21
2.4903879
 31
0.0
  0
LINE
  5
74
330
6F
100
AcDbEntity
  8
SLD-0
  6
Continuous
 62
   179
100
AcDbLine
 10
0.0
 20
0.0
 30
0.0
 11
-0.064837275
 21
3.1616129
 31
0.0
  0
LINE
  5
75
330
6F
100
AcDbEntity
  8
SLD-0
  6
Continuous
 62
   179
100
AcDbLine
 10
0.0
 20
0.0
 30
0.0
 11
-4.6504164
 21
13.052831
 31
0.0
  0
LINE
  5
76
330
6F
100
AcDbEntity
  8
SLD-0
  6
Continuous
 62
   179
100
AcDbLine
 10
-4.6504164
 20
13.052831
 30
0.0
 11
-21.995931
 21
13.052823
 31
0.0
  0
MTEXT
  5
77
330
6F
100
AcDbEntity
  8
SLD-0
100
AcDbMText
 10
-20.16794
 20
16.5075425369
 30
0.0
 40
3.2
 41
0.0
 71
     1
 72
     1
  1
４－Ｍ５
  7
SLDTEXTSTYLE1
 73
     1
 44
1.0
  0
ENDBLK
  5
71
330
6F
100
AcDbEntity
  8
0
100
AcDbBlockEnd
  0
ENDSEC
  0
SECTION
  2
ENTITIES
  0
LINE
  5
78
330
1F
100
AcDbEntity
  8
SLD-0
  6
Continuous
 62
   179
100
AcDbLine
 10
73.66275
 20
109.642372
 30
0.0
 11
104.66275
 21
109.642372
 31
0.0
  0
LINE
  5
79
330
1F
100
AcDbEntity
  8
SLD-0
  6
Continuous
 62
   179
100
AcDbLine
 10
73.66275
 20
187.64238
 30
0.0
 11
104.66275
 21
187.64238
 31
0.0
  0
LINE
  5
7A
330
1F
100
AcDbEntity
  8
SLD-0
  6
CENTER
 62
   179
100
AcDbLine
 10
89.16275
 20
187.18237
 30
0.0
 11
89.16275
 21
110.102379
 31
0.0
  0
LINE
  5
7B
330
1F
100
AcDbEntity
  8
SLD-0
  6
CENTER
 62
   179
100
AcDbLine
 10
101.70273
 20
148.64238
 30
0.0
 11
76.62277
 21
148.64238
 31
0.0
  0
LINE
  5
7C
330
1F
100
AcDbEntity
  8
SLD-0
  6
CENTER
 62
   179
100
AcDbLine
 10
100.70273
 20
175.64238
 30
0.0
 11
77.62277
 21
175.64238
 31
0.0
  0
LINE
  5
7D
330
1F
100
AcDbEntity
  8
SLD-0
  6
CENTER
 62
   179
100
AcDbLine
 10
100.70273
 20
121.64237
 30
0.0
 11
77.62277
 21
121.64237
 31
0.0
  0
LINE
  5
7E
330
1F
100
AcDbEntity
  8
SLD-0
  6
Continuous
 62
   179
100
AcDbLine
 10
102.16275
 20
183.64238
 30
0.0
 11
102.16275
 21
113.64237
 31
0.0
  0
LINE
  5
7F
330
1F
100
AcDbEntity
  8
SLD-0
  6
Continuous
 62
   179
100
AcDbLine
 10
76.16275
 20
183.64238
 30
0.0
 11
76.16275
 21
113.64237
 31
0.0
  0
LINE
  5
80
330
1F
100
AcDbEntity
  8
SLD-0
  6
Continuous
 62
   179
100
AcDbLine
 10
78.16275
 20
111.642372
 30
0.0
 11
100.16275
 21
111.642372
 31
0.0
  0
LINE
  5
81
330
1F
100
AcDbEntity
  8
SLD-0
  6
Continuous
 62
   179
100
AcDbLine
 10
78.16275
 20
185.64238
 30
0.0
 11
100.16275
 21
185.64238
 31
0.0
  0
LINE
  5
82
330
1F
100
AcDbEntity
  8
SLD-0
  6
Continuous
 62
   179
100
AcDbLine
 10
298.6285979336
 20
187.642382693
 30
0.0
 11
328.0939539336
 21
187.642382693
 31
0.0
  0
LINE
  5
83
330
1F
100
AcDbEntity
  8
SLD-0
  6
Continuous
 62
   179
100
AcDbLine
 10
298.6286074336
 20
109.6423686554
 30
0.0
 11
328.0939534336
 21
109.6423686554
 31
0.0
  0
LINE
  5
84
330
1F
100
AcDbEntity
  8
SLD-0
  6
CENTER
 62
   179
100
AcDbLine
 10
326.861282
 20
114.64239
 30
0.0
 11
319.861282
 21
114.64239
 31
0.0
  0
LINE
  5
85
330
1F
100
AcDbEntity
  8
SLD-0
  6
CENTER
 62
   179
100
AcDbLine
 10
313.361282
 20
187.18237
 30
0.0
 11
313.361282
 21
164.10237
 31
0.0
  0
LINE
  5
86
330
1F
100
AcDbEntity
  8
SLD-0
  6
CENTER
 62
   179
100
AcDbLine
 10
300.82127
 20
148.64238
 30
0.0
 11
325.90126
 21
148.64238
 31
0.0
  0
LINE
  5
87
330
1F
100
AcDbEntity
  8
SLD-0
  6
CENTER
 62
   179
100
AcDbLine
 10
301.82127
 20
175.64238
 30
0.0
 11
324.90126
 21
175.64238
 31
0.0
  0
LINE
  5
88
330
1F
100
AcDbEntity
  8
SLD-0
  6
CENTER
 62
   179
100
AcDbLine
 10
313.361282
 20
110.102379
 30
0.0
 11
313.361282
 21
133.18238
 31
0.0
  0
LINE
  5
89
330
1F
100
AcDbEntity
  8
SLD-0
  6
CENTER
 62
   179
100
AcDbLine
 10
301.82127
 20
121.64237
 30
0.0
 11
324.90126
 21
121.64237
 31
0.0
  0
LINE
  5
8A
330
1F
100
AcDbEntity
  8
SLD-0
  6
CENTER
 62
   179
100
AcDbLine
 10
313.361282
 20
161.18237
 30
0.0
 11
313.361282
 21
136.10238
 31
0.0
  0
LINE
  5
8B
330
1F
100
AcDbEntity
  8
SLD-0
  6
CENTER
 62
   179
100
AcDbLine
 10
299.86128
 20
182.64238
 30
0.0
 11
306.861282
 21
182.64238
 31
0.0
  0
LINE
  5
8C
330
1F
100
AcDbEntity
  8
SLD-0
  6
CENTER
 62
   179
100
AcDbLine
 10
323.361282
 20
186.14238
 30
0.0
 11
323.361282
 21
179.14238
 31
0.0
  0
LINE
  5
8D
330
1F
100
AcDbEntity
  8
SLD-0
  6
CENTER
 62
   179
100
AcDbLine
 10
303.361282
 20
186.14238
 30
0.0
 11
303.361282
 21
179.14238
 31
0.0
  0
LINE
  5
8E
330
1F
100
AcDbEntity
  8
SLD-0
  6
CENTER
 62
   179
100
AcDbLine
 10
326.861282
 20
182.64238
 30
0.0
 11
319.861282
 21
182.64238
 31
0.0
  0
LINE
  5
8F
330
1F
100
AcDbEntity
  8
SLD-0
  6
CENTER
 62
   179
100
AcDbLine
 10
323.361282
 20
111.142387
 30
0.0
 11
323.361282
 21
118.14239
 31
0.0
  0
LINE
  5
90
330
1F
100
AcDbEntity
  8
SLD-0
  6
CENTER
 62
   179
100
AcDbLine
 10
86.20273
 20
180.64238
 30
0.0
 11
76.12277
 21
180.64238
 31
0.0
  0
LINE
  5
91
330
1F
100
AcDbEntity
  8
SLD-0
  6
CENTER
 62
   179
100
AcDbLine
 10
92.12277
 20
116.64237
 30
0.0
 11
102.20273
 21
116.64237
 31
0.0
  0
LINE
  5
92
330
1F
100
AcDbEntity
  8
SLD-0
  6
CENTER
 62
   179
100
AcDbLine
 10
86.20273
 20
116.64237
 30
0.0
 11
76.12277
 21
116.64237
 31
0.0
  0
LINE
  5
93
330
1F
100
AcDbEntity
  8
SLD-0
  6
CENTER
 62
   179
100
AcDbLine
 10
92.12277
 20
180.64238
 30
0.0
 11
102.20273
 21
180.64238
 31
0.0
  0
LINE
  5
94
330
1F
100
AcDbEntity
  8
SLD-0
  6
CENTER
 62
   179
100
AcDbLine
 10
97.16275
 20
185.68237
 30
0.0
 11
97.16275
 21
175.60237
 31
0.0
  0
LINE
  5
95
330
1F
100
AcDbEntity
  8
SLD-0
  6
CENTER
 62
   179
100
AcDbLine
 10
81.16275
 20
185.68237
 30
0.0
 11
81.16275
 21
175.60237
 31
0.0
  0
LINE
  5
96
330
1F
100
AcDbEntity
  8
SLD-0
  6
CENTER
 62
   179
100
AcDbLine
 10
81.16275
 20
111.602379
 30
0.0
 11
81.16275
 21
121.68238
 31
0.0
  0
LINE
  5
97
330
1F
100
AcDbEntity
  8
SLD-0
  6
CENTER
 62
   179
100
AcDbLine
 10
97.16275
 20
111.602379
 30
0.0
 11
97.16275
 21
121.68238
 31
0.0
  0
LINE
  5
98
330
1F
100
AcDbEntity
  8
SLD-0
  6
Continuous
 62
   179
100
AcDbLine
 10
295.86128
 20
140.64238
 30
0.0
 11
295.86128
 21
129.80647
 31
0.0
  0
LINE
  5
99
330
1F
100
AcDbEntity
  8
SLD-0
  6
Continuous
 62
   179
100
AcDbLine
 10
297.36128
 20
151.29507
 30
0.0
 11
297.36128
 21
145.99509
 31
0.0
  0
LINE
  5
9A
330
1F
100
AcDbEntity
  8
SLD-0
  6
HIDDEN
 62
   179
100
AcDbLine
 10
246.23248
 20
227.90953
 30
0.0
 11
246.23248
 21
232.90953
 31
0.0
  0
LINE
  5
9B
330
1F
100
AcDbEntity
  8
SLD-0
  6
Continuous
 62
   179
100
AcDbLine
 10
189.23248
 20
222.90953
 30
0.0
 11
246.23248
 21
222.90953
 31
0.0
  0
LINE
  5
9C
330
1F
100
AcDbEntity
  8
SLD-0
  6
Continuous
 62
   179
100
AcDbLine
 10
189.23248
 20
257.90956
 30
0.0
 11
246.23248
 21
257.90956
 31
0.0
  0
LINE
  5
9D
330
1F
100
AcDbEntity
  8
SLD-0
  6
Continuous
 62
   179
100
AcDbLine
 10
189.23248
 20
222.90953
 30
0.0
 11
189.23248
 21
257.90956
 31
0.0
  0
LINE
  5
9E
330
1F
100
AcDbEntity
  8
SLD-0
  6
Continuous
 62
   179
100
AcDbLine
 10
246.23248
 20
222.90953
 30
0.0
 11
246.23248
 21
257.90956
 31
0.0
  0
LINE
  5
9F
330
1F
100
AcDbEntity
  8
SLD-0
  6
HIDDEN
 62
   179
100
AcDbLine
 10
246.23248
 20
252.40953
 30
0.0
 11
233.0325
 21
252.40953
 31
0.0
  0
LINE
  5
A0
330
1F
100
AcDbEntity
  8
SLD-0
  6
CENTER
 62
   179
100
AcDbLine
 10
219.1925
 20
252.40953
 30
0.0
 11
229.27249
 21
252.40953
 31
0.0
  0
LINE
  5
A1
330
1F
100
AcDbEntity
  8
SLD-0
  6
CENTER
 62
   179
100
AcDbLine
 10
189.1925
 20
252.40953
 30
0.0
 11
199.27249
 21
252.40953
 31
0.0
  0
LINE
  5
A2
330
1F
100
AcDbEntity
  8
SLD-0
  6
CENTER
 62
   179
100
AcDbLine
 10
194.23248
 20
247.36955
 30
0.0
 11
194.23248
 21
257.94954
 31
0.0
  0
LINE
  5
A3
330
1F
100
AcDbEntity
  8
SLD-0
  6
CENTER
 62
   179
100
AcDbLine
 10
224.23248
 20
247.36955
 30
0.0
 11
224.23248
 21
257.94954
 31
0.0
  0
LINE
  5
A4
330
1F
100
AcDbEntity
  8
SLD-0
  6
CENTER
 62
   179
100
AcDbLine
 10
189.1925
 20
228.40953
 30
0.0
 11
199.27249
 21
228.40953
 31
0.0
  0
LINE
  5
A5
330
1F
100
AcDbEntity
  8
SLD-0
  6
CENTER
 62
   179
100
AcDbLine
 10
219.1925
 20
228.40953
 30
0.0
 11
229.27249
 21
228.40953
 31
0.0
  0
LINE
  5
A6
330
1F
100
AcDbEntity
  8
SLD-0
  6
CENTER
 62
   179
100
AcDbLine
 10
194.23248
 20
222.86955
 30
0.0
 11
194.23248
 21
233.44954
 31
0.0
  0
LINE
  5
A7
330
1F
100
AcDbEntity
  8
SLD-0
  6
CENTER
 62
   179
100
AcDbLine
 10
224.23248
 20
222.86955
 30
0.0
 11
224.23248
 21
233.44954
 31
0.0
  0
LINE
  5
A8
330
1F
100
AcDbEntity
  8
SLD-0
  6
Continuous
 62
   179
100
AcDbLine
 10
182.2325
 20
227.40953
 30
0.0
 11
182.2325
 21
253.40953
 31
0.0
  0
LINE
  5
A9
330
1F
100
AcDbEntity
  8
SLD-0
  6
Continuous
 62
   179
100
AcDbLine
 10
172.2325
 20
227.40953
 30
0.0
 11
172.2325
 21
253.40953
 31
0.0
  0
LINE
  5
AA
330
1F
100
AcDbEntity
  8
SLD-0
  6
Continuous
 62
   179
100
AcDbLine
 10
172.2325
 20
227.40953
 30
0.0
 11
182.2325
 21
227.40953
 31
0.0
  0
LINE
  5
AB
330
1F
100
AcDbEntity
  8
SLD-0
  6
Continuous
 62
   179
100
AcDbLine
 10
172.2325
 20
253.40953
 30
0.0
 11
182.2325
 21
253.40953
 31
0.0
  0
LINE
  5
AC
330
1F
100
AcDbEntity
  8
SLD-0
  6
CENTER
 62
   179
100
AcDbLine
 10
172.5325
 20
240.40953
 30
0.0
 11
246.23248
 21
240.40953
 31
0.0
  0
LINE
  5
AD
330
1F
100
AcDbEntity
  8
SLD-0
  6
Continuous
 62
   179
100
AcDbLine
 10
182.2325
 20
234.40953
 30
0.0
 11
188.93248
 21
234.40953
 31
0.0
  0
LINE
  5
AE
330
1F
100
AcDbEntity
  8
SLD-0
  6
Continuous
 62
   179
100
AcDbLine
 10
182.2325
 20
246.40953
 30
0.0
 11
188.93248
 21
246.40953
 31
0.0
  0
LINE
  5
AF
330
1F
100
AcDbEntity
  8
SLD-0
  6
Continuous
 62
   179
100
AcDbLine
 10
297.66127
 20
151.59238
 30
0.0
 11
298.85048
 21
151.59238
 31
0.0
  0
LINE
  5
B0
330
1F
100
AcDbEntity
  8
SLD-0
  6
CENTER
 62
   179
100
AcDbLine
 10
295.86128
 20
153.09238
 30
0.0
 11
303.961288
 21
153.09238
 31
0.0
  0
LINE
  5
B1
330
1F
100
AcDbEntity
  8
SLD-0
  6
CENTER
 62
   179
100
AcDbLine
 10
300.36128
 20
148.83853
 30
0.0
 11
300.36128
 21
156.69238
 31
0.0
  0
LINE
  5
B2
330
1F
100
AcDbEntity
  8
SLD-0
  6
Continuous
 62
   179
100
AcDbLine
 10
297.66127
 20
154.59238
 30
0.0
 11
298.85048
 21
154.59238
 31
0.0
  0
LINE
  5
B3
330
1F
100
AcDbEntity
  8
SLD-0
  6
Continuous
 62
   179
100
AcDbLine
 10
297.66127
 20
142.69238
 30
0.0
 11
298.85048
 21
142.69238
 31
0.0
  0
LINE
  5
B4
330
1F
100
AcDbEntity
  8
SLD-0
  6
CENTER
 62
   179
100
AcDbLine
 10
300.36128
 20
148.44623
 30
0.0
 11
300.36128
 21
140.59238
 31
0.0
  0
LINE
  5
B5
330
1F
100
AcDbEntity
  8
SLD-0
  6
CENTER
 62
   179
100
AcDbLine
 10
295.86128
 20
144.19238
 30
0.0
 11
303.961288
 21
144.19238
 31
0.0
  0
LINE
  5
B6
330
1F
100
AcDbEntity
  8
SLD-0
  6
Continuous
 62
   179
100
AcDbLine
 10
297.66127
 20
145.69238
 30
0.0
 11
298.85048
 21
145.69238
 31
0.0
  0
LINE
  5
B7
330
1F
100
AcDbEntity
  8
SLD-0
  6
Continuous
 62
   179
100
AcDbLine
 10
295.86128
 20
156.64238
 30
0.0
 11
296.36128
 21
156.64238
 31
0.0
  0
LINE
  5
B8
330
1F
100
AcDbEntity
  8
SLD-0
  6
Continuous
 62
   179
100
AcDbLine
 10
297.36128
 20
155.64238
 30
0.0
 11
297.36128
 21
154.88968
 31
0.0
  0
LINE
  5
B9
330
1F
100
AcDbEntity
  8
SLD-0
  6
Continuous
 62
   179
100
AcDbLine
 10
295.86128
 20
140.64238
 30
0.0
 11
296.36128
 21
140.64238
 31
0.0
  0
LINE
  5
BA
330
1F
100
AcDbEntity
  8
SLD-0
  6
Continuous
 62
   179
100
AcDbLine
 10
297.36128
 20
151.29507
 30
0.0
 11
297.36128
 21
145.98969
 31
0.0
  0
LINE
  5
BB
330
1F
100
AcDbEntity
  8
SLD-0
  6
Continuous
 62
   179
100
AcDbLine
 10
297.36128
 20
142.39508
 30
0.0
 11
297.36128
 21
141.64238
 31
0.0
  0
LINE
  5
BC
330
1F
100
AcDbEntity
  8
SLD-0
  6
Continuous
 62
   179
100
AcDbLine
 10
329.361282
 20
151.29507
 30
0.0
 11
329.361282
 21
145.98969
 31
0.0
  0
LINE
  5
BD
330
1F
100
AcDbEntity
  8
SLD-0
  6
Continuous
 62
   179
100
AcDbLine
 10
329.3612793247
 20
142.3950807973
 30
0.0
 11
329.3612793247
 21
141.6423807973
 31
0.0
  0
LINE
  5
BE
330
1F
100
AcDbEntity
  8
SLD-0
  6
Continuous
 62
   179
100
AcDbLine
 10
330.8612793247
 20
140.6423807973
 30
0.0
 11
330.3612793247
 21
140.6423807973
 31
0.0
  0
LINE
  5
BF
330
1F
100
AcDbEntity
  8
SLD-0
  6
Continuous
 62
   179
100
AcDbLine
 10
329.3612788002
 20
155.6423772159
 30
0.0
 11
329.3612788002
 21
154.8896772159
 31
0.0
  0
LINE
  5
C0
330
1F
100
AcDbEntity
  8
SLD-0
  6
Continuous
 62
   179
100
AcDbLine
 10
329.061295
 20
145.69238
 30
0.0
 11
327.872086
 21
145.69238
 31
0.0
  0
LINE
  5
C1
330
1F
100
AcDbEntity
  8
SLD-0
  6
Continuous
 62
   179
100
AcDbLine
 10
329.361282
 20
151.29507
 30
0.0
 11
329.361282
 21
145.99509
 31
0.0
  0
LINE
  5
C2
330
1F
100
AcDbEntity
  8
SLD-0
  6
CENTER
 62
   179
100
AcDbLine
 10
326.361282
 20
148.44623
 30
0.0
 11
326.361282
 21
140.59238
 31
0.0
  0
LINE
  5
C3
330
1F
100
AcDbEntity
  8
SLD-0
  6
Continuous
 62
   179
100
AcDbLine
 10
329.061295
 20
142.69238
 30
0.0
 11
327.872086
 21
142.69238
 31
0.0
  0
LINE
  5
C4
330
1F
100
AcDbEntity
  8
SLD-0
  6
Continuous
 62
   179
100
AcDbLine
 10
330.8612788002
 20
156.6423772159
 30
0.0
 11
330.3612788002
 21
156.6423772159
 31
0.0
  0
LINE
  5
C5
330
1F
100
AcDbEntity
  8
SLD-0
  6
Continuous
 62
   179
100
AcDbLine
 10
329.0612942476
 20
154.592371273
 30
0.0
 11
327.8720852476
 21
154.592371273
 31
0.0
  0
LINE
  5
C6
330
1F
100
AcDbEntity
  8
SLD-0
  6
CENTER
 62
   179
100
AcDbLine
 10
326.361282
 20
148.83853
 30
0.0
 11
326.361282
 21
156.69238
 31
0.0
  0
LINE
  5
C7
330
1F
100
AcDbEntity
  8
SLD-0
  6
CENTER
 62
   179
100
AcDbLine
 10
330.861282
 20
153.09238
 30
0.0
 11
322.761276
 21
153.09238
 31
0.0
  0
LINE
  5
C8
330
1F
100
AcDbEntity
  8
SLD-0
  6
Continuous
 62
   179
100
AcDbLine
 10
329.061295
 20
151.59238
 30
0.0
 11
327.872086
 21
151.59238
 31
0.0
  0
LINE
  5
C9
330
1F
100
AcDbEntity
  8
SLD-0
  6
CENTER
 62
   179
100
AcDbLine
 10
330.861282
 20
144.19238
 30
0.0
 11
322.761276
 21
144.19238
 31
0.0
  0
LINE
  5
CA
330
1F
100
AcDbEntity
  8
SLD-0
  6
Continuous
 62
   179
100
AcDbLine
 10
295.86128
 20
117.10647
 30
0.0
 11
297.66268
 21
110.383548
 31
0.0
  0
LINE
  5
CB
330
1F
100
AcDbEntity
  8
SLD-0
  6
Continuous
 62
   179
100
AcDbLine
 10
295.86128
 20
180.17831
 30
0.0
 11
297.66267
 21
186.9012
 31
0.0
  0
LINE
  5
CC
330
1F
100
AcDbEntity
  8
SLD-0
  6
Continuous
 62
   179
100
AcDbLine
 10
296.06128
 20
119.10647
 30
0.0
 11
296.16128
 21
119.10647
 31
0.0
  0
LINE
  5
CD
330
1F
100
AcDbEntity
  8
SLD-0
  6
Continuous
 62
   179
100
AcDbLine
 10
296.06128
 20
120.60647
 30
0.0
 11
296.16128
 21
120.60647
 31
0.0
  0
LINE
  5
CE
330
1F
100
AcDbEntity
  8
SLD-0
  6
Continuous
 62
   179
100
AcDbLine
 10
296.06128
 20
122.10647
 30
0.0
 11
296.16128
 21
122.10647
 31
0.0
  0
LINE
  5
CF
330
1F
100
AcDbEntity
  8
SLD-0
  6
Continuous
 62
   179
100
AcDbLine
 10
296.06128
 20
123.60647
 30
0.0
 11
296.16128
 21
123.60647
 31
0.0
  0
LINE
  5
D0
330
1F
100
AcDbEntity
  8
SLD-0
  6
Continuous
 62
   179
100
AcDbLine
 10
296.06128
 20
125.10647
 30
0.0
 11
296.16128
 21
125.10647
 31
0.0
  0
LINE
  5
D1
330
1F
100
AcDbEntity
  8
SLD-0
  6
Continuous
 62
   179
100
AcDbLine
 10
296.06128
 20
126.60647
 30
0.0
 11
296.16128
 21
126.60647
 31
0.0
  0
LINE
  5
D2
330
1F
100
AcDbEntity
  8
SLD-0
  6
Continuous
 62
   179
100
AcDbLine
 10
296.06128
 20
128.10647
 30
0.0
 11
296.16128
 21
128.10647
 31
0.0
  0
LINE
  5
D3
330
1F
100
AcDbEntity
  8
SLD-0
  6
Continuous
 62
   179
100
AcDbLine
 10
296.06128
 20
129.60647
 30
0.0
 11
296.16128
 21
129.60647
 31
0.0
  0
LINE
  5
D4
330
1F
100
AcDbEntity
  8
SLD-0
  6
Continuous
 62
   179
100
AcDbLine
 10
296.36128
 20
120.40647
 30
0.0
 11
296.36128
 21
119.30647
 31
0.0
  0
LINE
  5
D5
330
1F
100
AcDbEntity
  8
SLD-0
  6
Continuous
 62
   179
100
AcDbLine
 10
296.36128
 20
123.40647
 30
0.0
 11
296.36128
 21
122.30647
 31
0.0
  0
LINE
  5
D6
330
1F
100
AcDbEntity
  8
SLD-0
  6
Continuous
 62
   179
100
AcDbLine
 10
296.36128
 20
126.40647
 30
0.0
 11
296.36128
 21
125.30647
 31
0.0
  0
LINE
  5
D7
330
1F
100
AcDbEntity
  8
SLD-0
  6
Continuous
 62
   179
100
AcDbLine
 10
296.36128
 20
129.40647
 30
0.0
 11
296.36128
 21
128.30647
 31
0.0
  0
LINE
  5
D8
330
1F
100
AcDbEntity
  8
SLD-0
  6
Continuous
 62
   179
100
AcDbLine
 10
295.86128
 20
127.90647
 30
0.0
 11
295.86128
 21
126.80647
 31
0.0
  0
LINE
  5
D9
330
1F
100
AcDbEntity
  8
SLD-0
  6
Continuous
 62
   179
100
AcDbLine
 10
295.86128
 20
124.90647
 30
0.0
 11
295.86128
 21
123.80647
 31
0.0
  0
LINE
  5
DA
330
1F
100
AcDbEntity
  8
SLD-0
  6
Continuous
 62
   179
100
AcDbLine
 10
295.86128
 20
121.90647
 30
0.0
 11
295.86128
 21
120.80647
 31
0.0
  0
LINE
  5
DB
330
1F
100
AcDbEntity
  8
SLD-0
  6
Continuous
 62
   179
100
AcDbLine
 10
295.86128
 20
118.90647
 30
0.0
 11
295.86128
 21
117.10647
 31
0.0
  0
LINE
  5
DC
330
1F
100
AcDbEntity
  8
SLD-0
  6
Continuous
 62
   179
100
AcDbLine
 10
295.86128
 20
156.64238
 30
0.0
 11
295.86128
 21
167.4783
 31
0.0
  0
LINE
  5
DD
330
1F
100
AcDbEntity
  8
SLD-0
  6
Continuous
 62
   179
100
AcDbLine
 10
295.86128
 20
169.3783
 30
0.0
 11
295.86128
 21
170.4783
 31
0.0
  0
LINE
  5
DE
330
1F
100
AcDbEntity
  8
SLD-0
  6
Continuous
 62
   179
100
AcDbLine
 10
295.86128
 20
178.3783
 30
0.0
 11
295.86128
 21
180.1783
 31
0.0
  0
LINE
  5
DF
330
1F
100
AcDbEntity
  8
SLD-0
  6
Continuous
 62
   179
100
AcDbLine
 10
295.86128
 20
175.3783
 30
0.0
 11
295.86128
 21
176.4783
 31
0.0
  0
LINE
  5
E0
330
1F
100
AcDbEntity
  8
SLD-0
  6
Continuous
 62
   179
100
AcDbLine
 10
295.86128
 20
172.3783
 30
0.0
 11
295.86128
 21
173.4783
 31
0.0
  0
LINE
  5
E1
330
1F
100
AcDbEntity
  8
SLD-0
  6
Continuous
 62
   179
100
AcDbLine
 10
296.36128
 20
167.8783
 30
0.0
 11
296.36128
 21
168.9783
 31
0.0
  0
LINE
  5
E2
330
1F
100
AcDbEntity
  8
SLD-0
  6
Continuous
 62
   179
100
AcDbLine
 10
296.36128
 20
170.8783
 30
0.0
 11
296.36128
 21
171.9783
 31
0.0
  0
LINE
  5
E3
330
1F
100
AcDbEntity
  8
SLD-0
  6
Continuous
 62
   179
100
AcDbLine
 10
296.36128
 20
173.8783
 30
0.0
 11
296.36128
 21
174.9783
 31
0.0
  0
LINE
  5
E4
330
1F
100
AcDbEntity
  8
SLD-0
  6
Continuous
 62
   179
100
AcDbLine
 10
296.36128
 20
176.8783
 30
0.0
 11
296.36128
 21
177.9783
 31
0.0
  0
LINE
  5
E5
330
1F
100
AcDbEntity
  8
SLD-0
  6
Continuous
 62
   179
100
AcDbLine
 10
296.06128
 20
167.6783
 30
0.0
 11
296.16128
 21
167.6783
 31
0.0
  0
LINE
  5
E6
330
1F
100
AcDbEntity
  8
SLD-0
  6
Continuous
 62
   179
100
AcDbLine
 10
296.06128
 20
172.1783
 30
0.0
 11
296.16128
 21
172.1783
 31
0.0
  0
LINE
  5
E7
330
1F
100
AcDbEntity
  8
SLD-0
  6
Continuous
 62
   179
100
AcDbLine
 10
296.06128
 20
169.1783
 30
0.0
 11
296.16128
 21
169.1783
 31
0.0
  0
LINE
  5
E8
330
1F
100
AcDbEntity
  8
SLD-0
  6
Continuous
 62
   179
100
AcDbLine
 10
296.06128
 20
170.6783
 30
0.0
 11
296.16128
 21
170.6783
 31
0.0
  0
LINE
  5
E9
330
1F
100
AcDbEntity
  8
SLD-0
  6
Continuous
 62
   179
100
AcDbLine
 10
296.06128
 20
173.6783
 30
0.0
 11
296.16128
 21
173.6783
 31
0.0
  0
LINE
  5
EA
330
1F
100
AcDbEntity
  8
SLD-0
  6
Continuous
 62
   179
100
AcDbLine
 10
296.06128
 20
178.1783
 30
0.0
 11
296.16128
 21
178.1783
 31
0.0
  0
LINE
  5
EB
330
1F
100
AcDbEntity
  8
SLD-0
  6
Continuous
 62
   179
100
AcDbLine
 10
296.06128
 20
175.1783
 30
0.0
 11
296.16128
 21
175.1783
 31
0.0
  0
LINE
  5
EC
330
1F
100
AcDbEntity
  8
SLD-0
  6
Continuous
 62
   179
100
AcDbLine
 10
296.06128
 20
176.6783
 30
0.0
 11
296.16128
 21
176.6783
 31
0.0
  0
LINE
  5
ED
330
1F
100
AcDbEntity
  8
SLD-0
  6
Continuous
 62
   179
100
AcDbLine
 10
100.16275
 20
111.642372
 30
0.0
 11
102.16274
 21
113.64237
 31
0.0
  0
LINE
  5
EE
330
1F
100
AcDbEntity
  8
SLD-0
  6
Continuous
 62
   179
100
AcDbLine
 10
76.16275
 20
113.64237
 30
0.0
 11
78.16275
 21
111.642372
 31
0.0
  0
LINE
  5
EF
330
1F
100
AcDbEntity
  8
SLD-0
  6
Continuous
 62
   179
100
AcDbLine
 10
76.16275
 20
183.64238
 30
0.0
 11
78.16275
 21
185.64238
 31
0.0
  0
LINE
  5
F0
330
1F
100
AcDbEntity
  8
SLD-0
  6
Continuous
 62
   179
100
AcDbLine
 10
100.16275
 20
185.64239
 30
0.0
 11
102.16275
 21
183.64238
 31
0.0
  0
LINE
  5
F1
330
1F
100
AcDbEntity
  8
SLD-0
  6
Continuous
 62
   179
100
AcDbLine
 10
330.8612788002
 20
156.6423772159
 30
0.0
 11
330.8612788002
 21
167.4782972159
 31
0.0
  0
LINE
  5
F2
330
1F
100
AcDbEntity
  8
SLD-0
  6
Continuous
 62
   179
100
AcDbLine
 10
330.8612748002
 20
180.1783012159
 30
0.0
 11
329.0598808002
 21
186.9012012159
 31
0.0
  0
LINE
  5
F3
330
1F
100
AcDbEntity
  8
SLD-0
  6
Continuous
 62
   179
100
AcDbLine
 10
330.8612803247
 20
117.1064667973
 30
0.0
 11
329.0598783247
 21
110.3835457973
 31
0.0
  0
LINE
  5
F4
330
1F
100
AcDbEntity
  8
SLD-0
  6
Continuous
 62
   179
100
AcDbLine
 10
330.8612793247
 20
140.6423807973
 30
0.0
 11
330.8612793247
 21
129.8064707973
 31
0.0
  0
LINE
  5
F5
330
1F
100
AcDbEntity
  8
SLD-0
  6
Continuous
 62
   179
100
AcDbLine
 10
71.66274
 20
180.1783
 30
0.0
 11
73.66274
 21
187.64241
 31
0.0
  0
LINE
  5
F6
330
1F
100
AcDbEntity
  8
SLD-0
  6
Continuous
 62
   179
100
AcDbLine
 10
71.66275
 20
169.3783
 30
0.0
 11
71.66275
 21
170.4783
 31
0.0
  0
LINE
  5
F7
330
1F
100
AcDbEntity
  8
SLD-0
  6
Continuous
 62
   179
100
AcDbLine
 10
71.66275
 20
178.3783
 30
0.0
 11
71.66275
 21
180.1783
 31
0.0
  0
LINE
  5
F8
330
1F
100
AcDbEntity
  8
SLD-0
  6
Continuous
 62
   179
100
AcDbLine
 10
71.66275
 20
172.3783
 30
0.0
 11
71.66275
 21
173.4783
 31
0.0
  0
LINE
  5
F9
330
1F
100
AcDbEntity
  8
SLD-0
  6
Continuous
 62
   179
100
AcDbLine
 10
72.16275
 20
167.8783
 30
0.0
 11
72.16275
 21
168.9783
 31
0.0
  0
LINE
  5
FA
330
1F
100
AcDbEntity
  8
SLD-0
  6
Continuous
 62
   179
100
AcDbLine
 10
72.16275
 20
170.8783
 30
0.0
 11
72.16275
 21
171.9783
 31
0.0
  0
LINE
  5
FB
330
1F
100
AcDbEntity
  8
SLD-0
  6
Continuous
 62
   179
100
AcDbLine
 10
72.16275
 20
173.8783
 30
0.0
 11
72.16275
 21
177.9783
 31
0.0
  0
LINE
  5
FC
330
1F
100
AcDbEntity
  8
SLD-0
  6
Continuous
 62
   179
100
AcDbLine
 10
71.862755
 20
167.678305
 30
0.0
 11
71.962735
 21
167.678305
 31
0.0
  0
LINE
  5
FD
330
1F
100
AcDbEntity
  8
SLD-0
  6
Continuous
 62
   179
100
AcDbLine
 10
71.862755
 20
172.178295
 30
0.0
 11
71.962735
 21
172.178295
 31
0.0
  0
LINE
  5
FE
330
1F
100
AcDbEntity
  8
SLD-0
  6
Continuous
 62
   179
100
AcDbLine
 10
71.862755
 20
169.178295
 30
0.0
 11
71.962735
 21
169.178295
 31
0.0
  0
LINE
  5
FF
330
1F
100
AcDbEntity
  8
SLD-0
  6
Continuous
 62
   179
100
AcDbLine
 10
71.862755
 20
170.678305
 30
0.0
 11
71.962735
 21
170.678305
 31
0.0
  0
LINE
  5
100
330
1F
100
AcDbEntity
  8
SLD-0
  6
Continuous
 62
   179
100
AcDbLine
 10
71.862755
 20
173.678305
 30
0.0
 11
71.962735
 21
173.678305
 31
0.0
  0
LINE
  5
101
330
1F
100
AcDbEntity
  8
SLD-0
  6
Continuous
 62
   179
100
AcDbLine
 10
71.862755
 20
178.178295
 30
0.0
 11
71.962735
 21
178.178295
 31
0.0
  0
LINE
  5
102
330
1F
100
AcDbEntity
  8
SLD-0
  6
Continuous
 62
   179
100
AcDbLine
 10
106.462735
 20
178.178305
 30
0.0
 11
106.362755
 21
178.178305
 31
0.0
  0
LINE
  5
103
330
1F
100
AcDbEntity
  8
SLD-0
  6
Continuous
 62
   179
100
AcDbLine
 10
106.462735
 20
176.678295
 30
0.0
 11
106.362755
 21
176.678295
 31
0.0
  0
LINE
  5
104
330
1F
100
AcDbEntity
  8
SLD-0
  6
Continuous
 62
   179
100
AcDbLine
 10
106.462735
 20
175.178305
 30
0.0
 11
106.362755
 21
175.178305
 31
0.0
  0
LINE
  5
105
330
1F
100
AcDbEntity
  8
SLD-0
  6
Continuous
 62
   179
100
AcDbLine
 10
106.462735
 20
173.678295
 30
0.0
 11
106.362755
 21
173.678295
 31
0.0
  0
LINE
  5
106
330
1F
100
AcDbEntity
  8
SLD-0
  6
Continuous
 62
   179
100
AcDbLine
 10
106.16275
 20
176.8783
 30
0.0
 11
106.16275
 21
177.9783
 31
0.0
  0
LINE
  5
107
330
1F
100
AcDbEntity
  8
SLD-0
  6
Continuous
 62
   179
100
AcDbLine
 10
106.462735
 20
170.678295
 30
0.0
 11
106.362755
 21
170.678295
 31
0.0
  0
LINE
  5
108
330
1F
100
AcDbEntity
  8
SLD-0
  6
Continuous
 62
   179
100
AcDbLine
 10
106.462735
 20
169.178305
 30
0.0
 11
106.362755
 21
169.178305
 31
0.0
  0
LINE
  5
109
330
1F
100
AcDbEntity
  8
SLD-0
  6
Continuous
 62
   179
100
AcDbLine
 10
106.462735
 20
172.178305
 30
0.0
 11
106.362755
 21
172.178305
 31
0.0
  0
LINE
  5
10A
330
1F
100
AcDbEntity
  8
SLD-0
  6
Continuous
 62
   179
100
AcDbLine
 10
106.462735
 20
167.678295
 30
0.0
 11
106.362755
 21
167.678295
 31
0.0
  0
LINE
  5
10B
330
1F
100
AcDbEntity
  8
SLD-0
  6
Continuous
 62
   179
100
AcDbLine
 10
106.16275
 20
173.8783
 30
0.0
 11
106.16275
 21
174.9783
 31
0.0
  0
LINE
  5
10C
330
1F
100
AcDbEntity
  8
SLD-0
  6
Continuous
 62
   179
100
AcDbLine
 10
106.16275
 20
170.8783
 30
0.0
 11
106.16275
 21
171.9783
 31
0.0
  0
LINE
  5
10D
330
1F
100
AcDbEntity
  8
SLD-0
  6
Continuous
 62
   179
100
AcDbLine
 10
106.16275
 20
167.8783
 30
0.0
 11
106.16275
 21
168.9783
 31
0.0
  0
LINE
  5
10E
330
1F
100
AcDbEntity
  8
SLD-0
  6
Continuous
 62
   179
100
AcDbLine
 10
106.66275
 20
175.3783
 30
0.0
 11
106.66275
 21
176.4783
 31
0.0
  0
LINE
  5
10F
330
1F
100
AcDbEntity
  8
SLD-0
  6
Continuous
 62
   179
100
AcDbLine
 10
106.66275
 20
172.3783
 30
0.0
 11
106.66275
 21
173.4783
 31
0.0
  0
LINE
  5
110
330
1F
100
AcDbEntity
  8
SLD-0
  6
Continuous
 62
   179
100
AcDbLine
 10
106.66275
 20
178.3783
 30
0.0
 11
106.66275
 21
180.1783
 31
0.0
  0
LINE
  5
111
330
1F
100
AcDbEntity
  8
SLD-0
  6
Continuous
 62
   179
100
AcDbLine
 10
106.66275
 20
169.3783
 30
0.0
 11
106.66275
 21
170.4783
 31
0.0
  0
LINE
  5
112
330
1F
100
AcDbEntity
  8
SLD-0
  6
Continuous
 62
   179
100
AcDbLine
 10
106.66276
 20
180.17829
 30
0.0
 11
104.66276
 21
187.64241
 31
0.0
  0
LINE
  5
113
330
1F
100
AcDbEntity
  8
SLD-0
  6
CENTER
 62
   179
100
AcDbLine
 10
89.16275
 20
110.102394
 30
0.0
 11
89.16275
 21
187.18239
 31
0.0
  0
LINE
  5
114
330
1F
100
AcDbEntity
  8
SLD-0
  6
Continuous
 62
   179
100
AcDbLine
 10
71.66276
 20
117.10648
 30
0.0
 11
73.66275
 21
109.642372
 31
0.0
  0
LINE
  5
115
330
1F
100
AcDbEntity
  8
SLD-0
  6
Continuous
 62
   179
100
AcDbLine
 10
71.66275
 20
127.90647
 30
0.0
 11
71.66275
 21
126.80647
 31
0.0
  0
LINE
  5
116
330
1F
100
AcDbEntity
  8
SLD-0
  6
Continuous
 62
   179
100
AcDbLine
 10
71.66275
 20
118.90647
 30
0.0
 11
71.66275
 21
117.10647
 31
0.0
  0
LINE
  5
117
330
1F
100
AcDbEntity
  8
SLD-0
  6
Continuous
 62
   179
100
AcDbLine
 10
71.66275
 20
124.90647
 30
0.0
 11
71.66275
 21
123.80647
 31
0.0
  0
LINE
  5
118
330
1F
100
AcDbEntity
  8
SLD-0
  6
Continuous
 62
   179
100
AcDbLine
 10
72.16275
 20
129.40647
 30
0.0
 11
72.16275
 21
128.30647
 31
0.0
  0
LINE
  5
119
330
1F
100
AcDbEntity
  8
SLD-0
  6
Continuous
 62
   179
100
AcDbLine
 10
72.16275
 20
126.40647
 30
0.0
 11
72.16275
 21
125.30647
 31
0.0
  0
LINE
  5
11A
330
1F
100
AcDbEntity
  8
SLD-0
  6
Continuous
 62
   179
100
AcDbLine
 10
72.16275
 20
123.40647
 30
0.0
 11
72.16275
 21
119.30647
 31
0.0
  0
LINE
  5
11B
330
1F
100
AcDbEntity
  8
SLD-0
  6
Continuous
 62
   179
100
AcDbLine
 10
71.862755
 20
129.606465
 30
0.0
 11
71.962735
 21
129.606465
 31
0.0
  0
LINE
  5
11C
330
1F
100
AcDbEntity
  8
SLD-0
  6
Continuous
 62
   179
100
AcDbLine
 10
71.862755
 20
125.106475
 30
0.0
 11
71.962735
 21
125.106475
 31
0.0
  0
LINE
  5
11D
330
1F
100
AcDbEntity
  8
SLD-0
  6
Continuous
 62
   179
100
AcDbLine
 10
71.862755
 20
128.106475
 30
0.0
 11
71.962735
 21
128.106475
 31
0.0
  0
LINE
  5
11E
330
1F
100
AcDbEntity
  8
SLD-0
  6
Continuous
 62
   179
100
AcDbLine
 10
71.862755
 20
126.606465
 30
0.0
 11
71.962735
 21
126.606465
 31
0.0
  0
LINE
  5
11F
330
1F
100
AcDbEntity
  8
SLD-0
  6
Continuous
 62
   179
100
AcDbLine
 10
71.862755
 20
123.606465
 30
0.0
 11
71.962735
 21
123.606465
 31
0.0
  0
LINE
  5
120
330
1F
100
AcDbEntity
  8
SLD-0
  6
Continuous
 62
   179
100
AcDbLine
 10
71.862755
 20
119.106475
 30
0.0
 11
71.962735
 21
119.106475
 31
0.0
  0
LINE
  5
121
330
1F
100
AcDbEntity
  8
SLD-0
  6
Continuous
 62
   179
100
AcDbLine
 10
106.462735
 20
119.106465
 30
0.0
 11
106.362755
 21
119.106465
 31
0.0
  0
LINE
  5
122
330
1F
100
AcDbEntity
  8
SLD-0
  6
Continuous
 62
   179
100
AcDbLine
 10
106.462735
 20
120.606475
 30
0.0
 11
106.362755
 21
120.606475
 31
0.0
  0
LINE
  5
123
330
1F
100
AcDbEntity
  8
SLD-0
  6
Continuous
 62
   179
100
AcDbLine
 10
106.462735
 20
122.106465
 30
0.0
 11
106.362755
 21
122.106465
 31
0.0
  0
LINE
  5
124
330
1F
100
AcDbEntity
  8
SLD-0
  6
Continuous
 62
   179
100
AcDbLine
 10
106.462735
 20
123.606475
 30
0.0
 11
106.362755
 21
123.606475
 31
0.0
  0
LINE
  5
125
330
1F
100
AcDbEntity
  8
SLD-0
  6
Continuous
 62
   179
100
AcDbLine
 10
106.16275
 20
120.40647
 30
0.0
 11
106.16275
 21
119.30647
 31
0.0
  0
LINE
  5
126
330
1F
100
AcDbEntity
  8
SLD-0
  6
Continuous
 62
   179
100
AcDbLine
 10
106.462735
 20
126.606475
 30
0.0
 11
106.362755
 21
126.606475
 31
0.0
  0
LINE
  5
127
330
1F
100
AcDbEntity
  8
SLD-0
  6
Continuous
 62
   179
100
AcDbLine
 10
106.462735
 20
128.106465
 30
0.0
 11
106.362755
 21
128.106465
 31
0.0
  0
LINE
  5
128
330
1F
100
AcDbEntity
  8
SLD-0
  6
Continuous
 62
   179
100
AcDbLine
 10
106.462735
 20
125.106465
 30
0.0
 11
106.362755
 21
125.106465
 31
0.0
  0
LINE
  5
129
330
1F
100
AcDbEntity
  8
SLD-0
  6
Continuous
 62
   179
100
AcDbLine
 10
106.462735
 20
129.606475
 30
0.0
 11
106.362755
 21
129.606475
 31
0.0
  0
LINE
  5
12A
330
1F
100
AcDbEntity
  8
SLD-0
  6
Continuous
 62
   179
100
AcDbLine
 10
106.16275
 20
123.40647
 30
0.0
 11
106.16275
 21
122.30647
 31
0.0
  0
LINE
  5
12B
330
1F
100
AcDbEntity
  8
SLD-0
  6
Continuous
 62
   179
100
AcDbLine
 10
106.16275
 20
126.40647
 30
0.0
 11
106.16275
 21
125.30647
 31
0.0
  0
LINE
  5
12C
330
1F
100
AcDbEntity
  8
SLD-0
  6
Continuous
 62
   179
100
AcDbLine
 10
106.16275
 20
129.40647
 30
0.0
 11
106.16275
 21
128.30647
 31
0.0
  0
LINE
  5
12D
330
1F
100
AcDbEntity
  8
SLD-0
  6
Continuous
 62
   179
100
AcDbLine
 10
106.66275
 20
121.90647
 30
0.0
 11
106.66275
 21
120.80647
 31
0.0
  0
LINE
  5
12E
330
1F
100
AcDbEntity
  8
SLD-0
  6
Continuous
 62
   179
100
AcDbLine
 10
106.66275
 20
124.90647
 30
0.0
 11
106.66275
 21
123.80647
 31
0.0
  0
LINE
  5
12F
330
1F
100
AcDbEntity
  8
SLD-0
  6
Continuous
 62
   179
100
AcDbLine
 10
106.66275
 20
118.90647
 30
0.0
 11
106.66275
 21
117.10647
 31
0.0
  0
LINE
  5
130
330
1F
100
AcDbEntity
  8
SLD-0
  6
Continuous
 62
   179
100
AcDbLine
 10
106.66275
 20
127.90647
 30
0.0
 11
106.66275
 21
126.80647
 31
0.0
  0
LINE
  5
131
330
1F
100
AcDbEntity
  8
SLD-0
  6
Continuous
 62
   179
100
AcDbLine
 10
106.66274
 20
117.10648
 30
0.0
 11
104.66274
 21
109.642373
 31
0.0
  0
LINE
  5
132
330
1F
100
AcDbEntity
  8
SLD-0
  6
Continuous
 62
   179
100
AcDbLine
 10
71.66275
 20
167.4783
 30
0.0
 11
71.66275
 21
156.64238
 31
0.0
  0
LINE
  5
133
330
1F
100
AcDbEntity
  8
SLD-0
  6
Continuous
 62
   179
100
AcDbLine
 10
106.66275
 20
167.4783
 30
0.0
 11
106.66275
 21
156.64238
 31
0.0
  0
LINE
  5
134
330
1F
100
AcDbEntity
  8
SLD-0
  6
Continuous
 62
   179
100
AcDbLine
 10
73.46274
 20
142.69238
 30
0.0
 11
74.65195
 21
142.69238
 31
0.0
  0
LINE
  5
135
330
1F
100
AcDbEntity
  8
SLD-0
  6
Continuous
 62
   179
100
AcDbLine
 10
73.16275
 20
151.29507
 30
0.0
 11
73.16275
 21
145.99509
 31
0.0
  0
LINE
  5
136
330
1F
100
AcDbEntity
  8
SLD-0
  6
Continuous
 62
   179
100
AcDbLine
 10
73.46274
 20
145.69238
 30
0.0
 11
74.65195
 21
145.69238
 31
0.0
  0
LINE
  5
137
330
1F
100
AcDbEntity
  8
SLD-0
  6
Continuous
 62
   179
100
AcDbLine
 10
73.16275
 20
155.64238
 30
0.0
 11
73.16275
 21
154.88968
 31
0.0
  0
LINE
  5
138
330
1F
100
AcDbEntity
  8
SLD-0
  6
Continuous
 62
   179
100
AcDbLine
 10
105.16275
 20
155.64238
 30
0.0
 11
105.16275
 21
154.88968
 31
0.0
  0
LINE
  5
139
330
1F
100
AcDbEntity
  8
SLD-0
  6
Continuous
 62
   179
100
AcDbLine
 10
105.16275
 20
142.39508
 30
0.0
 11
105.16275
 21
141.64238
 31
0.0
  0
LINE
  5
13A
330
1F
100
AcDbEntity
  8
SLD-0
  6
Continuous
 62
   179
100
AcDbLine
 10
106.66275
 20
140.64238
 30
0.0
 11
106.16275
 21
140.64238
 31
0.0
  0
LINE
  5
13B
330
1F
100
AcDbEntity
  8
SLD-0
  6
Continuous
 62
   179
100
AcDbLine
 10
71.66275
 20
140.64238
 30
0.0
 11
72.16275
 21
140.64238
 31
0.0
  0
LINE
  5
13C
330
1F
100
AcDbEntity
  8
SLD-0
  6
Continuous
 62
   179
100
AcDbLine
 10
104.86276
 20
145.69238
 30
0.0
 11
103.67355
 21
145.69238
 31
0.0
  0
LINE
  5
13D
330
1F
100
AcDbEntity
  8
SLD-0
  6
Continuous
 62
   179
100
AcDbLine
 10
104.86276
 20
142.69238
 30
0.0
 11
103.67355
 21
142.69238
 31
0.0
  0
LINE
  5
13E
330
1F
100
AcDbEntity
  8
SLD-0
  6
Continuous
 62
   179
100
AcDbLine
 10
106.66275
 20
156.64238
 30
0.0
 11
106.16275
 21
156.64238
 31
0.0
  0
LINE
  5
13F
330
1F
100
AcDbEntity
  8
SLD-0
  6
Continuous
 62
   179
100
AcDbLine
 10
104.86276
 20
154.59238
 30
0.0
 11
103.67355
 21
154.59238
 31
0.0
  0
LINE
  5
140
330
1F
100
AcDbEntity
  8
SLD-0
  6
Continuous
 62
   179
100
AcDbLine
 10
104.86276
 20
151.59238
 30
0.0
 11
103.67355
 21
151.59238
 31
0.0
  0
LINE
  5
141
330
1F
100
AcDbEntity
  8
SLD-0
  6
Continuous
 62
   179
100
AcDbLine
 10
73.16275
 20
142.39508
 30
0.0
 11
73.16275
 21
141.64238
 31
0.0
  0
LINE
  5
142
330
1F
100
AcDbEntity
  8
SLD-0
  6
Continuous
 62
   179
100
AcDbLine
 10
71.66275
 20
156.64238
 30
0.0
 11
72.16275
 21
156.64238
 31
0.0
  0
LINE
  5
143
330
1F
100
AcDbEntity
  8
SLD-0
  6
Continuous
 62
   179
100
AcDbLine
 10
73.4627407523
 20
154.5923775795
 30
0.0
 11
74.6519507523
 21
154.5923775795
 31
0.0
  0
LINE
  5
144
330
1F
100
AcDbEntity
  8
SLD-0
  6
Continuous
 62
   179
100
AcDbLine
 10
73.46274
 20
151.59238
 30
0.0
 11
74.65195
 21
151.59238
 31
0.0
  0
LINE
  5
145
330
1F
100
AcDbEntity
  8
SLD-0
  6
Continuous
 62
   179
100
AcDbLine
 10
71.66275
 20
140.64238
 30
0.0
 11
71.66275
 21
129.80647
 31
0.0
  0
LINE
  5
146
330
1F
100
AcDbEntity
  8
SLD-0
  6
Continuous
 62
   179
100
AcDbLine
 10
106.66275
 20
140.64238
 30
0.0
 11
106.66275
 21
129.80647
 31
0.0
  0
LINE
  5
147
330
1F
100
AcDbEntity
  8
SLD-0
  6
Continuous
 62
   179
100
AcDbLine
 10
189.23248
 20
255.90956
 30
0.0
 11
246.23248
 21
255.90956
 31
0.0
  0
LINE
  5
148
330
1F
100
AcDbEntity
  8
SLD-0
  6
Continuous
 62
   179
100
AcDbLine
 10
189.23248
 20
224.90953
 30
0.0
 11
246.23248
 21
224.90953
 31
0.0
  0
LINE
  5
149
330
1F
100
AcDbEntity
  8
SLD-0
  6
Continuous
 62
   179
100
AcDbLine
 10
172.2325
 20
251.40953
 30
0.0
 11
182.2325
 21
251.40953
 31
0.0
  0
LINE
  5
14A
330
1F
100
AcDbEntity
  8
SLD-0
  6
Continuous
 62
   179
100
AcDbLine
 10
172.2325
 20
229.40953
 30
0.0
 11
182.2325
 21
229.40953
 31
0.0
  0
LINE
  5
14B
330
1F
100
AcDbEntity
  8
SLD-0
  6
Continuous
 62
   179
100
AcDbLine
 10
182.2325
 20
51.358448
 30
0.0
 11
188.93248
 21
51.358448
 31
0.0
  0
LINE
  5
14C
330
1F
100
AcDbEntity
  8
SLD-0
  6
Continuous
 62
   179
100
AcDbLine
 10
182.2325
 20
63.35844
 30
0.0
 11
188.93248
 21
63.35844
 31
0.0
  0
LINE
  5
14D
330
1F
100
AcDbEntity
  8
SLD-0
  6
CENTER
 62
   179
100
AcDbLine
 10
139.81766
 20
57.358448
 30
0.0
 11
246.23248
 21
57.358448
 31
0.0
  0
LINE
  5
14E
330
1F
100
AcDbEntity
  8
SLD-0
  6
Continuous
 62
   179
100
AcDbLine
 10
172.2325
 20
44.358448
 30
0.0
 11
182.2325
 21
44.358448
 31
0.0
  0
LINE
  5
14F
330
1F
100
AcDbEntity
  8
SLD-0
  6
Continuous
 62
   179
100
AcDbLine
 10
172.2325
 20
70.35844
 30
0.0
 11
182.2325
 21
70.35844
 31
0.0
  0
LINE
  5
150
330
1F
100
AcDbEntity
  8
SLD-0
  6
Continuous
 62
   179
100
AcDbLine
 10
237.73248
 20
62.358448
 30
0.0
 11
237.73248
 21
52.358448
 31
0.0
  0
LINE
  5
151
330
1F
100
AcDbEntity
  8
SLD-0
  6
Continuous
 62
   179
100
AcDbLine
 10
172.2325
 20
70.35844
 30
0.0
 11
172.2325
 21
44.358448
 31
0.0
  0
LINE
  5
152
330
1F
100
AcDbEntity
  8
SLD-0
  6
Continuous
 62
   179
100
AcDbLine
 10
182.2325
 20
70.35844
 30
0.0
 11
182.2325
 21
44.358448
 31
0.0
  0
LINE
  5
153
330
1F
100
AcDbEntity
  8
SLD-0
  6
CENTER
 62
   179
100
AcDbLine
 10
224.23248
 20
50.398441
 30
0.0
 11
224.23248
 21
39.818445
 31
0.0
  0
LINE
  5
154
330
1F
100
AcDbEntity
  8
SLD-0
  6
CENTER
 62
   179
100
AcDbLine
 10
194.23248
 20
50.398441
 30
0.0
 11
194.23248
 21
39.818445
 31
0.0
  0
LINE
  5
155
330
1F
100
AcDbEntity
  8
SLD-0
  6
CENTER
 62
   179
100
AcDbLine
 10
189.1925
 20
45.358448
 30
0.0
 11
199.27249
 21
45.358448
 31
0.0
  0
LINE
  5
156
330
1F
100
AcDbEntity
  8
SLD-0
  6
CENTER
 62
   179
100
AcDbLine
 10
219.1925
 20
45.358448
 30
0.0
 11
229.27249
 21
45.358448
 31
0.0
  0
LINE
  5
157
330
1F
100
AcDbEntity
  8
SLD-0
  6
HIDDEN
 62
   179
100
AcDbLine
 10
235.36644
 20
69.358441
 30
0.0
 11
236.23247
 21
69.858441
 31
0.0
  0
LINE
  5
158
330
1F
100
AcDbEntity
  8
SLD-0
  6
Continuous
 62
   179
100
AcDbLine
 10
246.23248
 20
74.85844
 30
0.0
 11
246.23248
 21
39.858446
 31
0.0
  0
LINE
  5
159
330
1F
100
AcDbEntity
  8
SLD-0
  6
Continuous
 62
   179
100
AcDbLine
 10
189.23248
 20
74.85844
 30
0.0
 11
189.23248
 21
39.858446
 31
0.0
  0
LINE
  5
15A
330
1F
100
AcDbEntity
  8
SLD-0
  6
Continuous
 62
   179
100
AcDbLine
 10
189.23248
 20
39.858446
 30
0.0
 11
246.23248
 21
39.858446
 31
0.0
  0
LINE
  5
15B
330
1F
100
AcDbEntity
  8
SLD-0
  6
Continuous
 62
   179
100
AcDbLine
 10
189.23248
 20
74.85844
 30
0.0
 11
246.23248
 21
74.85844
 31
0.0
  0
LINE
  5
15C
330
1F
100
AcDbEntity
  8
SLD-0
  6
Continuous
 62
   179
100
AcDbLine
 10
197.73248
 20
62.358448
 30
0.0
 11
197.73248
 21
52.358448
 31
0.0
  0
LINE
  5
15D
330
1F
100
AcDbEntity
  8
SLD-0
  6
CENTER
 62
   179
100
AcDbLine
 10
221.29248
 20
69.358448
 30
0.0
 11
234.17249
 21
69.358448
 31
0.0
  0
LINE
  5
15E
330
1F
100
AcDbEntity
  8
SLD-0
  6
Continuous
 62
   179
100
AcDbLine
 10
225.42308
 20
65.358448
 30
0.0
 11
230.04189
 21
65.358448
 31
0.0
  0
LINE
  5
15F
330
1F
100
AcDbEntity
  8
SLD-0
  6
Continuous
 62
   179
100
AcDbLine
 10
204.54189
 20
65.358446
 30
0.0
 11
206.85129
 21
69.358445
 31
0.0
  0
LINE
  5
160
330
1F
100
AcDbEntity
  8
SLD-0
  6
Continuous
 62
   179
100
AcDbLine
 10
223.11368
 20
69.358445
 30
0.0
 11
225.42308
 21
73.358444
 31
0.0
  0
LINE
  5
161
330
1F
100
AcDbEntity
  8
SLD-0
  6
Continuous
 62
   179
100
AcDbLine
 10
230.04189
 20
65.358448
 30
0.0
 11
232.35129
 21
69.358443
 31
0.0
  0
LINE
  5
162
330
1F
100
AcDbEntity
  8
SLD-0
  6
Continuous
 62
   179
100
AcDbLine
 10
204.54187
 20
73.358452
 30
0.0
 11
206.85128
 21
69.35845
 31
0.0
  0
LINE
  5
163
330
1F
100
AcDbEntity
  8
SLD-0
  6
CENTER
 62
   179
100
AcDbLine
 10
195.79248
 20
69.358448
 30
0.0
 11
208.67249
 21
69.358448
 31
0.0
  0
LINE
  5
164
330
1F
100
AcDbEntity
  8
SLD-0
  6
Continuous
 62
   179
100
AcDbLine
 10
199.92308
 20
73.358448
 30
0.0
 11
204.54189
 21
73.358448
 31
0.0
  0
LINE
  5
165
330
1F
100
AcDbEntity
  8
SLD-0
  6
CENTER
 62
   179
100
AcDbLine
 10
227.73248
 20
75.798443
 30
0.0
 11
227.73248
 21
62.918446
 31
0.0
  0
LINE
  5
166
330
1F
100
AcDbEntity
  8
SLD-0
  6
Continuous
 62
   179
100
AcDbLine
 10
225.42308
 20
73.358444
 30
0.0
 11
230.04189
 21
73.358448
 31
0.0
  0
LINE
  5
167
330
1F
100
AcDbEntity
  8
SLD-0
  6
Continuous
 62
   179
100
AcDbLine
 10
197.61367
 20
69.358452
 30
0.0
 11
199.92307
 21
65.35845
 31
0.0
  0
LINE
  5
168
330
1F
100
AcDbEntity
  8
SLD-0
  6
Continuous
 62
   179
100
AcDbLine
 10
197.73248
 20
52.358448
 30
0.0
 11
237.73248
 21
52.358448
 31
0.0
  0
LINE
  5
169
330
1F
100
AcDbEntity
  8
SLD-0
  6
Continuous
 62
   179
100
AcDbLine
 10
197.73248
 20
62.358448
 30
0.0
 11
237.73248
 21
62.358448
 31
0.0
  0
LINE
  5
16A
330
1F
100
AcDbEntity
  8
SLD-0
  6
Continuous
 62
   179
100
AcDbLine
 10
189.23248
 20
72.858448
 30
0.0
 11
246.23248
 21
72.858448
 31
0.0
  0
LINE
  5
16B
330
1F
100
AcDbEntity
  8
SLD-0
  6
Continuous
 62
   179
100
AcDbLine
 10
189.23248
 20
41.858446
 30
0.0
 11
246.23248
 21
41.858446
 31
0.0
  0
LINE
  5
16C
330
1F
100
AcDbEntity
  8
SLD-0
  6
Continuous
 62
   179
100
AcDbLine
 10
172.2325
 20
68.35844
 30
0.0
 11
182.2325
 21
68.35844
 31
0.0
  0
LINE
  5
16D
330
1F
100
AcDbEntity
  8
SLD-0
  6
Continuous
 62
   179
100
AcDbLine
 10
172.2325
 20
46.358448
 30
0.0
 11
182.2325
 21
46.358448
 31
0.0
  0
LINE
  5
16E
330
1F
100
AcDbEntity
  8
SLD-0
  6
Continuous
 62
   179
100
AcDbLine
 10
230.04187
 20
73.358451
 30
0.0
 11
232.35127
 21
69.358448
 31
0.0
  0
LINE
  5
16F
330
1F
100
AcDbEntity
  8
SLD-0
  6
Continuous
 62
   179
100
AcDbLine
 10
197.61367
 20
69.358452
 30
0.0
 11
199.92308
 21
73.358448
 31
0.0
  0
LINE
  5
170
330
1F
100
AcDbEntity
  8
SLD-0
  6
Continuous
 62
   179
100
AcDbLine
 10
223.11366
 20
69.35845
 30
0.0
 11
225.42307
 21
65.358448
 31
0.0
  0
LINE
  5
171
330
1F
100
AcDbEntity
  8
SLD-0
  6
CENTER
 62
   179
100
AcDbLine
 10
202.23248
 20
75.798443
 30
0.0
 11
202.23248
 21
62.918446
 31
0.0
  0
LINE
  5
172
330
1F
100
AcDbEntity
  8
SLD-0
  6
Continuous
 62
   179
100
AcDbLine
 10
199.92307
 20
65.35845
 30
0.0
 11
204.54189
 21
65.358446
 31
0.0
  0
LINE
  5
173
330
1F
100
AcDbEntity
  8
SLD-0
  6
Continuous
 62
   179
100
AcDbLine
 10
105.16275
 20
151.29509
 30
0.0
 11
105.16275
 21
145.98969
 31
0.0
  0
LINE
  5
174
330
1F
100
AcDbEntity
  8
SLD-0
  6
Continuous
 62
   179
100
AcDbLine
 10
330.6612768002
 20
178.1782992159
 30
0.0
 11
330.5612778002
 21
178.1782992159
 31
0.0
  0
LINE
  5
175
330
1F
100
AcDbEntity
  8
SLD-0
  6
Continuous
 62
   179
100
AcDbLine
 10
330.6612768002
 20
176.6783022159
 30
0.0
 11
330.5612778002
 21
176.6783022159
 31
0.0
  0
LINE
  5
176
330
1F
100
AcDbEntity
  8
SLD-0
  6
Continuous
 62
   179
100
AcDbLine
 10
330.6612768002
 20
175.1782982159
 30
0.0
 11
330.5612778002
 21
175.1782982159
 31
0.0
  0
LINE
  5
177
330
1F
100
AcDbEntity
  8
SLD-0
  6
Continuous
 62
   179
100
AcDbLine
 10
330.6612768002
 20
173.6783012159
 30
0.0
 11
330.5612778002
 21
173.6783012159
 31
0.0
  0
LINE
  5
178
330
1F
100
AcDbEntity
  8
SLD-0
  6
Continuous
 62
   179
100
AcDbLine
 10
330.3612793002
 20
176.8783007159
 30
0.0
 11
330.3612793002
 21
177.9783007159
 31
0.0
  0
LINE
  5
179
330
1F
100
AcDbEntity
  8
SLD-0
  6
Continuous
 62
   179
100
AcDbLine
 10
330.6612768002
 20
170.6783002159
 30
0.0
 11
330.5612778002
 21
170.6783002159
 31
0.0
  0
LINE
  5
17A
330
1F
100
AcDbEntity
  8
SLD-0
  6
Continuous
 62
   179
100
AcDbLine
 10
330.6612768002
 20
169.1782962159
 30
0.0
 11
330.5612778002
 21
169.1782962159
 31
0.0
  0
LINE
  5
17B
330
1F
100
AcDbEntity
  8
SLD-0
  6
Continuous
 62
   179
100
AcDbLine
 10
330.6612768002
 20
172.1782972159
 30
0.0
 11
330.5612778002
 21
172.1782972159
 31
0.0
  0
LINE
  5
17C
330
1F
100
AcDbEntity
  8
SLD-0
  6
Continuous
 62
   179
100
AcDbLine
 10
330.6612768002
 20
167.6782992159
 30
0.0
 11
330.5612778002
 21
167.6782992159
 31
0.0
  0
LINE
  5
17D
330
1F
100
AcDbEntity
  8
SLD-0
  6
Continuous
 62
   179
100
AcDbLine
 10
330.3612793002
 20
173.8782997159
 30
0.0
 11
330.3612793002
 21
174.9782997159
 31
0.0
  0
LINE
  5
17E
330
1F
100
AcDbEntity
  8
SLD-0
  6
Continuous
 62
   179
100
AcDbLine
 10
330.3612793002
 20
170.8782987159
 30
0.0
 11
330.3612793002
 21
171.9782987159
 31
0.0
  0
LINE
  5
17F
330
1F
100
AcDbEntity
  8
SLD-0
  6
Continuous
 62
   179
100
AcDbLine
 10
330.3612793002
 20
167.8782977159
 30
0.0
 11
330.3612793002
 21
168.9782977159
 31
0.0
  0
LINE
  5
180
330
1F
100
AcDbEntity
  8
SLD-0
  6
Continuous
 62
   179
100
AcDbLine
 10
330.8612788002
 20
175.3783002159
 30
0.0
 11
330.8612788002
 21
176.4783002159
 31
0.0
  0
LINE
  5
181
330
1F
100
AcDbEntity
  8
SLD-0
  6
Continuous
 62
   179
100
AcDbLine
 10
330.8612788002
 20
172.3782992159
 30
0.0
 11
330.8612788002
 21
173.4782992159
 31
0.0
  0
LINE
  5
182
330
1F
100
AcDbEntity
  8
SLD-0
  6
Continuous
 62
   179
100
AcDbLine
 10
330.8612788002
 20
178.3783012159
 30
0.0
 11
330.8612748002
 21
180.1783012159
 31
0.0
  0
LINE
  5
183
330
1F
100
AcDbEntity
  8
SLD-0
  6
Continuous
 62
   179
100
AcDbLine
 10
330.8612788002
 20
169.3782982159
 30
0.0
 11
330.8612788002
 21
170.4782982159
 31
0.0
  0
LINE
  5
184
330
1F
100
AcDbEntity
  8
SLD-0
  6
Continuous
 62
   179
100
AcDbLine
 10
330.6612773247
 20
122.1064697973
 30
0.0
 11
330.5612783247
 21
122.1064697973
 31
0.0
  0
LINE
  5
185
330
1F
100
AcDbEntity
  8
SLD-0
  6
Continuous
 62
   179
100
AcDbLine
 10
330.6612773247
 20
128.1064717973
 30
0.0
 11
330.5612783247
 21
128.1064717973
 31
0.0
  0
LINE
  5
186
330
1F
100
AcDbEntity
  8
SLD-0
  6
Continuous
 62
   179
100
AcDbLine
 10
330.6612773247
 20
120.6064657973
 30
0.0
 11
330.5612783247
 21
120.6064657973
 31
0.0
  0
LINE
  5
187
330
1F
100
AcDbEntity
  8
SLD-0
  6
Continuous
 62
   179
100
AcDbLine
 10
330.6612773247
 20
126.6064677973
 30
0.0
 11
330.5612783247
 21
126.6064677973
 31
0.0
  0
LINE
  5
188
330
1F
100
AcDbEntity
  8
SLD-0
  6
Continuous
 62
   179
100
AcDbLine
 10
330.3612798247
 20
123.4064682973
 30
0.0
 11
330.3612798247
 21
122.3064682973
 31
0.0
  0
LINE
  5
189
330
1F
100
AcDbEntity
  8
SLD-0
  6
Continuous
 62
   179
100
AcDbLine
 10
330.3612798247
 20
120.4064672973
 30
0.0
 11
330.3612798247
 21
119.3064672973
 31
0.0
  0
LINE
  5
18A
330
1F
100
AcDbEntity
  8
SLD-0
  6
Continuous
 62
   179
100
AcDbLine
 10
330.3612798247
 20
126.4064692973
 30
0.0
 11
330.3612798247
 21
125.3064692973
 31
0.0
  0
LINE
  5
18B
330
1F
100
AcDbEntity
  8
SLD-0
  6
Continuous
 62
   179
100
AcDbLine
 10
330.6612773247
 20
119.1064687973
 30
0.0
 11
330.5612783247
 21
119.1064687973
 31
0.0
  0
LINE
  5
18C
330
1F
100
AcDbEntity
  8
SLD-0
  6
Continuous
 62
   179
100
AcDbLine
 10
330.6612773247
 20
123.6064667973
 30
0.0
 11
330.5612783247
 21
123.6064667973
 31
0.0
  0
LINE
  5
18D
330
1F
100
AcDbEntity
  8
SLD-0
  6
Continuous
 62
   179
100
AcDbLine
 10
330.6612773247
 20
129.6064687973
 30
0.0
 11
330.5612783247
 21
129.6064687973
 31
0.0
  0
LINE
  5
18E
330
1F
100
AcDbEntity
  8
SLD-0
  6
Continuous
 62
   179
100
AcDbLine
 10
330.6612773247
 20
125.1064707973
 30
0.0
 11
330.5612783247
 21
125.1064707973
 31
0.0
  0
LINE
  5
18F
330
1F
100
AcDbEntity
  8
SLD-0
  6
Continuous
 62
   179
100
AcDbLine
 10
330.3612798247
 20
129.4064702973
 30
0.0
 11
330.3612798247
 21
128.3064702973
 31
0.0
  0
LINE
  5
190
330
1F
100
AcDbEntity
  8
SLD-0
  6
Continuous
 62
   179
100
AcDbLine
 10
330.8612793247
 20
127.9064697973
 30
0.0
 11
330.8612793247
 21
126.8064697973
 31
0.0
  0
LINE
  5
191
330
1F
100
AcDbEntity
  8
SLD-0
  6
Continuous
 62
   179
100
AcDbLine
 10
330.8612793247
 20
118.9064667973
 30
0.0
 11
330.8612803247
 21
117.1064667973
 31
0.0
  0
LINE
  5
192
330
1F
100
AcDbEntity
  8
SLD-0
  6
Continuous
 62
   179
100
AcDbLine
 10
330.8612793247
 20
124.9064687973
 30
0.0
 11
330.8612793247
 21
123.8064687973
 31
0.0
  0
LINE
  5
193
330
1F
100
AcDbEntity
  8
SLD-0
  6
Continuous
 62
   179
100
AcDbLine
 10
330.8612793247
 20
121.9064677973
 30
0.0
 11
330.8612793247
 21
120.8064677973
 31
0.0
  0
LINE
  5
194
330
1F
100
AcDbEntity
  8
SLD-0
  6
CENTER
 62
   179
100
AcDbLine
 10
303.361282
 20
119.68238
 30
0.0
 11
303.361282
 21
109.602386
 31
0.0
  0
LINE
  5
195
330
1F
100
AcDbEntity
  8
SLD-0
  6
CENTER
 62
   179
100
AcDbLine
 10
298.32128
 20
114.64239
 30
0.0
 11
308.401283
 21
114.64239
 31
0.0
  0
LINE
  5
196
330
1F
100
AcDbEntity
  8
SLD-0
  6
PHANTOM
 62
   179
100
AcDbLine
 10
162.2325
 20
51.358448
 30
0.0
 11
169.23248
 21
51.358448
 31
0.0
  0
LINE
  5
197
330
1F
100
AcDbEntity
  8
SLD-0
  6
PHANTOM
 62
   179
100
AcDbLine
 10
162.2325
 20
63.35844
 30
0.0
 11
169.23248
 21
63.35844
 31
0.0
  0
LINE
  5
198
330
1F
100
AcDbEntity
  8
SLD-0
  6
PHANTOM
 62
   179
100
AcDbLine
 10
152.2325
 20
44.358448
 30
0.0
 11
162.2325
 21
44.358448
 31
0.0
  0
LINE
  5
199
330
1F
100
AcDbEntity
  8
SLD-0
  6
PHANTOM
 62
   179
100
AcDbLine
 10
152.2325
 20
70.35844
 30
0.0
 11
162.2325
 21
70.35844
 31
0.0
  0
LINE
  5
19A
330
1F
100
AcDbEntity
  8
SLD-0
  6
PHANTOM
 62
   179
100
AcDbLine
 10
152.2325
 20
70.35844
 30
0.0
 11
152.2325
 21
44.358448
 31
0.0
  0
LINE
  5
19B
330
1F
100
AcDbEntity
  8
SLD-0
  6
PHANTOM
 62
   179
100
AcDbLine
 10
162.2325
 20
70.35844
 30
0.0
 11
162.2325
 21
44.358448
 31
0.0
  0
LINE
  5
19C
330
1F
100
AcDbEntity
  8
SLD-0
  6
PHANTOM
 62
   179
100
AcDbLine
 10
152.2325
 20
68.35844
 30
0.0
 11
162.2325
 21
68.35844
 31
0.0
  0
LINE
  5
19D
330
1F
100
AcDbEntity
  8
SLD-0
  6
PHANTOM
 62
   179
100
AcDbLine
 10
152.2325
 20
46.358448
 30
0.0
 11
162.2325
 21
46.358448
 31
0.0
  0
LINE
  5
19E
330
1F
100
AcDbEntity
  8
SLD-0
  6
CENTER
 62
   179
100
AcDbLine
 10
211.23248
 20
167.68237
 30
0.0
 11
211.23248
 21
157.60237
 31
0.0
  0
LINE
  5
19F
330
1F
100
AcDbEntity
  8
SLD-0
  6
CENTER
 62
   179
100
AcDbLine
 10
228.23248
 20
167.68237
 30
0.0
 11
228.23248
 21
157.60237
 31
0.0
  0
LINE
  5
1A0
330
1F
100
AcDbEntity
  8
SLD-0
  6
CENTER
 62
   179
100
AcDbLine
 10
223.1925
 20
162.64238
 30
0.0
 11
233.27249
 21
162.64238
 31
0.0
  0
LINE
  5
1A1
330
1F
100
AcDbEntity
  8
SLD-0
  6
CENTER
 62
   179
100
AcDbLine
 10
206.1925
 20
162.64238
 30
0.0
 11
216.27249
 21
162.64238
 31
0.0
  0
LINE
  5
1A2
330
1F
100
AcDbEntity
  8
SLD-0
  6
Continuous
 62
   179
100
AcDbLine
 10
189.23248
 20
156.64238
 30
0.0
 11
246.23248
 21
156.64238
 31
0.0
  0
LINE
  5
1A3
330
1F
100
AcDbEntity
  8
SLD-0
  6
Continuous
 62
   179
100
AcDbLine
 10
189.23248
 20
154.59238
 30
0.0
 11
246.23248
 21
154.59238
 31
0.0
  0
LINE
  5
1A4
330
1F
100
AcDbEntity
  8
SLD-0
  6
Continuous
 62
   179
100
AcDbLine
 10
189.23248
 20
151.59238
 30
0.0
 11
246.23248
 21
151.59238
 31
0.0
  0
LINE
  5
1A5
330
1F
100
AcDbEntity
  8
SLD-0
  6
CENTER
 62
   179
100
AcDbLine
 10
211.23248
 20
128.64239
 30
0.0
 11
211.23248
 21
140.64238
 31
0.0
  0
LINE
  5
1A6
330
1F
100
AcDbEntity
  8
SLD-0
  6
CENTER
 62
   179
100
AcDbLine
 10
222.23248
 20
134.64239
 30
0.0
 11
234.23248
 21
134.64239
 31
0.0
  0
LINE
  5
1A7
330
1F
100
AcDbEntity
  8
SLD-0
  6
CENTER
 62
   179
100
AcDbLine
 10
228.23248
 20
128.64239
 30
0.0
 11
228.23248
 21
140.64238
 31
0.0
  0
LINE
  5
1A8
330
1F
100
AcDbEntity
  8
SLD-0
  6
CENTER
 62
   179
100
AcDbLine
 10
204.73248
 20
134.64239
 30
0.0
 11
216.73248
 21
134.64239
 31
0.0
  0
LINE
  5
1A9
330
1F
100
AcDbEntity
  8
SLD-0
  6
Continuous
 62
   179
100
AcDbLine
 10
189.23248
 20
169.1783
 30
0.0
 11
246.23248
 21
169.1783
 31
0.0
  0
LINE
  5
1AA
330
1F
100
AcDbEntity
  8
SLD-0
  6
Continuous
 62
   179
100
AcDbLine
 10
189.23248
 20
187.64238
 30
0.0
 11
189.23248
 21
109.642372
 31
0.0
  0
LINE
  5
1AB
330
1F
100
AcDbEntity
  8
SLD-0
  6
Continuous
 62
   179
100
AcDbLine
 10
189.23248
 20
178.1783
 30
0.0
 11
246.23248
 21
178.1783
 31
0.0
  0
LINE
  5
1AC
330
1F
100
AcDbEntity
  8
SLD-0
  6
Continuous
 62
   179
100
AcDbLine
 10
182.2325
 20
127.64237
 30
0.0
 11
189.23248
 21
127.64237
 31
0.0
  0
LINE
  5
1AD
330
1F
100
AcDbEntity
  8
SLD-0
  6
Continuous
 62
   179
100
AcDbLine
 10
182.2325
 20
181.64238
 30
0.0
 11
189.23248
 21
181.64238
 31
0.0
  0
LINE
  5
1AE
330
1F
100
AcDbEntity
  8
SLD-0
  6
CENTER
 62
   179
100
AcDbLine
 10
172.2325
 20
148.64238
 30
0.0
 11
246.23248
 21
148.64238
 31
0.0
  0
LINE
  5
1AF
330
1F
100
AcDbEntity
  8
SLD-0
  6
Continuous
 62
   179
100
AcDbLine
 10
246.23248
 20
187.64238
 30
0.0
 11
246.23248
 21
109.642372
 31
0.0
  0
LINE
  5
1B0
330
1F
100
AcDbEntity
  8
SLD-0
  6
CENTER
 62
   179
100
AcDbLine
 10
153.2662
 20
148.64238
 30
0.0
 11
261.72263
 21
148.64238
 31
0.0
  0
LINE
  5
1B1
330
1F
100
AcDbEntity
  8
SLD-0
  6
Continuous
 62
   179
100
AcDbLine
 10
189.23248
 20
187.64238
 30
0.0
 11
246.23248
 21
187.64238
 31
0.0
  0
LINE
  5
1B2
330
1F
100
AcDbEntity
  8
SLD-0
  6
Continuous
 62
   179
100
AcDbLine
 10
189.23248
 20
109.642372
 30
0.0
 11
246.23248
 21
109.642372
 31
0.0
  0
LINE
  5
1B3
330
1F
100
AcDbEntity
  8
SLD-0
  6
CENTER
 62
   179
100
AcDbLine
 10
172.2325
 20
175.64238
 30
0.0
 11
191.65987
 21
175.64238
 31
0.0
  0
LINE
  5
1B4
330
1F
100
AcDbEntity
  8
SLD-0
  6
Continuous
 62
   179
100
AcDbLine
 10
182.2325
 20
169.64238
 30
0.0
 11
189.23248
 21
169.64238
 31
0.0
  0
LINE
  5
1B5
330
1F
100
AcDbEntity
  8
SLD-0
  6
Continuous
 62
   179
100
AcDbLine
 10
189.23248
 20
176.6783
 30
0.0
 11
246.23248
 21
176.6783
 31
0.0
  0
LINE
  5
1B6
330
1F
100
AcDbEntity
  8
SLD-0
  6
Continuous
 62
   179
100
AcDbLine
 10
189.23248
 20
167.6783
 30
0.0
 11
246.23248
 21
167.6783
 31
0.0
  0
LINE
  5
1B7
330
1F
100
AcDbEntity
  8
SLD-0
  6
Continuous
 62
   179
100
AcDbLine
 10
172.2325
 20
185.64238
 30
0.0
 11
172.2325
 21
111.642372
 31
0.0
  0
LINE
  5
1B8
330
1F
100
AcDbEntity
  8
SLD-0
  6
Continuous
 62
   179
100
AcDbLine
 10
172.2325
 20
185.64238
 30
0.0
 11
182.2325
 21
185.64238
 31
0.0
  0
LINE
  5
1B9
330
1F
100
AcDbEntity
  8
SLD-0
  6
Continuous
 62
   179
100
AcDbLine
 10
172.2325
 20
111.642372
 30
0.0
 11
182.2325
 21
111.642372
 31
0.0
  0
LINE
  5
1BA
330
1F
100
AcDbEntity
  8
SLD-0
  6
Continuous
 62
   179
100
AcDbLine
 10
182.2325
 20
115.64237
 30
0.0
 11
189.23248
 21
115.64237
 31
0.0
  0
LINE
  5
1BB
330
1F
100
AcDbEntity
  8
SLD-0
  6
CENTER
 62
   179
100
AcDbLine
 10
172.2325
 20
121.64237
 30
0.0
 11
191.06493
 21
121.64237
 31
0.0
  0
LINE
  5
1BC
330
1F
100
AcDbEntity
  8
SLD-0
  6
Continuous
 62
   179
100
AcDbLine
 10
189.23248
 20
180.1783
 30
0.0
 11
246.23248
 21
180.1783
 31
0.0
  0
LINE
  5
1BD
330
1F
100
AcDbEntity
  8
SLD-0
  6
CENTER
 62
   179
100
AcDbLine
 10
172.19252
 20
165.64238
 30
0.0
 11
182.27251
 21
165.64238
 31
0.0
  0
LINE
  5
1BE
330
1F
100
AcDbEntity
  8
SLD-0
  6
Continuous
 62
   179
100
AcDbLine
 10
189.23248
 20
153.64238
 30
0.0
 11
182.2325
 21
153.64238
 31
0.0
  0
LINE
  5
1BF
330
1F
100
AcDbEntity
  8
SLD-0
  6
Continuous
 62
   179
100
AcDbLine
 10
189.23248
 20
143.64238
 30
0.0
 11
182.2325
 21
143.64238
 31
0.0
  0
LINE
  5
1C0
330
1F
100
AcDbEntity
  8
SLD-0
  6
Continuous
 62
   179
100
AcDbLine
 10
189.23248
 20
145.64238
 30
0.0
 11
182.2325
 21
145.64238
 31
0.0
  0
LINE
  5
1C1
330
1F
100
AcDbEntity
  8
SLD-0
  6
Continuous
 62
   179
100
AcDbLine
 10
189.23248
 20
151.64238
 30
0.0
 11
182.2325
 21
151.64238
 31
0.0
  0
LINE
  5
1C2
330
1F
100
AcDbEntity
  8
SLD-0
  6
Continuous
 62
   179
100
AcDbLine
 10
189.23248
 20
151.02701
 30
0.0
 11
182.23248
 21
145.64239
 31
0.0
  0
LINE
  5
1C3
330
1F
100
AcDbEntity
  8
SLD-0
  6
Continuous
 62
   179
100
AcDbLine
 10
182.23249
 20
151.64239
 30
0.0
 11
189.23248
 21
146.25777
 31
0.0
  0
LINE
  5
1C4
330
1F
100
AcDbEntity
  8
SLD-0
  6
Continuous
 62
   179
100
AcDbLine
 10
182.2325
 20
185.64238
 30
0.0
 11
182.2325
 21
111.642372
 31
0.0
  0
LINE
  5
1C5
330
1F
100
AcDbEntity
  8
SLD-0
  6
Continuous
 62
   179
100
AcDbLine
 10
228.33249
 20
139.14239
 30
0.0
 11
228.18253
 21
139.14239
 31
0.0
  0
LINE
  5
1C6
330
1F
100
AcDbEntity
  8
SLD-0
  6
CENTER
 62
   179
100
AcDbLine
 10
177.2325
 20
170.68237
 30
0.0
 11
177.2325
 21
160.60237
 31
0.0
  0
LINE
  5
1C7
330
1F
100
AcDbEntity
  8
SLD-0
  6
CENTER
 62
   179
100
AcDbLine
 10
177.2325
 20
126.60239
 30
0.0
 11
177.2325
 21
136.6824
 31
0.0
  0
LINE
  5
1C8
330
1F
100
AcDbEntity
  8
SLD-0
  6
CENTER
 62
   179
100
AcDbLine
 10
172.19252
 20
131.64239
 30
0.0
 11
182.27251
 21
131.64239
 31
0.0
  0
LINE
  5
1C9
330
1F
100
AcDbEntity
  8
SLD-0
  6
Continuous
 62
   179
100
AcDbLine
 10
210.23248
 20
166.64238
 30
0.0
 11
210.23248
 21
167.04239
 31
0.0
  0
LINE
  5
1CA
330
1F
100
AcDbEntity
  8
SLD-0
  6
Continuous
 62
   179
100
AcDbLine
 10
189.23248
 20
122.10647
 30
0.0
 11
246.23248
 21
122.10647
 31
0.0
  0
LINE
  5
1CB
330
1F
100
AcDbEntity
  8
SLD-0
  6
Continuous
 62
   179
100
AcDbLine
 10
189.23248
 20
125.10647
 30
0.0
 11
246.23248
 21
125.10647
 31
0.0
  0
LINE
  5
1CC
330
1F
100
AcDbEntity
  8
SLD-0
  6
Continuous
 62
   179
100
AcDbLine
 10
189.23248
 20
126.60647
 30
0.0
 11
246.23248
 21
126.60647
 31
0.0
  0
LINE
  5
1CD
330
1F
100
AcDbEntity
  8
SLD-0
  6
Continuous
 62
   179
100
AcDbLine
 10
189.23248
 20
123.60647
 30
0.0
 11
246.23248
 21
123.60647
 31
0.0
  0
LINE
  5
1CE
330
1F
100
AcDbEntity
  8
SLD-0
  6
Continuous
 62
   179
100
AcDbLine
 10
189.23248
 20
145.69238
 30
0.0
 11
246.23248
 21
145.69238
 31
0.0
  0
LINE
  5
1CF
330
1F
100
AcDbEntity
  8
SLD-0
  6
Continuous
 62
   179
100
AcDbLine
 10
189.23248
 20
128.10647
 30
0.0
 11
246.23248
 21
128.10647
 31
0.0
  0
LINE
  5
1D0
330
1F
100
AcDbEntity
  8
SLD-0
  6
Continuous
 62
   179
100
AcDbLine
 10
189.23248
 20
140.64238
 30
0.0
 11
246.23248
 21
140.64238
 31
0.0
  0
LINE
  5
1D1
330
1F
100
AcDbEntity
  8
SLD-0
  6
Continuous
 62
   179
100
AcDbLine
 10
189.23248
 20
120.60647
 30
0.0
 11
246.23248
 21
120.60647
 31
0.0
  0
LINE
  5
1D2
330
1F
100
AcDbEntity
  8
SLD-0
  6
Continuous
 62
   179
100
AcDbLine
 10
189.23248
 20
142.69238
 30
0.0
 11
246.23248
 21
142.69238
 31
0.0
  0
LINE
  5
1D3
330
1F
100
AcDbEntity
  8
SLD-0
  6
Continuous
 62
   179
100
AcDbLine
 10
189.23248
 20
119.10647
 30
0.0
 11
246.23248
 21
119.10647
 31
0.0
  0
LINE
  5
1D4
330
1F
100
AcDbEntity
  8
SLD-0
  6
Continuous
 62
   179
100
AcDbLine
 10
189.23248
 20
173.6783
 30
0.0
 11
246.23248
 21
173.6783
 31
0.0
  0
LINE
  5
1D5
330
1F
100
AcDbEntity
  8
SLD-0
  6
Continuous
 62
   179
100
AcDbLine
 10
189.23248
 20
172.1783
 30
0.0
 11
246.23248
 21
172.1783
 31
0.0
  0
LINE
  5
1D6
330
1F
100
AcDbEntity
  8
SLD-0
  6
Continuous
 62
   179
100
AcDbLine
 10
189.23248
 20
170.6783
 30
0.0
 11
246.23248
 21
170.6783
 31
0.0
  0
LINE
  5
1D7
330
1F
100
AcDbEntity
  8
SLD-0
  6
Continuous
 62
   179
100
AcDbLine
 10
189.23248
 20
175.1783
 30
0.0
 11
246.23248
 21
175.1783
 31
0.0
  0
LINE
  5
1D8
330
1F
100
AcDbEntity
  8
SLD-0
  6
Continuous
 62
   179
100
AcDbLine
 10
189.23248
 20
117.10647
 30
0.0
 11
246.23248
 21
117.10647
 31
0.0
  0
LINE
  5
1D9
330
1F
100
AcDbEntity
  8
SLD-0
  6
Continuous
 62
   179
100
AcDbLine
 10
189.23248
 20
129.60647
 30
0.0
 11
246.23248
 21
129.60647
 31
0.0
  0
LINE
  5
1DA
330
1F
100
AcDbEntity
  8
SLD-0
  6
CENTER
 62
   179
100
AcDbLine
 10
326.33876
 20
148.64238
 30
0.0
 11
300.00372
 21
148.64238
 31
0.0
  0
LINE
  5
1DB
330
1F
100
AcDbEntity
  8
SLD-0
  6
CENTER
 62
   179
100
AcDbLine
 10
313.361282
 20
136.70914
 30
0.0
 11
313.361282
 21
161.70844
 31
0.0
  0
LINE
  5
1DC
330
1F
100
AcDbEntity
  8
SLD-0
  6
Continuous
 62
   179
100
AcDbLine
 10
310.45552
 20
139.07386
 30
0.0
 11
310.961457
 21
141.02849
 31
0.0
  0
LINE
  5
1DD
330
1F
100
AcDbEntity
  8
SLD-0
  6
Continuous
 62
   179
100
AcDbLine
 10
316.2670410624
 20
139.0738558392
 30
0.0
 11
315.7611050624
 21
141.0284758392
 31
0.0
  0
LINE
  5
1DE
330
1F
100
AcDbEntity
  8
SLD-0
  6
Continuous
 62
   179
100
AcDbLine
 10
89.16275
 20
123.95177
 30
0.0
 11
91.16274
 21
122.79708
 31
0.0
  0
LINE
  5
1DF
330
1F
100
AcDbEntity
  8
SLD-0
  6
Continuous
 62
   179
100
AcDbLine
 10
91.16275
 20
122.79707
 30
0.0
 11
91.16275
 21
120.48767
 31
0.0
  0
LINE
  5
1E0
330
1F
100
AcDbEntity
  8
SLD-0
  6
Continuous
 62
   179
100
AcDbLine
 10
91.16275
 20
120.48767
 30
0.0
 11
89.16275
 21
119.33297
 31
0.0
  0
LINE
  5
1E1
330
1F
100
AcDbEntity
  8
SLD-0
  6
Continuous
 62
   179
100
AcDbLine
 10
89.16274
 20
119.33298
 30
0.0
 11
87.16275
 21
120.48767
 31
0.0
  0
LINE
  5
1E2
330
1F
100
AcDbEntity
  8
SLD-0
  6
Continuous
 62
   179
100
AcDbLine
 10
87.16275
 20
122.79707
 30
0.0
 11
87.16275
 21
120.48767
 31
0.0
  0
LINE
  5
1E3
330
1F
100
AcDbEntity
  8
SLD-0
  6
Continuous
 62
   179
100
AcDbLine
 10
89.16275
 20
123.95177
 30
0.0
 11
87.16275
 21
122.79707
 31
0.0
  0
LINE
  5
1E4
330
1F
100
AcDbEntity
  8
SLD-0
  6
Continuous
 62
   179
100
AcDbLine
 10
89.16276
 20
177.95178
 30
0.0
 11
91.16275
 21
176.79709
 31
0.0
  0
LINE
  5
1E5
330
1F
100
AcDbEntity
  8
SLD-0
  6
Continuous
 62
   179
100
AcDbLine
 10
91.16275
 20
176.79709
 30
0.0
 11
91.16275
 21
174.48769
 31
0.0
  0
LINE
  5
1E6
330
1F
100
AcDbEntity
  8
SLD-0
  6
Continuous
 62
   179
100
AcDbLine
 10
91.16276
 20
174.48768
 30
0.0
 11
89.16275
 21
173.33298
 31
0.0
  0
LINE
  5
1E7
330
1F
100
AcDbEntity
  8
SLD-0
  6
Continuous
 62
   179
100
AcDbLine
 10
89.16275
 20
173.33298
 30
0.0
 11
87.16276
 21
174.48768
 31
0.0
  0
LINE
  5
1E8
330
1F
100
AcDbEntity
  8
SLD-0
  6
Continuous
 62
   179
100
AcDbLine
 10
87.16275
 20
176.79709
 30
0.0
 11
87.16276
 21
174.48768
 31
0.0
  0
LINE
  5
1E9
330
1F
100
AcDbEntity
  8
SLD-0
  6
Continuous
 62
   179
100
AcDbLine
 10
89.16276
 20
177.95178
 30
0.0
 11
87.16275
 21
176.79708
 31
0.0
  0
LINE
  5
1EA
330
1F
100
AcDbEntity
  8
SLD-0
  6
Continuous
 62
   179
100
AcDbLine
 10
89.16276
 20
150.95178
 30
0.0
 11
87.16276
 21
149.79708
 31
0.0
  0
LINE
  5
1EB
330
1F
100
AcDbEntity
  8
SLD-0
  6
Continuous
 62
   179
100
AcDbLine
 10
87.16276
 20
149.79708
 30
0.0
 11
87.16275
 21
147.48769
 31
0.0
  0
LINE
  5
1EC
330
1F
100
AcDbEntity
  8
SLD-0
  6
Continuous
 62
   179
100
AcDbLine
 10
89.16275
 20
146.33299
 30
0.0
 11
87.16275
 21
147.48769
 31
0.0
  0
LINE
  5
1ED
330
1F
100
AcDbEntity
  8
SLD-0
  6
Continuous
 62
   179
100
AcDbLine
 10
91.16276
 20
147.48768
 30
0.0
 11
89.16276
 21
146.33298
 31
0.0
  0
LINE
  5
1EE
330
1F
100
AcDbEntity
  8
SLD-0
  6
Continuous
 62
   179
100
AcDbLine
 10
91.16275
 20
149.79709
 30
0.0
 11
91.16276
 21
147.48768
 31
0.0
  0
LINE
  5
1EF
330
1F
100
AcDbEntity
  8
SLD-0
  6
Continuous
 62
   179
100
AcDbLine
 10
89.16276
 20
150.95178
 30
0.0
 11
91.16275
 21
149.79709
 31
0.0
  0
LINE
  5
1F0
330
1F
100
AcDbEntity
  8
SLD-0
  6
Continuous
 62
   179
100
AcDbLine
 10
17.07501
 20
12.0
 30
0.0
 11
402.875
 21
12.0
 31
0.0
  0
LINE
  5
1F1
330
1F
100
AcDbEntity
  8
SLD-0
  6
Continuous
 62
   179
100
AcDbLine
 10
402.875
 20
285.0
 30
0.0
 11
402.875
 21
12.0
 31
0.0
  0
LINE
  5
1F2
330
1F
100
AcDbEntity
  8
SLD-0
  6
Continuous
 62
   179
100
AcDbLine
 10
17.07501
 20
285.0
 30
0.0
 11
17.07501
 21
12.0
 31
0.0
  0
LINE
  5
1F3
330
1F
100
AcDbEntity
  8
SLD-0
  6
Continuous
 62
   179
100
AcDbLine
 10
17.07501
 20
285.0
 30
0.0
 11
402.875
 21
285.0
 31
0.0
  0
LINE
  5
1F4
330
1F
100
AcDbEntity
  8
SLD-0
  6
Continuous
 62
   179
100
AcDbLine
 10
334.375
 20
50.700001
 30
0.0
 11
334.375
 21
12.0
 31
0.0
  0
LINE
  5
1F5
330
1F
100
AcDbEntity
  8
SLD-0
  6
Continuous
 62
   179
100
AcDbLine
 10
334.375
 20
24.7
 30
0.0
 11
402.875
 21
24.7
 31
0.0
  0
LINE
  5
1F6
330
1F
100
AcDbEntity
  8
SLD-0
  6
Continuous
 62
   179
100
AcDbLine
 10
334.375
 20
37.200001
 30
0.0
 11
402.875
 21
37.200001
 31
0.0
  0
LINE
  5
1F7
330
1F
100
AcDbEntity
  8
SLD-0
  6
Continuous
 62
   179
100
AcDbLine
 10
334.375
 20
50.700001
 30
0.0
 11
402.875
 21
50.700001
 31
0.0
  0
LINE
  5
1F8
330
1F
100
AcDbEntity
  8
SLD-0
  6
CENTER
 62
   179
100
AcDbLine
 10
207.27249
 20
134.64237
 30
0.0
 11
197.19249
 21
134.64237
 31
0.0
  0
LINE
  5
1F9
330
1F
100
AcDbEntity
  8
SLD-0
  6
CENTER
 62
   179
100
AcDbLine
 10
202.23248
 20
139.68237
 30
0.0
 11
202.23248
 21
129.60237
 31
0.0
  0
LINE
  5
1FA
330
1F
100
AcDbEntity
  8
SLD-0
  6
CENTER
 62
   179
100
AcDbLine
 10
241.33948
 20
134.64237
 30
0.0
 11
232.12549
 21
134.64237
 31
0.0
  0
LINE
  5
1FB
330
1F
100
AcDbEntity
  8
SLD-0
  6
CENTER
 62
   179
100
AcDbLine
 10
236.73248
 20
139.24937
 30
0.0
 11
236.73248
 21
130.03537
 31
0.0
  0
CIRCLE
  5
1FC
330
1F
100
AcDbEntity
  8
SLD-0
  6
Continuous
 62
   179
100
AcDbCircle
 10
303.361282
 20
182.64238
 30
0.0
 40
2.066999899999985
  0
CIRCLE
  5
1FD
330
1F
100
AcDbEntity
  8
SLD-0
  6
Continuous
 62
   179
100
AcDbCircle
 10
303.361282
 20
114.64239
 30
0.0
 40
2.5
  0
CIRCLE
  5
1FE
330
1F
100
AcDbEntity
  8
SLD-0
  6
Continuous
 62
   179
100
AcDbCircle
 10
313.361282
 20
175.64238
 30
0.0
 40
7.0
  0
CIRCLE
  5
1FF
330
1F
100
AcDbEntity
  8
SLD-0
  6
Continuous
 62
   179
100
AcDbCircle
 10
323.361282
 20
114.64239
 30
0.0
 40
2.066999899999985
  0
CIRCLE
  5
200
330
1F
100
AcDbEntity
  8
SLD-0
  6
Continuous
 62
   179
100
AcDbCircle
 10
313.361282
 20
121.64237
 30
0.0
 40
7.0
  0
CIRCLE
  5
201
330
1F
100
AcDbEntity
  8
SLD-0
  6
Continuous
 62
   179
100
AcDbCircle
 10
323.361282
 20
114.64239
 30
0.0
 40
2.5
  0
CIRCLE
  5
202
330
1F
100
AcDbEntity
  8
SLD-0
  6
Continuous
 62
   179
100
AcDbCircle
 10
313.361282
 20
148.64238
 30
0.0
 40
10.0
  0
CIRCLE
  5
203
330
1F
100
AcDbEntity
  8
SLD-0
  6
Continuous
 62
   179
100
AcDbCircle
 10
303.361282
 20
182.64238
 30
0.0
 40
2.5
  0
CIRCLE
  5
204
330
1F
100
AcDbEntity
  8
SLD-0
  6
Continuous
 62
   179
100
AcDbCircle
 10
303.361282
 20
114.64239
 30
0.0
 40
2.066999899999985
  0
CIRCLE
  5
205
330
1F
100
AcDbEntity
  8
SLD-0
  6
Continuous
 62
   179
100
AcDbCircle
 10
323.361282
 20
182.64238
 30
0.0
 40
2.5
  0
CIRCLE
  5
206
330
1F
100
AcDbEntity
  8
SLD-0
  6
Continuous
 62
   179
100
AcDbCircle
 10
323.361282
 20
182.64238
 30
0.0
 40
2.066999899999985
  0
CIRCLE
  5
207
330
1F
100
AcDbEntity
  8
SLD-0
  6
Continuous
 62
   179
100
AcDbCircle
 10
97.16275
 20
180.64238
 30
0.0
 40
2.0
  0
CIRCLE
  5
208
330
1F
100
AcDbEntity
  8
SLD-0
  6
Continuous
 62
   179
100
AcDbCircle
 10
97.16275
 20
180.64238
 30
0.0
 40
2.5
  0
CIRCLE
  5
209
330
1F
100
AcDbEntity
  8
SLD-0
  6
Continuous
 62
   179
100
AcDbCircle
 10
81.16275
 20
180.64238
 30
0.0
 40
2.0
  0
CIRCLE
  5
20A
330
1F
100
AcDbEntity
  8
SLD-0
  6
Continuous
 62
   179
100
AcDbCircle
 10
81.16275
 20
180.64238
 30
0.0
 40
2.5
  0
CIRCLE
  5
20B
330
1F
100
AcDbEntity
  8
SLD-0
  6
Continuous
 62
   179
100
AcDbCircle
 10
81.16275
 20
116.64237
 30
0.0
 40
2.0
  0
CIRCLE
  5
20C
330
1F
100
AcDbEntity
  8
SLD-0
  6
Continuous
 62
   179
100
AcDbCircle
 10
81.16275
 20
116.64237
 30
0.0
 40
2.5
  0
CIRCLE
  5
20D
330
1F
100
AcDbEntity
  8
SLD-0
  6
Continuous
 62
   179
100
AcDbCircle
 10
97.16275
 20
116.64237
 30
0.0
 40
2.0
  0
CIRCLE
  5
20E
330
1F
100
AcDbEntity
  8
SLD-0
  6
Continuous
 62
   179
100
AcDbCircle
 10
97.16275
 20
116.64237
 30
0.0
 40
2.5
  0
CIRCLE
  5
20F
330
1F
100
AcDbEntity
  8
SLD-0
  6
Continuous
 62
   179
100
AcDbCircle
 10
194.23248
 20
252.40953
 30
0.0
 40
2.0
  0
CIRCLE
  5
210
330
1F
100
AcDbEntity
  8
SLD-0
  6
Continuous
 62
   179
100
AcDbCircle
 10
194.23248
 20
252.40953
 30
0.0
 40
2.5
  0
CIRCLE
  5
211
330
1F
100
AcDbEntity
  8
SLD-0
  6
Continuous
 62
   179
100
AcDbCircle
 10
224.23248
 20
252.40953
 30
0.0
 40
2.0
  0
CIRCLE
  5
212
330
1F
100
AcDbEntity
  8
SLD-0
  6
Continuous
 62
   179
100
AcDbCircle
 10
224.23248
 20
252.40953
 30
0.0
 40
2.5
  0
CIRCLE
  5
213
330
1F
100
AcDbEntity
  8
SLD-0
  6
Continuous
 62
   179
100
AcDbCircle
 10
224.23248
 20
228.40953
 30
0.0
 40
2.0
  0
CIRCLE
  5
214
330
1F
100
AcDbEntity
  8
SLD-0
  6
Continuous
 62
   179
100
AcDbCircle
 10
194.23248
 20
228.40953
 30
0.0
 40
2.0
  0
CIRCLE
  5
215
330
1F
100
AcDbEntity
  8
SLD-0
  6
Continuous
 62
   179
100
AcDbCircle
 10
194.23248
 20
228.40953
 30
0.0
 40
2.5
  0
CIRCLE
  5
216
330
1F
100
AcDbEntity
  8
SLD-0
  6
Continuous
 62
   179
100
AcDbCircle
 10
224.23248
 20
228.40953
 30
0.0
 40
2.5
  0
ARC
  5
217
330
1F
100
AcDbEntity
  8
SLD-0
  6
Continuous
 62
   179
100
AcDbCircle
 10
298.85048
 20
154.892380005
 30
0.0
 40
0.3000000050000356
100
AcDbArc
 50
270.0
 51
310.00776
  0
ARC
  5
218
330
1F
100
AcDbEntity
  8
SLD-0
  6
Continuous
 62
   179
100
AcDbCircle
 10
298.85048
 20
151.292374995
 30
0.0
 40
0.3000050049999923
100
AcDbArc
 50
49.992245
 51
90.0
  0
ARC
  5
219
330
1F
100
AcDbEntity
  8
SLD-0
  6
Continuous
 62
   179
100
AcDbCircle
 10
300.3612788619
 20
153.0923813609
 30
0.0
 40
2.05000176521166
100
AcDbArc
 50
229.99224
 51
130.0078709163
  0
ARC
  5
21A
330
1F
100
AcDbEntity
  8
SLD-0
  6
Continuous
 62
   179
100
AcDbCircle
 10
297.66127
 20
151.292374995
 30
0.0
 40
0.3000050050000073
100
AcDbArc
 50
90.0
 51
180.0
  0
ARC
  5
21B
330
1F
100
AcDbEntity
  8
SLD-0
  6
Continuous
 62
   179
100
AcDbCircle
 10
297.66127
 20
154.892380005
 30
0.0
 40
0.3000000050000767
100
AcDbArc
 50
180.0
 51
270.0
  0
ARC
  5
21C
330
1F
100
AcDbEntity
  8
SLD-0
  6
Continuous
 62
   179
100
AcDbCircle
 10
297.66127
 20
145.992385005
 30
0.0
 40
0.3000050050000073
100
AcDbArc
 50
180.0
 51
270.0
  0
ARC
  5
21D
330
1F
100
AcDbEntity
  8
SLD-0
  6
Continuous
 62
   179
100
AcDbCircle
 10
300.3612788619
 20
144.1923768739
 30
0.0
 40
2.049999999999983
100
AcDbArc
 50
229.99224
 51
130.00776
  0
ARC
  5
21E
330
1F
100
AcDbEntity
  8
SLD-0
  6
Continuous
 62
   179
100
AcDbCircle
 10
298.85048
 20
145.992385005
 30
0.0
 40
0.3000050050000486
100
AcDbArc
 50
270.0
 51
310.00776
  0
ARC
  5
21F
330
1F
100
AcDbEntity
  8
SLD-0
  6
Continuous
 62
   179
100
AcDbCircle
 10
298.85048
 20
142.3923782298
 30
0.0
 40
0.300001770222886
100
AcDbArc
 50
49.9914820798
 51
90.0
  0
ARC
  5
220
330
1F
100
AcDbEntity
  8
SLD-0
  6
Continuous
 62
   179
100
AcDbCircle
 10
297.66127
 20
142.392379995
 30
0.0
 40
0.3000000050000767
100
AcDbArc
 50
90.0
 51
180.0
  0
ARC
  5
221
330
1F
100
AcDbEntity
  8
SLD-0
  6
Continuous
 62
   179
100
AcDbCircle
 10
296.36128
 20
155.64238
 30
0.0
 40
1.0
100
AcDbArc
 50
0.0
 51
90.0
  0
ARC
  5
222
330
1F
100
AcDbEntity
  8
SLD-0
  6
Continuous
 62
   179
100
AcDbCircle
 10
296.36128
 20
141.64238
 30
0.0
 40
1.0
100
AcDbArc
 50
270.0
 51
0.0
  0
ARC
  5
223
330
1F
100
AcDbEntity
  8
SLD-0
  6
Continuous
 62
   179
100
AcDbCircle
 10
330.3612793247
 20
141.6423807973
 30
0.0
 40
1.0
100
AcDbArc
 50
180.0
 51
270.0
  0
ARC
  5
224
330
1F
100
AcDbEntity
  8
SLD-0
  6
Continuous
 62
   179
100
AcDbCircle
 10
330.3612788002
 20
155.6423772159
 30
0.0
 40
1.0
100
AcDbArc
 50
90.0
 51
180.0
  0
ARC
  5
225
330
1F
100
AcDbEntity
  8
SLD-0
  6
Continuous
 62
   179
100
AcDbCircle
 10
329.061295
 20
142.392379995
 30
0.0
 40
0.3000000050000156
100
AcDbArc
 50
0.0
 51
90.0
  0
ARC
  5
226
330
1F
100
AcDbEntity
  8
SLD-0
  6
Continuous
 62
   179
100
AcDbCircle
 10
329.061295
 20
151.292374995
 30
0.0
 40
0.3000050050000027
100
AcDbArc
 50
0.0
 51
90.0
  0
ARC
  5
227
330
1F
100
AcDbEntity
  8
SLD-0
  6
Continuous
 62
   179
100
AcDbCircle
 10
327.872086
 20
142.392379995
 30
0.0
 40
0.300000004999999
100
AcDbArc
 50
90.0
 51
130.00776
  0
ARC
  5
228
330
1F
100
AcDbEntity
  8
SLD-0
  6
Continuous
 62
   179
100
AcDbCircle
 10
327.872086
 20
145.992385005
 30
0.0
 40
0.3000050050000338
100
AcDbArc
 50
229.99224
 51
270.0
  0
ARC
  5
229
330
1F
100
AcDbEntity
  8
SLD-0
  6
Continuous
 62
   179
100
AcDbCircle
 10
326.3612839647
 20
144.1923776542
 30
0.0
 40
2.050003050998472
100
AcDbArc
 50
49.992241
 51
310.0079565473
  0
ARC
  5
22A
330
1F
100
AcDbEntity
  8
SLD-0
  6
Continuous
 62
   179
100
AcDbCircle
 10
329.061295
 20
145.992385005
 30
0.0
 40
0.300005005000003
100
AcDbArc
 50
270.0
 51
0.0
  0
ARC
  5
22B
330
1F
100
AcDbEntity
  8
SLD-0
  6
Continuous
 62
   179
100
AcDbCircle
 10
326.3612832124
 20
153.0923766698
 30
0.0
 40
2.050000000000006
100
AcDbArc
 50
49.992238
 51
310.00775
  0
ARC
  5
22C
330
1F
100
AcDbEntity
  8
SLD-0
  6
Continuous
 62
   179
100
AcDbCircle
 10
327.872086
 20
151.2923681142
 30
0.0
 40
0.3000118857800961
100
AcDbArc
 50
90.0
 51
130.0079435703
  0
ARC
  5
22D
330
1F
100
AcDbEntity
  8
SLD-0
  6
Continuous
 62
   179
100
AcDbCircle
 10
327.8720852476
 20
154.8923743291
 30
0.0
 40
0.3000030560328355
100
AcDbArc
 50
229.9909106163
 51
270.0
  0
ARC
  5
22E
330
1F
100
AcDbEntity
  8
SLD-0
  6
Continuous
 62
   179
100
AcDbCircle
 10
329.0612942476
 20
154.892371278
 30
0.0
 40
0.3000000050000153
100
AcDbArc
 50
270.0
 51
0.0
  0
ARC
  5
22F
330
1F
100
AcDbEntity
  8
SLD-0
  6
Continuous
 62
   179
100
AcDbCircle
 10
296.16128
 20
119.30647
 30
0.0
 40
0.2000000000000171
100
AcDbArc
 50
270.0
 51
0.0
  0
ARC
  5
230
330
1F
100
AcDbEntity
  8
SLD-0
  6
Continuous
 62
   179
100
AcDbCircle
 10
296.16128
 20
120.40647
 30
0.0
 40
0.2000000000000028
100
AcDbArc
 50
0.0
 51
90.0
  0
ARC
  5
231
330
1F
100
AcDbEntity
  8
SLD-0
  6
Continuous
 62
   179
100
AcDbCircle
 10
296.16128
 20
122.30647
 30
0.0
 40
0.2000000000000028
100
AcDbArc
 50
270.0
 51
0.0
  0
ARC
  5
232
330
1F
100
AcDbEntity
  8
SLD-0
  6
Continuous
 62
   179
100
AcDbCircle
 10
296.16128
 20
123.40647
 30
0.0
 40
0.2000000000000171
100
AcDbArc
 50
0.0
 51
90.0
  0
ARC
  5
233
330
1F
100
AcDbEntity
  8
SLD-0
  6
Continuous
 62
   179
100
AcDbCircle
 10
296.16128
 20
125.30647
 30
0.0
 40
0.2000000000000028
100
AcDbArc
 50
270.0
 51
0.0
  0
ARC
  5
234
330
1F
100
AcDbEntity
  8
SLD-0
  6
Continuous
 62
   179
100
AcDbCircle
 10
296.16128
 20
126.40647
 30
0.0
 40
0.2000000000000028
100
AcDbArc
 50
0.0
 51
90.0
  0
ARC
  5
235
330
1F
100
AcDbEntity
  8
SLD-0
  6
Continuous
 62
   179
100
AcDbCircle
 10
296.16128
 20
128.30647
 30
0.0
 40
0.2000000000000171
100
AcDbArc
 50
270.0
 51
0.0
  0
ARC
  5
236
330
1F
100
AcDbEntity
  8
SLD-0
  6
Continuous
 62
   179
100
AcDbCircle
 10
296.16128
 20
129.40647
 30
0.0
 40
0.1999999999999886
100
AcDbArc
 50
0.0
 51
90.0
  0
ARC
  5
237
330
1F
100
AcDbEntity
  8
SLD-0
  6
Continuous
 62
   179
100
AcDbCircle
 10
296.06128
 20
129.80647
 30
0.0
 40
0.2000000000000455
100
AcDbArc
 50
180.0
 51
270.0
  0
ARC
  5
238
330
1F
100
AcDbEntity
  8
SLD-0
  6
Continuous
 62
   179
100
AcDbCircle
 10
296.06128
 20
127.90647
 30
0.0
 40
0.2000000000000455
100
AcDbArc
 50
90.0
 51
180.0
  0
ARC
  5
239
330
1F
100
AcDbEntity
  8
SLD-0
  6
Continuous
 62
   179
100
AcDbCircle
 10
296.06128
 20
126.80647
 30
0.0
 40
0.2000000000000455
100
AcDbArc
 50
180.0
 51
270.0
  0
ARC
  5
23A
330
1F
100
AcDbEntity
  8
SLD-0
  6
Continuous
 62
   179
100
AcDbCircle
 10
296.06128
 20
124.90647
 30
0.0
 40
0.2000000000000455
100
AcDbArc
 50
90.0
 51
180.0
  0
ARC
  5
23B
330
1F
100
AcDbEntity
  8
SLD-0
  6
Continuous
 62
   179
100
AcDbCircle
 10
296.06128
 20
123.80647
 30
0.0
 40
0.2000000000000455
100
AcDbArc
 50
180.0
 51
270.0
  0
ARC
  5
23C
330
1F
100
AcDbEntity
  8
SLD-0
  6
Continuous
 62
   179
100
AcDbCircle
 10
296.06128
 20
121.90647
 30
0.0
 40
0.2000000000000455
100
AcDbArc
 50
90.0
 51
180.0
  0
ARC
  5
23D
330
1F
100
AcDbEntity
  8
SLD-0
  6
Continuous
 62
   179
100
AcDbCircle
 10
296.06128
 20
120.80647
 30
0.0
 40
0.2000000000000455
100
AcDbArc
 50
180.0
 51
270.0
  0
ARC
  5
23E
330
1F
100
AcDbEntity
  8
SLD-0
  6
Continuous
 62
   179
100
AcDbCircle
 10
296.06128
 20
118.90647
 30
0.0
 40
0.2000000000000455
100
AcDbArc
 50
90.0
 51
180.0
  0
ARC
  5
23F
330
1F
100
AcDbEntity
  8
SLD-0
  6
Continuous
 62
   179
100
AcDbCircle
 10
296.06128
 20
172.3783
 30
0.0
 40
0.2000000000000455
100
AcDbArc
 50
180.0
 51
270.0
  0
ARC
  5
240
330
1F
100
AcDbEntity
  8
SLD-0
  6
Continuous
 62
   179
100
AcDbCircle
 10
296.16128
 20
168.9783
 30
0.0
 40
0.2000000000000171
100
AcDbArc
 50
0.0
 51
90.0
  0
ARC
  5
241
330
1F
100
AcDbEntity
  8
SLD-0
  6
Continuous
 62
   179
100
AcDbCircle
 10
296.06128
 20
167.4783
 30
0.0
 40
0.2000000000000455
100
AcDbArc
 50
90.0
 51
180.0
  0
ARC
  5
242
330
1F
100
AcDbEntity
  8
SLD-0
  6
Continuous
 62
   179
100
AcDbCircle
 10
296.06128
 20
173.4783
 30
0.0
 40
0.2000000000000455
100
AcDbArc
 50
90.0
 51
180.0
  0
ARC
  5
243
330
1F
100
AcDbEntity
  8
SLD-0
  6
Continuous
 62
   179
100
AcDbCircle
 10
296.16128
 20
167.8783
 30
0.0
 40
0.1999999999999886
100
AcDbArc
 50
270.0
 51
0.0
  0
ARC
  5
244
330
1F
100
AcDbEntity
  8
SLD-0
  6
Continuous
 62
   179
100
AcDbCircle
 10
296.06128
 20
175.3783
 30
0.0
 40
0.2000000000000455
100
AcDbArc
 50
180.0
 51
270.0
  0
ARC
  5
245
330
1F
100
AcDbEntity
  8
SLD-0
  6
Continuous
 62
   179
100
AcDbCircle
 10
296.16128
 20
170.8783
 30
0.0
 40
0.2000000000000171
100
AcDbArc
 50
270.0
 51
0.0
  0
ARC
  5
246
330
1F
100
AcDbEntity
  8
SLD-0
  6
Continuous
 62
   179
100
AcDbCircle
 10
296.16128
 20
174.9783
 30
0.0
 40
0.2000000000000171
100
AcDbArc
 50
0.0
 51
90.0
  0
ARC
  5
247
330
1F
100
AcDbEntity
  8
SLD-0
  6
Continuous
 62
   179
100
AcDbCircle
 10
296.16128
 20
177.9783
 30
0.0
 40
0.1999999999999886
100
AcDbArc
 50
0.0
 51
90.0
  0
ARC
  5
248
330
1F
100
AcDbEntity
  8
SLD-0
  6
Continuous
 62
   179
100
AcDbCircle
 10
296.16128
 20
171.9783
 30
0.0
 40
0.2000000000000171
100
AcDbArc
 50
0.0
 51
90.0
  0
ARC
  5
249
330
1F
100
AcDbEntity
  8
SLD-0
  6
Continuous
 62
   179
100
AcDbCircle
 10
296.06128
 20
178.3783
 30
0.0
 40
0.2000000000000455
100
AcDbArc
 50
180.0
 51
270.0
  0
ARC
  5
24A
330
1F
100
AcDbEntity
  8
SLD-0
  6
Continuous
 62
   179
100
AcDbCircle
 10
296.16128
 20
176.8783
 30
0.0
 40
0.1999999999999886
100
AcDbArc
 50
270.0
 51
0.0
  0
ARC
  5
24B
330
1F
100
AcDbEntity
  8
SLD-0
  6
Continuous
 62
   179
100
AcDbCircle
 10
296.16128
 20
173.8783
 30
0.0
 40
0.1999999999999886
100
AcDbArc
 50
270.0
 51
0.0
  0
ARC
  5
24C
330
1F
100
AcDbEntity
  8
SLD-0
  6
Continuous
 62
   179
100
AcDbCircle
 10
296.06128
 20
169.3783
 30
0.0
 40
0.2000000000000455
100
AcDbArc
 50
180.0
 51
270.0
  0
ARC
  5
24D
330
1F
100
AcDbEntity
  8
SLD-0
  6
Continuous
 62
   179
100
AcDbCircle
 10
296.06128
 20
176.4783
 30
0.0
 40
0.2000000000000455
100
AcDbArc
 50
90.0
 51
180.0
  0
ARC
  5
24E
330
1F
100
AcDbEntity
  8
SLD-0
  6
Continuous
 62
   179
100
AcDbCircle
 10
296.06128
 20
170.4783
 30
0.0
 40
0.2000000000000455
100
AcDbArc
 50
90.0
 51
180.0
  0
ARC
  5
24F
330
1F
100
AcDbEntity
  8
SLD-0
  6
Continuous
 62
   179
100
AcDbCircle
 10
71.862755
 20
172.3783
 30
0.0
 40
0.200004999999976
100
AcDbArc
 50
180.0
 51
270.0
  0
ARC
  5
250
330
1F
100
AcDbEntity
  8
SLD-0
  6
Continuous
 62
   179
100
AcDbCircle
 10
71.962735
 20
168.978295
 30
0.0
 40
0.2000000000000171
100
AcDbArc
 50
0.0
 51
90.0
  0
ARC
  5
251
330
1F
100
AcDbEntity
  8
SLD-0
  6
Continuous
 62
   179
100
AcDbCircle
 10
71.862755
 20
167.4783
 30
0.0
 40
0.200004999999976
100
AcDbArc
 50
90.0
 51
180.0
  0
ARC
  5
252
330
1F
100
AcDbEntity
  8
SLD-0
  6
Continuous
 62
   179
100
AcDbCircle
 10
71.862755
 20
173.4783
 30
0.0
 40
0.200004999999976
100
AcDbArc
 50
90.0
 51
180.0
  0
ARC
  5
253
330
1F
100
AcDbEntity
  8
SLD-0
  6
Continuous
 62
   179
100
AcDbCircle
 10
71.962735
 20
167.878305
 30
0.0
 40
0.2000000000000171
100
AcDbArc
 50
270.0
 51
0.0
  0
ARC
  5
254
330
1F
100
AcDbEntity
  8
SLD-0
  6
Continuous
 62
   179
100
AcDbCircle
 10
71.962735
 20
170.878305
 30
0.0
 40
0.2000000000000171
100
AcDbArc
 50
270.0
 51
0.0
  0
ARC
  5
255
330
1F
100
AcDbEntity
  8
SLD-0
  6
Continuous
 62
   179
100
AcDbCircle
 10
71.962735
 20
177.978295
 30
0.0
 40
0.2000000000000171
100
AcDbArc
 50
0.0
 51
90.0
  0
ARC
  5
256
330
1F
100
AcDbEntity
  8
SLD-0
  6
Continuous
 62
   179
100
AcDbCircle
 10
71.962735
 20
171.978295
 30
0.0
 40
0.2000000000000171
100
AcDbArc
 50
0.0
 51
90.0
  0
ARC
  5
257
330
1F
100
AcDbEntity
  8
SLD-0
  6
Continuous
 62
   179
100
AcDbCircle
 10
71.862755
 20
178.3783
 30
0.0
 40
0.200004999999976
100
AcDbArc
 50
180.0
 51
270.0
  0
ARC
  5
258
330
1F
100
AcDbEntity
  8
SLD-0
  6
Continuous
 62
   179
100
AcDbCircle
 10
71.962735
 20
173.878305
 30
0.0
 40
0.2000000000000028
100
AcDbArc
 50
270.0
 51
0.0
  0
ARC
  5
259
330
1F
100
AcDbEntity
  8
SLD-0
  6
Continuous
 62
   179
100
AcDbCircle
 10
71.862755
 20
169.3783
 30
0.0
 40
0.200004999999976
100
AcDbArc
 50
180.0
 51
270.0
  0
ARC
  5
25A
330
1F
100
AcDbEntity
  8
SLD-0
  6
Continuous
 62
   179
100
AcDbCircle
 10
71.862755
 20
170.4783
 30
0.0
 40
0.200004999999976
100
AcDbArc
 50
90.0
 51
180.0
  0
ARC
  5
25B
330
1F
100
AcDbEntity
  8
SLD-0
  6
Continuous
 62
   179
100
AcDbCircle
 10
106.462735
 20
170.478295
 30
0.0
 40
0.1999999999999886
100
AcDbArc
 50
0.0
 51
90.0
  0
ARC
  5
25C
330
1F
100
AcDbEntity
  8
SLD-0
  6
Continuous
 62
   179
100
AcDbCircle
 10
106.462735
 20
176.478295
 30
0.0
 40
0.2000000000000171
100
AcDbArc
 50
0.0
 51
90.0
  0
ARC
  5
25D
330
1F
100
AcDbEntity
  8
SLD-0
  6
Continuous
 62
   179
100
AcDbCircle
 10
106.462735
 20
169.378305
 30
0.0
 40
0.1999999999999886
100
AcDbArc
 50
270.0
 51
0.0
  0
ARC
  5
25E
330
1F
100
AcDbEntity
  8
SLD-0
  6
Continuous
 62
   179
100
AcDbCircle
 10
106.362755
 20
173.8783
 30
0.0
 40
0.200004999999976
100
AcDbArc
 50
180.0
 51
270.0
  0
ARC
  5
25F
330
1F
100
AcDbEntity
  8
SLD-0
  6
Continuous
 62
   179
100
AcDbCircle
 10
106.462735
 20
178.378305
 30
0.0
 40
0.1999999999999886
100
AcDbArc
 50
270.0
 51
0.0
  0
ARC
  5
260
330
1F
100
AcDbEntity
  8
SLD-0
  6
Continuous
 62
   179
100
AcDbCircle
 10
106.362755
 20
176.8783
 30
0.0
 40
0.200004999999976
100
AcDbArc
 50
180.0
 51
270.0
  0
ARC
  5
261
330
1F
100
AcDbEntity
  8
SLD-0
  6
Continuous
 62
   179
100
AcDbCircle
 10
106.362755
 20
171.9783
 30
0.0
 40
0.2000049999999902
100
AcDbArc
 50
90.0
 51
180.0
  0
ARC
  5
262
330
1F
100
AcDbEntity
  8
SLD-0
  6
Continuous
 62
   179
100
AcDbCircle
 10
106.362755
 20
177.9783
 30
0.0
 40
0.2000049999999902
100
AcDbArc
 50
90.0
 51
180.0
  0
ARC
  5
263
330
1F
100
AcDbEntity
  8
SLD-0
  6
Continuous
 62
   179
100
AcDbCircle
 10
106.362755
 20
174.9783
 30
0.0
 40
0.2000049999999902
100
AcDbArc
 50
90.0
 51
180.0
  0
ARC
  5
264
330
1F
100
AcDbEntity
  8
SLD-0
  6
Continuous
 62
   179
100
AcDbCircle
 10
106.362755
 20
170.8783
 30
0.0
 40
0.2000049999999902
100
AcDbArc
 50
180.0
 51
270.0
  0
ARC
  5
265
330
1F
100
AcDbEntity
  8
SLD-0
  6
Continuous
 62
   179
100
AcDbCircle
 10
106.462735
 20
175.378305
 30
0.0
 40
0.2000000000000171
100
AcDbArc
 50
270.0
 51
0.0
  0
ARC
  5
266
330
1F
100
AcDbEntity
  8
SLD-0
  6
Continuous
 62
   179
100
AcDbCircle
 10
106.362755
 20
167.8783
 30
0.0
 40
0.2000049999999902
100
AcDbArc
 50
180.0
 51
270.0
  0
ARC
  5
267
330
1F
100
AcDbEntity
  8
SLD-0
  6
Continuous
 62
   179
100
AcDbCircle
 10
106.462735
 20
173.478295
 30
0.0
 40
0.2000000000000171
100
AcDbArc
 50
0.0
 51
90.0
  0
ARC
  5
268
330
1F
100
AcDbEntity
  8
SLD-0
  6
Continuous
 62
   179
100
AcDbCircle
 10
106.462735
 20
167.478295
 30
0.0
 40
0.1999999999999886
100
AcDbArc
 50
0.0
 51
90.0
  0
ARC
  5
269
330
1F
100
AcDbEntity
  8
SLD-0
  6
Continuous
 62
   179
100
AcDbCircle
 10
106.362755
 20
168.9783
 30
0.0
 40
0.2000049999999902
100
AcDbArc
 50
90.0
 51
180.0
  0
ARC
  5
26A
330
1F
100
AcDbEntity
  8
SLD-0
  6
Continuous
 62
   179
100
AcDbCircle
 10
106.462735
 20
172.378305
 30
0.0
 40
0.1999999999999886
100
AcDbArc
 50
270.0
 51
0.0
  0
ARC
  5
26B
330
1F
100
AcDbEntity
  8
SLD-0
  6
Continuous
 62
   179
100
AcDbCircle
 10
71.862755
 20
124.90647
 30
0.0
 40
0.2000049999999902
100
AcDbArc
 50
90.0
 51
180.0
  0
ARC
  5
26C
330
1F
100
AcDbEntity
  8
SLD-0
  6
Continuous
 62
   179
100
AcDbCircle
 10
71.962735
 20
128.306475
 30
0.0
 40
0.2000000000000171
100
AcDbArc
 50
270.0
 51
0.0
  0
ARC
  5
26D
330
1F
100
AcDbEntity
  8
SLD-0
  6
Continuous
 62
   179
100
AcDbCircle
 10
71.862755
 20
129.80647
 30
0.0
 40
0.200004999999976
100
AcDbArc
 50
180.0
 51
270.0
  0
ARC
  5
26E
330
1F
100
AcDbEntity
  8
SLD-0
  6
Continuous
 62
   179
100
AcDbCircle
 10
71.862755
 20
123.80647
 30
0.0
 40
0.200004999999976
100
AcDbArc
 50
180.0
 51
270.0
  0
ARC
  5
26F
330
1F
100
AcDbEntity
  8
SLD-0
  6
Continuous
 62
   179
100
AcDbCircle
 10
71.962735
 20
129.406465
 30
0.0
 40
0.1999999999999886
100
AcDbArc
 50
0.0
 51
90.0
  0
ARC
  5
270
330
1F
100
AcDbEntity
  8
SLD-0
  6
Continuous
 62
   179
100
AcDbCircle
 10
71.962735
 20
126.406465
 30
0.0
 40
0.2000000000000028
100
AcDbArc
 50
0.0
 51
90.0
  0
ARC
  5
271
330
1F
100
AcDbEntity
  8
SLD-0
  6
Continuous
 62
   179
100
AcDbCircle
 10
71.962735
 20
119.306475
 30
0.0
 40
0.2000000000000028
100
AcDbArc
 50
270.0
 51
0.0
  0
ARC
  5
272
330
1F
100
AcDbEntity
  8
SLD-0
  6
Continuous
 62
   179
100
AcDbCircle
 10
71.962735
 20
125.306475
 30
0.0
 40
0.2000000000000171
100
AcDbArc
 50
270.0
 51
0.0
  0
ARC
  5
273
330
1F
100
AcDbEntity
  8
SLD-0
  6
Continuous
 62
   179
100
AcDbCircle
 10
71.862755
 20
118.90647
 30
0.0
 40
0.2000049999999902
100
AcDbArc
 50
90.0
 51
180.0
  0
ARC
  5
274
330
1F
100
AcDbEntity
  8
SLD-0
  6
Continuous
 62
   179
100
AcDbCircle
 10
71.962735
 20
123.406465
 30
0.0
 40
0.2000000000000028
100
AcDbArc
 50
0.0
 51
90.0
  0
ARC
  5
275
330
1F
100
AcDbEntity
  8
SLD-0
  6
Continuous
 62
   179
100
AcDbCircle
 10
71.862755
 20
127.90647
 30
0.0
 40
0.200004999999976
100
AcDbArc
 50
90.0
 51
180.0
  0
ARC
  5
276
330
1F
100
AcDbEntity
  8
SLD-0
  6
Continuous
 62
   179
100
AcDbCircle
 10
71.862755
 20
126.80647
 30
0.0
 40
0.200004999999976
100
AcDbArc
 50
180.0
 51
270.0
  0
ARC
  5
277
330
1F
100
AcDbEntity
  8
SLD-0
  6
Continuous
 62
   179
100
AcDbCircle
 10
106.462735
 20
126.806475
 30
0.0
 40
0.2000000000000171
100
AcDbArc
 50
270.0
 51
0.0
  0
ARC
  5
278
330
1F
100
AcDbEntity
  8
SLD-0
  6
Continuous
 62
   179
100
AcDbCircle
 10
106.462735
 20
120.806475
 30
0.0
 40
0.2000000000000028
100
AcDbArc
 50
270.0
 51
0.0
  0
ARC
  5
279
330
1F
100
AcDbEntity
  8
SLD-0
  6
Continuous
 62
   179
100
AcDbCircle
 10
106.462735
 20
127.906465
 30
0.0
 40
0.2000000000000171
100
AcDbArc
 50
0.0
 51
90.0
  0
ARC
  5
27A
330
1F
100
AcDbEntity
  8
SLD-0
  6
Continuous
 62
   179
100
AcDbCircle
 10
106.362755
 20
123.40647
 30
0.0
 40
0.2000049999999902
100
AcDbArc
 50
90.0
 51
180.0
  0
ARC
  5
27B
330
1F
100
AcDbEntity
  8
SLD-0
  6
Continuous
 62
   179
100
AcDbCircle
 10
106.462735
 20
118.906465
 30
0.0
 40
0.2000000000000171
100
AcDbArc
 50
0.0
 51
90.0
  0
ARC
  5
27C
330
1F
100
AcDbEntity
  8
SLD-0
  6
Continuous
 62
   179
100
AcDbCircle
 10
106.362755
 20
120.40647
 30
0.0
 40
0.2000049999999902
100
AcDbArc
 50
90.0
 51
180.0
  0
ARC
  5
27D
330
1F
100
AcDbEntity
  8
SLD-0
  6
Continuous
 62
   179
100
AcDbCircle
 10
106.362755
 20
125.30647
 30
0.0
 40
0.2000050000000044
100
AcDbArc
 50
180.0
 51
270.0
  0
ARC
  5
27E
330
1F
100
AcDbEntity
  8
SLD-0
  6
Continuous
 62
   179
100
AcDbCircle
 10
106.362755
 20
119.30647
 30
0.0
 40
0.2000049999999902
100
AcDbArc
 50
180.0
 51
270.0
  0
ARC
  5
27F
330
1F
100
AcDbEntity
  8
SLD-0
  6
Continuous
 62
   179
100
AcDbCircle
 10
106.362755
 20
122.30647
 30
0.0
 40
0.2000049999999902
100
AcDbArc
 50
180.0
 51
270.0
  0
ARC
  5
280
330
1F
100
AcDbEntity
  8
SLD-0
  6
Continuous
 62
   179
100
AcDbCircle
 10
106.362755
 20
126.40647
 30
0.0
 40
0.2000049999999902
100
AcDbArc
 50
90.0
 51
180.0
  0
ARC
  5
281
330
1F
100
AcDbEntity
  8
SLD-0
  6
Continuous
 62
   179
100
AcDbCircle
 10
106.462735
 20
121.906465
 30
0.0
 40
0.2000000000000028
100
AcDbArc
 50
0.0
 51
90.0
  0
ARC
  5
282
330
1F
100
AcDbEntity
  8
SLD-0
  6
Continuous
 62
   179
100
AcDbCircle
 10
106.362755
 20
129.40647
 30
0.0
 40
0.200004999999976
100
AcDbArc
 50
90.0
 51
180.0
  0
ARC
  5
283
330
1F
100
AcDbEntity
  8
SLD-0
  6
Continuous
 62
   179
100
AcDbCircle
 10
106.462735
 20
123.806475
 30
0.0
 40
0.2000000000000028
100
AcDbArc
 50
270.0
 51
0.0
  0
ARC
  5
284
330
1F
100
AcDbEntity
  8
SLD-0
  6
Continuous
 62
   179
100
AcDbCircle
 10
106.462735
 20
129.806475
 30
0.0
 40
0.1999999999999886
100
AcDbArc
 50
270.0
 51
0.0
  0
ARC
  5
285
330
1F
100
AcDbEntity
  8
SLD-0
  6
Continuous
 62
   179
100
AcDbCircle
 10
106.362755
 20
128.30647
 30
0.0
 40
0.2000050000000044
100
AcDbArc
 50
180.0
 51
270.0
  0
ARC
  5
286
330
1F
100
AcDbEntity
  8
SLD-0
  6
Continuous
 62
   179
100
AcDbCircle
 10
106.462735
 20
124.906465
 30
0.0
 40
0.1999999999999886
100
AcDbArc
 50
0.0
 51
90.0
  0
ARC
  5
287
330
1F
100
AcDbEntity
  8
SLD-0
  6
Continuous
 62
   179
100
AcDbCircle
 10
73.46274
 20
151.292374995
 30
0.0
 40
0.3000050050000073
100
AcDbArc
 50
90.0
 51
180.0
  0
ARC
  5
288
330
1F
100
AcDbEntity
  8
SLD-0
  6
Continuous
 62
   179
100
AcDbCircle
 10
73.46274
 20
142.392379995
 30
0.0
 40
0.3000000050000153
100
AcDbArc
 50
90.0
 51
180.0
  0
ARC
  5
289
330
1F
100
AcDbEntity
  8
SLD-0
  6
Continuous
 62
   179
100
AcDbCircle
 10
72.16275
 20
155.64238
 30
0.0
 40
1.0
100
AcDbArc
 50
0.0
 51
90.0
  0
ARC
  5
28A
330
1F
100
AcDbEntity
  8
SLD-0
  6
Continuous
 62
   179
100
AcDbCircle
 10
106.16275
 20
141.64238
 30
0.0
 40
1.0
100
AcDbArc
 50
180.0
 51
270.0
  0
ARC
  5
28B
330
1F
100
AcDbEntity
  8
SLD-0
  6
Continuous
 62
   179
100
AcDbCircle
 10
106.16275
 20
155.64238
 30
0.0
 40
1.0
100
AcDbArc
 50
90.0
 51
180.0
  0
ARC
  5
28C
330
1F
100
AcDbEntity
  8
SLD-0
  6
Continuous
 62
   179
100
AcDbCircle
 10
72.16275
 20
141.64238
 30
0.0
 40
1.0
100
AcDbArc
 50
270.0
 51
0.0
  0
ARC
  5
28D
330
1F
100
AcDbEntity
  8
SLD-0
  6
Continuous
 62
   179
100
AcDbCircle
 10
104.86276
 20
142.392379995
 30
0.0
 40
0.3000000050000153
100
AcDbArc
 50
0.0
 51
90.0
  0
ARC
  5
28E
330
1F
100
AcDbEntity
  8
SLD-0
  6
Continuous
 62
   179
100
AcDbCircle
 10
104.86276
 20
151.292374995
 30
0.0
 40
0.3000050050000073
100
AcDbArc
 50
360.0
 51
90.0
  0
ARC
  5
28F
330
1F
100
AcDbEntity
  8
SLD-0
  6
Continuous
 62
   179
100
AcDbCircle
 10
103.67355
 20
142.392379995
 30
0.0
 40
0.3000000050000153
100
AcDbArc
 50
90.0
 51
130.00776
  0
ARC
  5
290
330
1F
100
AcDbEntity
  8
SLD-0
  6
Continuous
 62
   179
100
AcDbCircle
 10
103.67355
 20
145.992385005
 30
0.0
 40
0.3000050050000027
100
AcDbArc
 50
229.99224
 51
270.0
  0
ARC
  5
291
330
1F
100
AcDbEntity
  8
SLD-0
  6
Continuous
 62
   179
100
AcDbCircle
 10
102.1627511381
 20
144.1923786391
 30
0.0
 40
2.050000000000014
100
AcDbArc
 50
49.992241
 51
90.000003
  0
ARC
  5
292
330
1F
100
AcDbEntity
  8
SLD-0
  6
Continuous
 62
   179
100
AcDbCircle
 10
104.86276
 20
145.992385005
 30
0.0
 40
0.3000050050000062
100
AcDbArc
 50
270.0
 51
0.0
  0
ARC
  5
293
330
1F
100
AcDbEntity
  8
SLD-0
  6
Continuous
 62
   179
100
AcDbCircle
 10
102.1627511381
 20
153.0923831261
 30
0.0
 40
2.049999999999986
100
AcDbArc
 50
49.992241
 51
90.000003
  0
ARC
  5
294
330
1F
100
AcDbEntity
  8
SLD-0
  6
Continuous
 62
   179
100
AcDbCircle
 10
103.67355
 20
151.292374995
 30
0.0
 40
0.3000050049999776
100
AcDbArc
 50
90.0
 51
130.00776
  0
ARC
  5
295
330
1F
100
AcDbEntity
  8
SLD-0
  6
Continuous
 62
   179
100
AcDbCircle
 10
103.67355
 20
154.8923817702
 30
0.0
 40
0.3000017702231169
100
AcDbArc
 50
229.9914752466
 51
270.0
  0
ARC
  5
296
330
1F
100
AcDbEntity
  8
SLD-0
  6
Continuous
 62
   179
100
AcDbCircle
 10
74.65195
 20
145.992385005
 30
0.0
 40
0.3000050050000027
100
AcDbArc
 50
270.0
 51
310.00776
  0
ARC
  5
297
330
1F
100
AcDbEntity
  8
SLD-0
  6
Continuous
 62
   179
100
AcDbCircle
 10
74.65195
 20
142.392379995
 30
0.0
 40
0.3000000050000153
100
AcDbArc
 50
49.992241
 51
90.0
  0
ARC
  5
298
330
1F
100
AcDbEntity
  8
SLD-0
  6
Continuous
 62
   179
100
AcDbCircle
 10
104.86276
 20
154.892380005
 30
0.0
 40
0.3000000050000153
100
AcDbArc
 50
270.0
 51
360.0
  0
ARC
  5
299
330
1F
100
AcDbEntity
  8
SLD-0
  6
Continuous
 62
   179
100
AcDbCircle
 10
76.1627488619
 20
144.1923786391
 30
0.0
 40
2.050001765211706
100
AcDbArc
 50
229.9921289374
 51
270.0
  0
ARC
  5
29A
330
1F
100
AcDbEntity
  8
SLD-0
  6
Continuous
 62
   179
100
AcDbCircle
 10
73.46274
 20
145.992385005
 30
0.0
 40
0.3000050050000073
100
AcDbArc
 50
180.0
 51
270.0
  0
ARC
  5
29B
330
1F
100
AcDbEntity
  8
SLD-0
  6
Continuous
 62
   179
100
AcDbCircle
 10
76.1627496143
 20
153.0923789404
 30
0.0
 40
2.050000000000015
100
AcDbArc
 50
229.99225
 51
270.0
  0
ARC
  5
29C
330
1F
100
AcDbEntity
  8
SLD-0
  6
Continuous
 62
   179
100
AcDbCircle
 10
74.65195
 20
151.2923694
 30
0.0
 40
0.3000106000003484
100
AcDbArc
 50
49.9926415546
 51
90.0
  0
ARC
  5
29D
330
1F
100
AcDbEntity
  8
SLD-0
  6
Continuous
 62
   179
100
AcDbCircle
 10
74.6519507523
 20
154.8923775845
 30
0.0
 40
0.3000000050000047
100
AcDbArc
 50
270.0
 51
310.00776
  0
ARC
  5
29E
330
1F
100
AcDbEntity
  8
SLD-0
  6
Continuous
 62
   179
100
AcDbCircle
 10
73.4627407523
 20
154.8923775845
 30
0.0
 40
0.3000000050000199
100
AcDbArc
 50
180.0
 51
270.0
  0
ARC
  5
29F
330
1F
100
AcDbEntity
  8
SLD-0
  6
Continuous
 62
   179
100
AcDbCircle
 10
298.6286074336
 20
110.6423713123
 30
0.0
 40
1.000002656961941
100
AcDbArc
 50
195.0002123272
 51
270.0
  0
ARC
  5
2A0
330
1F
100
AcDbEntity
  8
SLD-0
  6
Continuous
 62
   179
100
AcDbCircle
 10
328.0939534336
 20
110.6423687681
 30
0.0
 40
1.000000112738481
100
AcDbArc
 50
270.0
 51
344.9997688691
  0
ARC
  5
2A1
330
1F
100
AcDbEntity
  8
SLD-0
  6
Continuous
 62
   179
100
AcDbCircle
 10
298.6285979336
 20
186.6423805537
 30
0.0
 40
1.000002139320485
100
AcDbArc
 50
90.0
 51
165.0000090456
  0
ARC
  5
2A2
330
1F
100
AcDbEntity
  8
SLD-0
  6
Continuous
 62
   179
100
AcDbCircle
 10
328.0939539336
 20
186.6423815196
 30
0.0
 40
1.000001173394622
100
AcDbArc
 50
15.0000206128
 51
90.0
  0
CIRCLE
  5
2A3
330
1F
100
AcDbEntity
  8
SLD-0
  6
Continuous
 62
   179
100
AcDbCircle
 10
224.23248
 20
45.358448
 30
0.0
 40
2.5
  0
CIRCLE
  5
2A4
330
1F
100
AcDbEntity
  8
SLD-0
  6
Continuous
 62
   179
100
AcDbCircle
 10
224.23248
 20
45.358448
 30
0.0
 40
2.0
  0
CIRCLE
  5
2A5
330
1F
100
AcDbEntity
  8
SLD-0
  6
Continuous
 62
   179
100
AcDbCircle
 10
194.23248
 20
45.358448
 30
0.0
 40
2.5
  0
CIRCLE
  5
2A6
330
1F
100
AcDbEntity
  8
SLD-0
  6
Continuous
 62
   179
100
AcDbCircle
 10
194.23248
 20
45.358448
 30
0.0
 40
2.0
  0
ARC
  5
2A7
330
1F
100
AcDbEntity
  8
SLD-0
  6
Continuous
 62
   179
100
AcDbCircle
 10
330.6612768002
 20
170.4782982159
 30
0.0
 40
0.2000020000000404
100
AcDbArc
 50
0.0
 51
90.0
  0
ARC
  5
2A8
330
1F
100
AcDbEntity
  8
SLD-0
  6
Continuous
 62
   179
100
AcDbCircle
 10
330.6612768002
 20
176.4783002159
 30
0.0
 40
0.2000020000000404
100
AcDbArc
 50
0.0
 51
90.0
  0
ARC
  5
2A9
330
1F
100
AcDbEntity
  8
SLD-0
  6
Continuous
 62
   179
100
AcDbCircle
 10
330.6612768002
 20
169.3782982159
 30
0.0
 40
0.200002000000012
100
AcDbArc
 50
270.0
 51
0.0
  0
ARC
  5
2AA
330
1F
100
AcDbEntity
  8
SLD-0
  6
Continuous
 62
   179
100
AcDbCircle
 10
330.5612778002
 20
173.8782997159
 30
0.0
 40
0.1999984999999924
100
AcDbArc
 50
180.0
 51
270.0
  0
ARC
  5
2AB
330
1F
100
AcDbEntity
  8
SLD-0
  6
Continuous
 62
   179
100
AcDbCircle
 10
330.6612768002
 20
178.3783012159
 30
0.0
 40
0.2000019999999836
100
AcDbArc
 50
270.0
 51
0.0
  0
ARC
  5
2AC
330
1F
100
AcDbEntity
  8
SLD-0
  6
Continuous
 62
   179
100
AcDbCircle
 10
330.5612778002
 20
176.8783007159
 30
0.0
 40
0.1999984999999924
100
AcDbArc
 50
180.0
 51
270.0
  0
ARC
  5
2AD
330
1F
100
AcDbEntity
  8
SLD-0
  6
Continuous
 62
   179
100
AcDbCircle
 10
330.5612778002
 20
171.9782987159
 30
0.0
 40
0.1999985000000208
100
AcDbArc
 50
90.0
 51
180.0
  0
ARC
  5
2AE
330
1F
100
AcDbEntity
  8
SLD-0
  6
Continuous
 62
   179
100
AcDbCircle
 10
330.5612778002
 20
177.9783007159
 30
0.0
 40
0.1999985000000493
100
AcDbArc
 50
90.0
 51
180.0
  0
ARC
  5
2AF
330
1F
100
AcDbEntity
  8
SLD-0
  6
Continuous
 62
   179
100
AcDbCircle
 10
330.5612778002
 20
174.9782997159
 30
0.0
 40
0.1999985000000493
100
AcDbArc
 50
90.0
 51
180.0
  0
ARC
  5
2B0
330
1F
100
AcDbEntity
  8
SLD-0
  6
Continuous
 62
   179
100
AcDbCircle
 10
330.5612778002
 20
170.8782987159
 30
0.0
 40
0.1999984999999924
100
AcDbArc
 50
180.0
 51
270.0
  0
ARC
  5
2B1
330
1F
100
AcDbEntity
  8
SLD-0
  6
Continuous
 62
   179
100
AcDbCircle
 10
330.6612768002
 20
175.3783002159
 30
0.0
 40
0.200002000000012
100
AcDbArc
 50
270.0
 51
0.0
  0
ARC
  5
2B2
330
1F
100
AcDbEntity
  8
SLD-0
  6
Continuous
 62
   179
100
AcDbCircle
 10
330.5612778002
 20
167.8782977159
 30
0.0
 40
0.1999984999999924
100
AcDbArc
 50
180.0
 51
270.0
  0
ARC
  5
2B3
330
1F
100
AcDbEntity
  8
SLD-0
  6
Continuous
 62
   179
100
AcDbCircle
 10
330.6612768002
 20
173.4782992159
 30
0.0
 40
0.2000020000000404
100
AcDbArc
 50
0.0
 51
90.0
  0
ARC
  5
2B4
330
1F
100
AcDbEntity
  8
SLD-0
  6
Continuous
 62
   179
100
AcDbCircle
 10
330.6612768002
 20
167.4782972159
 30
0.0
 40
0.200002000000012
100
AcDbArc
 50
0.0
 51
90.0
  0
ARC
  5
2B5
330
1F
100
AcDbEntity
  8
SLD-0
  6
Continuous
 62
   179
100
AcDbCircle
 10
330.5612778002
 20
168.9782977159
 30
0.0
 40
0.1999985000000208
100
AcDbArc
 50
90.0
 51
180.0
  0
ARC
  5
2B6
330
1F
100
AcDbEntity
  8
SLD-0
  6
Continuous
 62
   179
100
AcDbCircle
 10
330.6612768002
 20
172.3782992159
 30
0.0
 40
0.200002000000012
100
AcDbArc
 50
270.0
 51
0.0
  0
ARC
  5
2B7
330
1F
100
AcDbEntity
  8
SLD-0
  6
Continuous
 62
   179
100
AcDbCircle
 10
330.6612773247
 20
127.9064697973
 30
0.0
 40
0.2000020000000404
100
AcDbArc
 50
0.0
 51
90.0
  0
ARC
  5
2B8
330
1F
100
AcDbEntity
  8
SLD-0
  6
Continuous
 62
   179
100
AcDbCircle
 10
330.5612783247
 20
119.3064672973
 30
0.0
 40
0.1999985000000066
100
AcDbArc
 50
180.0
 51
270.0
  0
ARC
  5
2B9
330
1F
100
AcDbEntity
  8
SLD-0
  6
Continuous
 62
   179
100
AcDbCircle
 10
330.6612773247
 20
118.9064667973
 30
0.0
 40
0.2000020000000404
100
AcDbArc
 50
0.0
 51
90.0
  0
ARC
  5
2BA
330
1F
100
AcDbEntity
  8
SLD-0
  6
Continuous
 62
   179
100
AcDbCircle
 10
330.5612783247
 20
123.4064682973
 30
0.0
 40
0.1999985000000066
100
AcDbArc
 50
90.0
 51
180.0
  0
ARC
  5
2BB
330
1F
100
AcDbEntity
  8
SLD-0
  6
Continuous
 62
   179
100
AcDbCircle
 10
330.6612773247
 20
126.8064697973
 30
0.0
 40
0.2000020000000404
100
AcDbArc
 50
270.0
 51
0.0
  0
ARC
  5
2BC
330
1F
100
AcDbEntity
  8
SLD-0
  6
Continuous
 62
   179
100
AcDbCircle
 10
330.5612783247
 20
122.3064682973
 30
0.0
 40
0.1999984999999924
100
AcDbArc
 50
180.0
 51
270.0
  0
ARC
  5
2BD
330
1F
100
AcDbEntity
  8
SLD-0
  6
Continuous
 62
   179
100
AcDbCircle
 10
330.5612783247
 20
120.4064672973
 30
0.0
 40
0.1999985000000066
100
AcDbArc
 50
90.0
 51
180.0
  0
ARC
  5
2BE
330
1F
100
AcDbEntity
  8
SLD-0
  6
Continuous
 62
   179
100
AcDbCircle
 10
330.6612773247
 20
121.9064677973
 30
0.0
 40
0.2000020000000404
100
AcDbArc
 50
0.0
 51
90.0
  0
ARC
  5
2BF
330
1F
100
AcDbEntity
  8
SLD-0
  6
Continuous
 62
   179
100
AcDbCircle
 10
330.5612783247
 20
125.3064692973
 30
0.0
 40
0.1999984999999924
100
AcDbArc
 50
180.0
 51
270.0
  0
ARC
  5
2C0
330
1F
100
AcDbEntity
  8
SLD-0
  6
Continuous
 62
   179
100
AcDbCircle
 10
330.5612783247
 20
126.4064692973
 30
0.0
 40
0.1999985000000208
100
AcDbArc
 50
90.0
 51
180.0
  0
ARC
  5
2C1
330
1F
100
AcDbEntity
  8
SLD-0
  6
Continuous
 62
   179
100
AcDbCircle
 10
330.6612773247
 20
120.8064677973
 30
0.0
 40
0.2000020000000404
100
AcDbArc
 50
270.0
 51
0.0
  0
ARC
  5
2C2
330
1F
100
AcDbEntity
  8
SLD-0
  6
Continuous
 62
   179
100
AcDbCircle
 10
330.5612783247
 20
129.4064702973
 30
0.0
 40
0.1999984999999924
100
AcDbArc
 50
90.0
 51
180.0
  0
ARC
  5
2C3
330
1F
100
AcDbEntity
  8
SLD-0
  6
Continuous
 62
   179
100
AcDbCircle
 10
330.6612773247
 20
124.9064687973
 30
0.0
 40
0.2000020000000404
100
AcDbArc
 50
0.0
 51
90.0
  0
ARC
  5
2C4
330
1F
100
AcDbEntity
  8
SLD-0
  6
Continuous
 62
   179
100
AcDbCircle
 10
330.6612773247
 20
129.8064707973
 30
0.0
 40
0.2000019999999836
100
AcDbArc
 50
270.0
 51
0.0
  0
ARC
  5
2C5
330
1F
100
AcDbEntity
  8
SLD-0
  6
Continuous
 62
   179
100
AcDbCircle
 10
330.5612783247
 20
128.3064702973
 30
0.0
 40
0.1999984999999924
100
AcDbArc
 50
180.0
 51
270.0
  0
ARC
  5
2C6
330
1F
100
AcDbEntity
  8
SLD-0
  6
Continuous
 62
   179
100
AcDbCircle
 10
330.6612773247
 20
123.8064687973
 30
0.0
 40
0.2000020000000404
100
AcDbArc
 50
270.0
 51
0.0
  0
ARC
  5
2C7
330
1F
100
AcDbEntity
  8
SLD-0
  6
Continuous
 62
   179
100
AcDbCircle
 10
76.1627496143
 20
153.0923789404
 30
0.0
 40
2.050001765211706
100
AcDbArc
 50
90.000003
 51
130.0078709163
  0
ARC
  5
2C8
330
1F
100
AcDbEntity
  8
SLD-0
  6
Continuous
 62
   179
100
AcDbCircle
 10
76.1627488619
 20
144.1923786391
 30
0.0
 40
2.050000000000019
100
AcDbArc
 50
90.000003
 51
130.00776
  0
ARC
  5
2C9
330
1F
100
AcDbEntity
  8
SLD-0
  6
Continuous
 62
   179
100
AcDbCircle
 10
102.1627511381
 20
153.0923831261
 30
0.0
 40
2.05000000000004
100
AcDbArc
 50
270.0
 51
310.00776
  0
ARC
  5
2CA
330
1F
100
AcDbEntity
  8
SLD-0
  6
Continuous
 62
   179
100
AcDbCircle
 10
102.1627511381
 20
144.1923786391
 30
0.0
 40
2.050001765211663
100
AcDbArc
 50
270.0
 51
310.0078709163
  0
CIRCLE
  5
2CB
330
1F
100
AcDbEntity
  8
SLD-0
  6
Continuous
 62
   179
100
AcDbCircle
 10
228.23248
 20
162.6424
 30
0.0
 40
2.550000000000011
  0
CIRCLE
  5
2CC
330
1F
100
AcDbEntity
  8
SLD-0
  6
Continuous
 62
   179
100
AcDbCircle
 10
228.23248
 20
134.64237
 30
0.0
 40
2.550000000000011
  0
CIRCLE
  5
2CD
330
1F
100
AcDbEntity
  8
SLD-0
  6
Continuous
 62
   179
100
AcDbCircle
 10
202.23248
 20
134.64237
 30
0.0
 40
2.5
  0
CIRCLE
  5
2CE
330
1F
100
AcDbEntity
  8
SLD-0
  6
Continuous
 62
   179
100
AcDbCircle
 10
202.23248
 20
134.64237
 30
0.0
 40
2.066999900000013
  0
CIRCLE
  5
2CF
330
1F
100
AcDbEntity
  8
SLD-0
  6
Continuous
 62
   179
100
AcDbCircle
 10
236.73248
 20
134.64237
 30
0.0
 40
2.500000000000028
  0
CIRCLE
  5
2D0
330
1F
100
AcDbEntity
  8
SLD-0
  6
Continuous
 62
   179
100
AcDbCircle
 10
228.23248
 20
134.64237
 30
0.0
 40
4.5
  0
CIRCLE
  5
2D1
330
1F
100
AcDbEntity
  8
SLD-0
  6
Continuous
 62
   179
100
AcDbCircle
 10
211.23248
 20
134.64237
 30
0.0
 40
2.549999999999983
  0
CIRCLE
  5
2D2
330
1F
100
AcDbEntity
  8
SLD-0
  6
Continuous
 62
   179
100
AcDbCircle
 10
211.23248
 20
134.64237
 30
0.0
 40
4.5
  0
CIRCLE
  5
2D3
330
1F
100
AcDbEntity
  8
SLD-0
  6
Continuous
 62
   179
100
AcDbCircle
 10
177.2325
 20
165.64238
 30
0.0
 40
2.5
  0
CIRCLE
  5
2D4
330
1F
100
AcDbEntity
  8
SLD-0
  6
Continuous
 62
   179
100
AcDbCircle
 10
177.2325
 20
165.64238
 30
0.0
 40
2.0
  0
CIRCLE
  5
2D5
330
1F
100
AcDbEntity
  8
SLD-0
  6
Continuous
 62
   179
100
AcDbCircle
 10
177.2325
 20
131.64239
 30
0.0
 40
2.0
  0
CIRCLE
  5
2D6
330
1F
100
AcDbEntity
  8
SLD-0
  6
Continuous
 62
   179
100
AcDbCircle
 10
177.2325
 20
131.64239
 30
0.0
 40
2.5
  0
CIRCLE
  5
2D7
330
1F
100
AcDbEntity
  8
SLD-0
  6
Continuous
 62
   179
100
AcDbCircle
 10
236.73248
 20
134.64237
 30
0.0
 40
2.066999900000013
  0
CIRCLE
  5
2D8
330
1F
100
AcDbEntity
  8
SLD-0
  6
Continuous
 62
   179
100
AcDbCircle
 10
228.23248
 20
162.6424
 30
0.0
 40
4.5
  0
CIRCLE
  5
2D9
330
1F
100
AcDbEntity
  8
SLD-0
  6
Continuous
 62
   179
100
AcDbCircle
 10
211.23248
 20
162.6424
 30
0.0
 40
4.5
  0
CIRCLE
  5
2DA
330
1F
100
AcDbEntity
  8
SLD-0
  6
Continuous
 62
   179
100
AcDbCircle
 10
211.23248
 20
162.6424
 30
0.0
 40
2.549999999999983
  0
CIRCLE
  5
2DB
330
1F
100
AcDbEntity
  8
SLD-0
  6
Continuous
 62
   179
100
AcDbCircle
 10
317.5423975943
 20
141.4895559769
 30
0.0
 40
1.000000000000025
  0
ARC
  5
2DC
330
1F
100
AcDbEntity
  8
SLD-0
  6
Continuous
 62
   179
100
AcDbCircle
 10
317.5423975943
 20
141.4895559769
 30
0.0
 40
1.839999450497662
100
AcDbArc
 50
30.50929
 51
194.5122568153
  0
ARC
  5
2DD
330
1F
100
AcDbEntity
  8
SLD-0
  6
Continuous
 62
   179
100
AcDbCircle
 10
313.3612822757
 20
147.9336078724
 30
0.0
 40
8.961506799999997
100
AcDbArc
 50
321.34483
 51
218.65517
  0
ARC
  5
2DE
330
1F
100
AcDbEntity
  8
SLD-0
  6
Continuous
 62
   179
100
AcDbCircle
 10
306.9487549195
 20
142.8044391872
 30
0.0
 40
0.7499978950803137
100
AcDbArc
 50
218.6552840128
 51
329.49071
  0
CIRCLE
  5
2DF
330
1F
100
AcDbEntity
  8
SLD-0
  6
Continuous
 62
   179
100
AcDbCircle
 10
309.1801619633
 20
141.4895597507
 30
0.0
 40
0.9999999999999704
  0
ARC
  5
2E0
330
1F
100
AcDbEntity
  8
SLD-0
  6
Continuous
 62
   179
100
AcDbCircle
 10
309.1801619633
 20
141.4895597507
 30
0.0
 40
1.839999272460414
100
AcDbArc
 50
345.4880758517
 51
149.4909017564
  0
ARC
  5
2E1
330
1F
100
AcDbEntity
  8
SLD-0
  6
Continuous
 62
   179
100
AcDbCircle
 10
319.7738057754
 20
142.8044366729
 30
0.0
 40
0.7499993362268347
100
AcDbArc
 50
210.5088583402
 51
321.3450500159
  0
CIRCLE
  5
2E2
330
1F
100
AcDbEntity
  8
SLD-0
  6
Continuous
 62
   179
100
AcDbCircle
 10
89.16275
 20
121.64237
 30
0.0
 40
5.0
  0
CIRCLE
  5
2E3
330
1F
100
AcDbEntity
  8
SLD-0
  6
Continuous
 62
   179
100
AcDbCircle
 10
89.16275
 20
121.64237
 30
0.0
 40
4.400000099999986
  0
CIRCLE
  5
2E4
330
1F
100
AcDbEntity
  8
SLD-0
  6
Continuous
 62
   179
100
AcDbCircle
 10
89.16275
 20
175.64238
 30
0.0
 40
5.0
  0
CIRCLE
  5
2E5
330
1F
100
AcDbEntity
  8
SLD-0
  6
Continuous
 62
   179
100
AcDbCircle
 10
89.16275
 20
175.64238
 30
0.0
 40
4.400000099999986
  0
CIRCLE
  5
2E6
330
1F
100
AcDbEntity
  8
SLD-0
  6
Continuous
 62
   179
100
AcDbCircle
 10
89.16275
 20
148.64238
 30
0.0
 40
4.25
  0
MTEXT
  5
2E8
330
1F
100
AcDbEntity
  8
SLD-0
 62
     7
100
AcDbMText
 10
200.1307
 20
58.8311851091
 30
0.0
 40
5.0
 41
0.0
 71
     1
 72
     1
  1
ＳＴＡＲ
  7
SLDTEXTSTYLE6
 73
     1
 44
1.0
  0
MTEXT
  5
2EA
330
1F
100
AcDbEntity
  8
SLD-0
 62
     7
100
AcDbMText
 10
219.37337
 20
55.4750605505
 30
0.0
 40
2.0
 41
0.0
 71
     1
 72
     1
  1
ＳＴＡＲＴＥＣＨＮＯ
  7
SLDTEXTSTYLE7
 73
     1
 44
1.0
  0
MTEXT
  5
2EB
330
1F
100
AcDbEntity
  8
SLD-0
 62
     7
100
AcDbMText
 10
219.07745
 20
60.3083465505
 30
0.0
 40
2.0
 41
0.0
 71
     1
 72
     1
  1
ＧＣＹＬ－２０Ｘ２０
  7
SLDTEXTSTYLE7
 73
     1
 44
1.0
  0
MTEXT
  5
2ED
330
1F
100
AcDbEntity
  8
SLD-0
 62
     7
100
AcDbMText
 10
337.875312
 20
48.1033762496
 30
0.0
 40
4.8000002
 41
0.0
 71
     1
 72
     1
  1
コンテナシリンダーガイド付
  7
SLDTEXTSTYLE8
 73
     1
 44
1.0
  0
MTEXT
  5
2EF
330
1F
100
AcDbEntity
  8
SLD-0
 62
     7
100
AcDbMText
 10
360.338215
 20
41.6424255369
 30
0.0
 40
3.2
 41
0.0
 71
     1
 72
     1
  1
（複動型）
  7
SLDTEXTSTYLE9
 73
     1
 44
1.0
  0
MTEXT
  5
2F1
330
1F
100
AcDbEntity
  8
SLD-0
 62
     7
100
AcDbMText
 10
344.566717
 20
32.1674442496
 30
0.0
 40
4.8000002
 41
0.0
 71
     1
 72
     1
  1
ＧＣＹＬ－２０ｘ２０
  7
SLDTEXTSTYLE10
 73
     1
 44
1.0
  0
MTEXT
  5
2F3
330
1F
100
AcDbEntity
  8
SLD-0
 62
     7
100
AcDbMText
 10
354.67531
 20
19.6221363496
 30
0.0
 40
4.8000002
 41
0.0
 71
     1
 72
     1
  1
０６０４９６
  7
SLDTEXTSTYLE11
 73
     1
 44
1.0
  0
INSERT
  5
2F4
330
1F
100
AcDbEntity
  8
0
  6
Continuous
 62
     7
370
     0
100
AcDbBlockReference
  2
KOZU0001
 10
328.076881
 20
144.55236
 30
0.0
  0
INSERT
  5
2F5
330
1F
100
AcDbEntity
  8
0
  6
Continuous
 62
     7
370
     0
100
AcDbBlockReference
  2
KOZU0002
 10
225.46173
 20
226.23264
 30
0.0
  0
INSERT
  5
2F6
330
1F
100
AcDbEntity
  8
0
  6
Continuous
 62
     7
370
     0
100
AcDbBlockReference
  2
KOZU0003
 10
175.58199
 20
167.52011
 30
0.0
  0
INSERT
  5
2F7
330
1F
100
AcDbEntity
  8
0
  6
Continuous
 62
     7
370
     0
100
AcDbBlockReference
  2
KOZU0004
 10
209.89968
 20
164.81637
 30
0.0
  0
INSERT
  5
2F8
330
1F
100
AcDbEntity
  8
0
  6
Continuous
 62
     7
370
     0
100
AcDbBlockReference
  2
KOZU0005
 10
238.19485
 20
132.61469
 30
0.0
  0
INSERT
  5
2F9
330
1F
100
AcDbEntity
  8
0
  6
Continuous
 62
     7
370
     0
100
AcDbBlockReference
  2
KOZU0006
 10
80.32372
 20
182.99738
 30
0.0
  0
ENDSEC
  0
SECTION
  2
OBJECTS
  0
DICTIONARY
  5
C
330
0
100
AcDbDictionary
281
     1
  3
ACAD_GROUP
350
D
  3
ACAD_LAYOUT
350
1A
  3
ACAD_MLINESTYLE
350
17
  3
ACAD_PLOTSETTINGS
350
19
  3
ACAD_PLOTSTYLENAME
350
E
  0
DICTIONARY
  5
D
102
{ACAD_REACTORS
330
C
102
}
330
C
100
AcDbDictionary
281
     1
  0
DICTIONARY
  5
1A
102
{ACAD_REACTORS
330
C
102
}
330
C
100
AcDbDictionary
281
     1
  3
Layout1
350
1E
  3
Layout2
350
26
  3
Model
350
22
  0
DICTIONARY
  5
17
102
{ACAD_REACTORS
330
C
102
}
330
C
100
AcDbDictionary
281
     1
  3
Standard
350
18
  0
DICTIONARY
  5
19
102
{ACAD_REACTORS
330
C
102
}
330
C
100
AcDbDictionary
281
     1
  0
ACDBDICTIONARYWDFLT
  5
E
102
{ACAD_REACTORS
330
C
102
}
330
C
100
AcDbDictionary
281
     1
  3
Normal
350
F
100
AcDbDictionaryWithDefault
340
F
  0
LAYOUT
  5
1E
102
{ACAD_REACTORS
330
1A
102
}
330
1A
100
AcDbPlotSettings
  1

  2

  4

  6

 40
0.0
 41
0.0
 42
0.0
 43
0.0
 44
0.0
 45
0.0
 46
0.0
 47
0.0
 48
0.0
 49
0.0
140
0.0
141
0.0
142
1.0
143
1.0
 70
   688
 72
     0
 73
     0
 74
     5
  7

 75
    16
147
1.0
148
0.0
149
0.0
100
AcDbLayout
  1
Layout1
 70
     1
 71
     1
 10
0.0
 20
0.0
 11
0.0
 21
0.0
 12
0.0
 22
0.0
 32
0.0
 14
0.0
 24
0.0
 34
0.0
 15
0.0
 25
0.0
 35
0.0
146
0.0
 13
0.0
 23
0.0
 33
0.0
 16
1.0
 26
0.0
 36
0.0
 17
0.0
 27
1.0
 37
0.0
 76
     0
330
1B
  0
LAYOUT
  5
26
102
{ACAD_REACTORS
330
1A
102
}
330
1A
100
AcDbPlotSettings
  1

  2

  4

  6

 40
0.0
 41
0.0
 42
0.0
 43
0.0
 44
0.0
 45
0.0
 46
0.0
 47
0.0
 48
0.0
 49
0.0
140
0.0
141
0.0
142
1.0
143
1.0
 70
   688
 72
     0
 73
     0
 74
     5
  7

 75
    16
147
1.0
148
0.0
149
0.0
100
AcDbLayout
  1
Layout2
 70
     1
 71
     2
 10
0.0
 20
0.0
 11
0.0
 21
0.0
 12
0.0
 22
0.0
 32
0.0
 14
0.0
 24
0.0
 34
0.0
 15
0.0
 25
0.0
 35
0.0
146
0.0
 13
0.0
 23
0.0
 33
0.0
 16
1.0
 26
0.0
 36
0.0
 17
0.0
 27
1.0
 37
0.0
 76
     0
330
23
  0
LAYOUT
  5
22
102
{ACAD_REACTORS
330
1A
102
}
330
1A
100
AcDbPlotSettings
  1

  2

  4

  6

 40
0.0
 41
0.0
 42
0.0
 43
0.0
 44
0.0
 45
0.0
 46
0.0
 47
0.0
 48
0.0
 49
0.0
140
0.0
141
0.0
142
1.0
143
1.0
 70
  1712
 72
     0
 73
     0
 74
     0
  7

 75
     0
147
1.0
148
0.0
149
0.0
100
AcDbLayout
  1
Model
 70
     1
 71
     0
 10
0.0
 20
0.0
 11
0.0
 21
0.0
 12
0.0
 22
0.0
 32
0.0
 14
0.0
 24
0.0
 34
0.0
 15
420.0
 25
297.0
 35
0.0
146
0.0
 13
0.0
 23
0.0
 33
0.0
 16
1.0
 26
0.0
 36
0.0
 17
0.0
 27
1.0
 37
0.0
 76
     0
330
1F
  0
MLINESTYLE
  5
18
102
{ACAD_REACTORS
330
17
102
}
330
17
100
AcDbMlineStyle
  2
Standard
 70
     0
  3

 62
   256
 51
90.0
 52
90.0
 71
     2
 49
0.5
 62
   256
  6
BYLAYER
 49
-0.5
 62
   256
  6
BYLAYER
  0
ACDBPLACEHOLDER
  5
F
102
{ACAD_REACTORS
330
E
102
}
330
E
  0
ENDSEC
  0
EOF
