  0
SECTION
  2
HEADER
  9
$ACADVER
  1
AC1015
  9
$ACADMAINTVER
 70
     6
  9
$DWGCODEPAGE
  3
DOS932
  9
$INSBASE
 10
0.0
 20
0.0
 30
0.0
  9
$EXTMIN
 10
0.0
 20
0.0
 30
0.0
  9
$EXTMAX
 10
420.0
 20
297.0
 30
0.0
  9
$LIMMIN
 10
0.0
 20
0.0
  9
$LIMMAX
 10
0.0
 20
0.0
  9
$ORTHOMODE
 70
     0
  9
$REGENMODE
 70
     1
  9
$FILLMODE
 70
     1
  9
$QTEXTMODE
 70
     0
  9
$MIRRTEXT
 70
     1
  9
$LTSCALE
 40
1.0
  9
$ATTMODE
 70
     1
  9
$TEXTSIZE
 40
3.5
  9
$TRACEWID
 40
1.0
  9
$TEXTSTYLE
  7
Standard
  9
$CLAYER
  8
0
  9
$CELTYPE
  6
ByLayer
  9
$CECOLOR
 62
   256
  9
$CELTSCALE
 40
1.0
  9
$DISPSILH
 70
     0
  9
$DIMSCALE
 40
1.0
  9
$DIMASZ
 40
3.0
  9
$DIMEXO
 40
1.0
  9
$DIMDLI
 40
3.75
  9
$DIMRND
 40
0.0
  9
$DIMDLE
 40
0.0
  9
$DIMEXE
 40
1.0
  9
$DIMTP
 40
0.0
  9
$DIMTM
 40
0.0
  9
$DIMTXT
 40
3.2
  9
$DIMCEN
 40
2.5
  9
$DIMTSZ
 40
0.0
  9
$DIMTOL
 70
     0
  9
$DIMLIM
 70
     0
  9
$DIMTIH
 70
     1
  9
$DIMTOH
 70
     1
  9
$DIMSE1
 70
     0
  9
$DIMSE2
 70
     0
  9
$DIMTAD
 70
     1
  9
$DIMZIN
 70
     1
  9
$DIMBLK
  1

  9
$DIMASO
 70
     1
  9
$DIMSHO
 70
     1
  9
$DIMPOST
  1

  9
$DIMAPOST
  1

  9
$DIMALT
 70
     0
  9
$DIMALTD
 70
     3
  9
$DIMALTF
 40
0.0393700787
  9
$DIMLFAC
 40
1.0
  9
$DIMTOFL
 70
     1
  9
$DIMTVP
 40
0.0
  9
$DIMTIX
 70
     0
  9
$DIMSOXD
 70
     0
  9
$DIMSAH
 70
     0
  9
$DIMBLK1
  1

  9
$DIMBLK2
  1

  9
$DIMSTYLE
  2
ISO-25
  9
$DIMCLRD
 70
     0
  9
$DIMCLRE
 70
     0
  9
$DIMCLRT
 70
     0
  9
$DIMTFAC
 40
1.0
  9
$DIMGAP
 40
1.524
  9
$DIMJUST
 70
     0
  9
$DIMSD1
 70
     0
  9
$DIMSD2
 70
     0
  9
$DIMTOLJ
 70
     0
  9
$DIMTZIN
 70
     1
  9
$DIMALTZ
 70
     0
  9
$DIMALTTZ
 70
     0
  9
$DIMUPT
 70
     0
  9
$DIMDEC
 70
     2
  9
$DIMTDEC
 70
     2
  9
$DIMALTU
 70
     2
  9
$DIMALTTD
 70
     3
  9
$DIMTXSTY
  7
Standard
  9
$DIMAUNIT
 70
     0
  9
$DIMADEC
 70
     0
  9
$DIMALTRND
 40
0.0
  9
$DIMAZIN
 70
     0
  9
$DIMDSEP
 70
    44
  9
$DIMATFIT
 70
     3
  9
$DIMFRAC
 70
     0
  9
$DIMLDRBLK
  1

  9
$DIMLUNIT
 70
     2
  9
$DIMLWD
 70
    -2
  9
$DIMLWE
 70
    -2
  9
$DIMTMOVE
 70
     0
  9
$LUNITS
 70
     2
  9
$LUPREC
 70
     4
  9
$SKETCHINC
 40
1.0
  9
$FILLETRAD
 40
10.0
  9
$AUNITS
 70
     0
  9
$AUPREC
 70
     0
  9
$MENU
  1
.
  9
$ELEVATION
 40
0.0
  9
$PELEVATION
 40
0.0
  9
$THICKNESS
 40
0.0
  9
$LIMCHECK
 70
     0
  9
$CHAMFERA
 40
10.0
  9
$CHAMFERB
 40
10.0
  9
$CHAMFERC
 40
20.0
  9
$CHAMFERD
 40
0.0
  9
$SKPOLY
 70
     0
  9
$TDCREATE
 40
2454307.543503681
  9
$TDUCREATE
 40
2454307.168503681
  9
$TDUPDATE
 40
2454307.543503692
  9
$TDUUPDATE
 40
2454307.168503692
  9
$TDINDWG
 40
0.0000000116
  9
$TDUSRTIMER
 40
0.0000000116
  9
$USRTIMER
 70
     1
  9
$ANGBASE
 50
0.0
  9
$ANGDIR
 70
     0
  9
$PDMODE
 70
     0
  9
$PDSIZE
 40
-1.0
  9
$PLINEWID
 40
0.0
  9
$SPLFRAME
 70
     0
  9
$SPLINETYPE
 70
     6
  9
$SPLINESEGS
 70
     8
  9
$HANDSEED
  5
30D
  9
$SURFTAB1
 70
     6
  9
$SURFTAB2
 70
     6
  9
$SURFTYPE
 70
     6
  9
$SURFU
 70
     6
  9
$SURFV
 70
     6
  9
$UCSBASE
  2

  9
$UCSNAME
  2

  9
$UCSORG
 10
0.0
 20
0.0
 30
0.0
  9
$UCSXDIR
 10
1.0
 20
0.0
 30
0.0
  9
$UCSYDIR
 10
0.0
 20
1.0
 30
0.0
  9
$UCSORTHOREF
  2

  9
$UCSORTHOVIEW
 70
     0
  9
$UCSORGTOP
 10
0.0
 20
0.0
 30
0.0
  9
$UCSORGBOTTOM
 10
0.0
 20
0.0
 30
0.0
  9
$UCSORGLEFT
 10
0.0
 20
0.0
 30
0.0
  9
$UCSORGRIGHT
 10
0.0
 20
0.0
 30
0.0
  9
$UCSORGFRONT
 10
0.0
 20
0.0
 30
0.0
  9
$UCSORGBACK
 10
0.0
 20
0.0
 30
0.0
  9
$PUCSBASE
  2

  9
$PUCSNAME
  2

  9
$PUCSORG
 10
0.0
 20
0.0
 30
0.0
  9
$PUCSXDIR
 10
1.0
 20
0.0
 30
0.0
  9
$PUCSYDIR
 10
0.0
 20
1.0
 30
0.0
  9
$PUCSORTHOREF
  2

  9
$PUCSORTHOVIEW
 70
     0
  9
$PUCSORGTOP
 10
0.0
 20
0.0
 30
0.0
  9
$PUCSORGBOTTOM
 10
0.0
 20
0.0
 30
0.0
  9
$PUCSORGLEFT
 10
0.0
 20
0.0
 30
0.0
  9
$PUCSORGRIGHT
 10
0.0
 20
0.0
 30
0.0
  9
$PUCSORGFRONT
 10
0.0
 20
0.0
 30
0.0
  9
$PUCSORGBACK
 10
0.0
 20
0.0
 30
0.0
  9
$USERI1
 70
     0
  9
$USERI2
 70
     0
  9
$USERI3
 70
     0
  9
$USERI4
 70
     0
  9
$USERI5
 70
     0
  9
$USERR1
 40
0.0
  9
$USERR2
 40
0.0
  9
$USERR3
 40
0.0
  9
$USERR4
 40
0.0
  9
$USERR5
 40
0.0
  9
$WORLDVIEW
 70
     1
  9
$SHADEDGE
 70
     3
  9
$SHADEDIF
 70
    70
  9
$TILEMODE
 70
     1
  9
$MAXACTVP
 70
    64
  9
$PINSBASE
 10
0.0
 20
0.0
 30
0.0
  9
$PLIMCHECK
 70
     0
  9
$PEXTMIN
 10
1.0000000000E+20
 20
1.0000000000E+20
 30
1.0000000000E+20
  9
$PEXTMAX
 10
-1.0000000000E+20
 20
-1.0000000000E+20
 30
-1.0000000000E+20
  9
$PLIMMIN
 10
0.0
 20
0.0
  9
$PLIMMAX
 10
420.0
 20
297.0
  9
$UNITMODE
 70
     0
  9
$VISRETAIN
 70
     1
  9
$PLINEGEN
 70
     0
  9
$PSLTSCALE
 70
     1
  9
$TREEDEPTH
 70
  3020
  9
$CMLSTYLE
  2
Standard
  9
$CMLJUST
 70
     0
  9
$CMLSCALE
 40
20.0
  9
$PROXYGRAPHICS
 70
     1
  9
$MEASUREMENT
 70
     1
  9
$CELWEIGHT
370
    -1
  9
$ENDCAPS
280
     0
  9
$JOINSTYLE
280
     0
  9
$LWDISPLAY
290
     1
  9
$INSUNITS
 70
     4
  9
$HYPERLINKBASE
  1

  9
$STYLESHEET
  1

  9
$XEDIT
290
     1
  9
$CEPSNTYPE
380
     0
  9
$PSTYLEMODE
290
     1
  9
$FINGERPRINTGUID
  2
{54B8C339-8940-485B-951D-567300133A06}
  9
$VERSIONGUID
  2
{FAEB1C32-E019-11D5-929B-00C0DF256EC4}
  9
$EXTNAMES
290
     1
  9
$PSVPSCALE
 40
0.0
  9
$OLESTARTUP
290
     0
  0
ENDSEC
  0
SECTION
  2
CLASSES
  0
CLASS
  1
ACDBDICTIONARYWDFLT
  2
AcDbDictionaryWithDefault
  3
ObjectDBX Classes
 90
        0
280
     0
281
     0
  0
CLASS
  1
ACDBPLACEHOLDER
  2
AcDbPlaceHolder
  3
ObjectDBX Classes
 90
        0
280
     0
281
     0
  0
CLASS
  1
LAYOUT
  2
AcDbLayout
  3
ObjectDBX Classes
 90
        0
280
     0
281
     0
  0
ENDSEC
  0
SECTION
  2
TABLES
  0
TABLE
  2
VPORT
  5
8
330
0
100
AcDbSymbolTable
 70
     1
  0
VPORT
  5
29
330
8
100
AcDbSymbolTableRecord
100
AcDbViewportTableRecord
  2
*Active
 70
     0
 10
0.0
 20
0.0
 11
1.0
 21
1.0
 12
210.0
 22
148.5
 13
0.0
 23
0.0
 14
10.0
 24
10.0
 15
10.0
 25
10.0
 16
0.0
 26
0.0
 36
1.0
 17
0.0
 27
0.0
 37
0.0
 40
297.0
 41
1.9729729729
 42
50.0
 43
0.0
 44
0.0
 50
0.0
 51
0.0
 71
     0
 72
  2000
 73
     1
 74
     3
 75
     0
 76
     0
 77
     0
 78
     0
281
     0
 65
     1
110
0.0
120
0.0
130
0.0
111
1.0
121
0.0
131
0.0
112
0.0
122
1.0
132
0.0
 79
     0
146
0.0
  0
ENDTAB
  0
TABLE
  2
LTYPE
  5
5
330
0
100
AcDbSymbolTable
 70
     6
  0
LTYPE
  5
14
330
5
100
AcDbSymbolTableRecord
100
AcDbLinetypeTableRecord
  2
ByBlock
 70
     0
  3

 72
    65
 73
     0
 40
0.0
  0
LTYPE
  5
15
330
5
100
AcDbSymbolTableRecord
100
AcDbLinetypeTableRecord
  2
ByLayer
 70
     0
  3

 72
    65
 73
     0
 40
0.0
  0
LTYPE
  5
16
330
5
100
AcDbSymbolTableRecord
100
AcDbLinetypeTableRecord
  2
Continuous
 70
     0
  3
Solid line
 72
    65
 73
     0
 40
0.0
  0
LTYPE
  5
2A
330
5
100
AcDbSymbolTableRecord
100
AcDbLinetypeTableRecord
  2
HIDDEN
 70
     0
  3
Hidden __ __ __ __ __ __ __ __ __ __ __ __ __ __
 72
    65
 73
     2
 40
1.905
 49
1.27
 74
     0
 49
-0.635
 74
     0
  0
LTYPE
  5
2B
330
5
100
AcDbSymbolTableRecord
100
AcDbLinetypeTableRecord
  2
PHANTOM
 70
     0
  3
Phantom ______  __  __  ______  __  __  ______
 72
    65
 73
     6
 40
12.7
 49
6.35
 74
     0
 49
-1.27
 74
     0
 49
1.27
 74
     0
 49
-1.27
 74
     0
 49
1.27
 74
     0
 49
-1.27
 74
     0
  0
LTYPE
  5
2C
330
5
100
AcDbSymbolTableRecord
100
AcDbLinetypeTableRecord
  2
CENTER
 70
     0
  3
Center ____ _ ____ _ ____ _ ____ _ ____ _ ____
 72
    65
 73
     4
 40
10.16
 49
6.35
 74
     0
 49
-1.27
 74
     0
 49
1.27
 74
     0
 49
-1.27
 74
     0
  0
LTYPE
  5
2D
330
5
100
AcDbSymbolTableRecord
100
AcDbLinetypeTableRecord
  2
CENTERX2
 70
     0
  3
Center (2x) ________  __  ________  __  _____
 72
    65
 73
     4
 40
20.32
 49
12.7
 74
     0
 49
-2.54
 74
     0
 49
2.54
 74
     0
 49
-2.54
 74
     0
  0
LTYPE
  5
2E
330
5
100
AcDbSymbolTableRecord
100
AcDbLinetypeTableRecord
  2
DOT2
 70
     0
  3
Dot (.5x) ........................................
 72
    65
 73
     2
 40
0.635
 49
0.0
 74
     0
 49
-0.635
 74
     0
  0
ENDTAB
  0
TABLE
  2
LAYER
  5
2
330
0
100
AcDbSymbolTable
 70
     2
  0
LAYER
  5
10
330
2
100
AcDbSymbolTableRecord
100
AcDbLayerTableRecord
  2
0
 70
     0
 62
     7
  6
Continuous
370
    -3
390
F
  0
LAYER
  5
2F
330
2
100
AcDbSymbolTableRecord
100
AcDbLayerTableRecord
  2
SLD-0
 70
     0
 62
   179
  6
Continuous
370
     0
390
F
  0
ENDTAB
  0
TABLE
  2
STYLE
  5
3
330
0
100
AcDbSymbolTable
 70
    13
  0
STYLE
  5
11
330
3
100
AcDbSymbolTableRecord
100
AcDbTextStyleTableRecord
  2
Standard
 70
     0
 40
0.0
 41
1.0
 50
0.0
 71
     0
 42
2.5
  3
txt
  4
bigfont
  0
STYLE
  5
38
330
3
100
AcDbSymbolTableRecord
100
AcDbTextStyleTableRecord
  2
SLDTEXTSTYLE0
 70
     0
 40
0.0
 41
0.6236261537
 50
0.0
 71
     0
 42
0.2
  3
TXT
  4
bigfont
  0
STYLE
  5
4B
330
3
100
AcDbSymbolTableRecord
100
AcDbTextStyleTableRecord
  2
SLDTEXTSTYLE1
 70
     0
 40
0.0
 41
0.6212091789
 50
0.0
 71
     0
 42
0.2
  3
TXT
  4
bigfont
  0
STYLE
  5
50
330
3
100
AcDbSymbolTableRecord
100
AcDbTextStyleTableRecord
  2
SLDTEXTSTYLE2
 70
     0
 40
0.0
 41
0.6210806147
 50
0.0
 71
     0
 42
0.2
  3
TXT
  4
bigfont
  0
STYLE
  5
5F
330
3
100
AcDbSymbolTableRecord
100
AcDbTextStyleTableRecord
  2
SLDTEXTSTYLE3
 70
     0
 40
0.0
 41
0.6226035863
 50
0.0
 71
     0
 42
0.2
  3
TXT
  4
bigfont
  0
STYLE
  5
69
330
3
100
AcDbSymbolTableRecord
100
AcDbTextStyleTableRecord
  2
SLDTEXTSTYLE4
 70
     0
 40
0.0
 41
0.6244081126
 50
0.0
 71
     0
 42
0.2
  3
TXT
  4
bigfont
  0
STYLE
  5
6B
330
3
100
AcDbSymbolTableRecord
100
AcDbTextStyleTableRecord
  2
SLDTEXTSTYLE5
 70
     0
 40
0.0
 41
0.6272516084
 50
0.0
 71
     0
 42
0.2
  3
TXT
  4
bigfont
  0
STYLE
  5
2F9
330
3
100
AcDbSymbolTableRecord
100
AcDbTextStyleTableRecord
  2
SLDTEXTSTYLE6
 70
     0
 40
0.0
 41
0.5066143084
 50
0.0
 71
     0
 42
0.2
  3
TXT
  4
bigfont
  0
STYLE
  5
2FB
330
3
100
AcDbSymbolTableRecord
100
AcDbTextStyleTableRecord
  2
SLDTEXTSTYLE7
 70
     0
 40
0.0
 41
0.4804099926
 50
0.0
 71
     0
 42
0.2
  3
TXT
  4
bigfont
  0
STYLE
  5
2FE
330
3
100
AcDbSymbolTableRecord
100
AcDbTextStyleTableRecord
  2
SLDTEXTSTYLE8
 70
     0
 40
0.0
 41
0.6215272147
 50
0.0
 71
     0
 42
0.2
  3
TXT
  4
bigfont
  0
STYLE
  5
300
330
3
100
AcDbSymbolTableRecord
100
AcDbTextStyleTableRecord
  2
SLDTEXTSTYLE9
 70
     0
 40
0.0
 41
0.6255252095
 50
0.0
 71
     0
 42
0.2
  3
TXT
  4
bigfont
  0
STYLE
  5
302
330
3
100
AcDbSymbolTableRecord
100
AcDbTextStyleTableRecord
  2
SLDTEXTSTYLE10
 70
     0
 40
0.0
 41
0.6222509853
 50
0.0
 71
     0
 42
0.2
  3
TXT
  4
bigfont
  0
STYLE
  5
304
330
3
100
AcDbSymbolTableRecord
100
AcDbTextStyleTableRecord
  2
SLDTEXTSTYLE11
 70
     0
 40
0.0
 41
0.62440812
 50
0.0
 71
     0
 42
0.2
  3
TXT
  4
bigfont
  0
ENDTAB
  0
TABLE
  2
VIEW
  5
6
330
0
100
AcDbSymbolTable
 70
     0
  0
ENDTAB
  0
TABLE
  2
UCS
  5
7
330
0
100
AcDbSymbolTable
 70
     0
  0
ENDTAB
  0
TABLE
  2
APPID
  5
9
330
0
100
AcDbSymbolTable
 70
     1
  0
APPID
  5
12
330
9
100
AcDbSymbolTableRecord
100
AcDbRegAppTableRecord
  2
ACAD
 70
     0
  0
ENDTAB
  0
TABLE
  2
DIMSTYLE
  5
A
330
0
100
AcDbSymbolTable
 70
     1
100
AcDbDimStyleTable
  0
DIMSTYLE
105
27
330
A
100
AcDbSymbolTableRecord
100
AcDbDimStyleTableRecord
  2
ISO-25
 70
     0
 41
2.5
 42
0.625
 43
3.75
 44
1.25
 73
     0
 74
     0
 77
     1
 78
     8
140
2.5
141
2.5
143
0.0393700787
147
0.625
171
     3
172
     1
271
     2
272
     2
274
     3
278
    44
283
     0
284
     8
340
11
  0
ENDTAB
  0
TABLE
  2
BLOCK_RECORD
  5
1
330
0
100
AcDbSymbolTable
 70
     9
  0
BLOCK_RECORD
  5
1F
330
1
100
AcDbSymbolTableRecord
100
AcDbBlockTableRecord
  2
*Model_Space
340
22
  0
BLOCK_RECORD
  5
1B
330
1
100
AcDbSymbolTableRecord
100
AcDbBlockTableRecord
  2
*Paper_Space
340
1E
  0
BLOCK_RECORD
  5
23
330
1
100
AcDbSymbolTableRecord
100
AcDbBlockTableRecord
  2
*Paper_Space0
340
26
  0
BLOCK_RECORD
  5
30
330
1
100
AcDbSymbolTableRecord
100
AcDbBlockTableRecord
  2
KOZU0001
340
0
102
{BLKREFS
331
306
102
}
  0
BLOCK_RECORD
  5
3A
330
1
100
AcDbSymbolTableRecord
100
AcDbBlockTableRecord
  2
KOZU0002
340
0
102
{BLKREFS
331
307
102
}
  0
BLOCK_RECORD
  5
43
330
1
100
AcDbSymbolTableRecord
100
AcDbBlockTableRecord
  2
KOZU0003
340
0
102
{BLKREFS
331
308
102
}
  0
BLOCK_RECORD
  5
4D
330
1
100
AcDbSymbolTableRecord
100
AcDbBlockTableRecord
  2
SW_NOTE_0
340
0
102
{BLKREFS
331
56
102
}
  0
BLOCK_RECORD
  5
57
330
1
100
AcDbSymbolTableRecord
100
AcDbBlockTableRecord
  2
KOZU0004
340
0
102
{BLKREFS
331
309
102
}
  0
BLOCK_RECORD
  5
61
330
1
100
AcDbSymbolTableRecord
100
AcDbBlockTableRecord
  2
KOZU0005
340
0
102
{BLKREFS
331
30A
102
}
  0
BLOCK_RECORD
  5
6D
330
1
100
AcDbSymbolTableRecord
100
AcDbBlockTableRecord
  2
KOZU0006
340
0
102
{BLKREFS
331
30B
102
}
  0
BLOCK_RECORD
  5
76
330
1
100
AcDbSymbolTableRecord
100
AcDbBlockTableRecord
  2
KOZU0007
340
0
102
{BLKREFS
331
30C
102
}
  0
ENDTAB
  0
ENDSEC
  0
SECTION
  2
BLOCKS
  0
BLOCK
  5
20
330
1F
100
AcDbEntity
  8
0
100
AcDbBlockBegin
  2
*Model_Space
 70
     0
 71
     0
 10
0.0
 20
0.0
 30
0.0
  3
*Model_Space
  1

  0
ENDBLK
  5
21
330
1F
100
AcDbEntity
  8
0
100
AcDbBlockEnd
  0
BLOCK
  5
1C
330
1B
100
AcDbEntity
 67
     1
  8
0
100
AcDbBlockBegin
  2
*Paper_Space
 70
     0
 71
     0
 10
0.0
 20
0.0
 30
0.0
  3
*Paper_Space
  1

  0
ENDBLK
  5
1D
330
1B
100
AcDbEntity
 67
     1
  8
0
100
AcDbBlockEnd
  0
BLOCK
  5
24
330
23
100
AcDbEntity
  8
0
100
AcDbBlockBegin
  2
*Paper_Space0
 70
     0
 71
     0
 10
0.0
 20
0.0
 30
0.0
  3
*Paper_Space0
  1

  0
ENDBLK
  5
25
330
23
100
AcDbEntity
  8
0
100
AcDbBlockEnd
  0
BLOCK
  5
31
330
30
100
AcDbEntity
  8
0
100
AcDbBlockBegin
  2
KOZU0001
 70
     0
 71
     0
 10
0.0
 20
0.0
 30
0.0
  3
KOZU0001
  1

  0
LINE
  5
33
330
30
100
AcDbEntity
  8
SLD-0
  6
Continuous
 62
   179
100
AcDbLine
 10
0.0
 20
0.0
 30
0.0
 11
9.8248492
 21
-11.892054
 31
0.0
  0
LINE
  5
34
330
30
100
AcDbEntity
  8
SLD-0
  6
Continuous
 62
   179
100
AcDbLine
 10
0.0
 20
0.0
 30
0.0
 11
2.4255461
 21
-2.0535223
 31
0.0
  0
LINE
  5
35
330
30
100
AcDbEntity
  8
SLD-0
  6
Continuous
 62
   179
100
AcDbLine
 10
0.0
 20
0.0
 30
0.0
 11
1.5590201
 21
-2.7694194
 31
0.0
  0
LINE
  5
36
330
30
100
AcDbEntity
  8
SLD-0
  6
Continuous
 62
   179
100
AcDbLine
 10
0.0
 20
0.0
 30
0.0
 11
9.8248492
 21
-11.892054
 31
0.0
  0
LINE
  5
37
330
30
100
AcDbEntity
  8
SLD-0
  6
Continuous
 62
   179
100
AcDbLine
 10
9.8248492
 20
-11.892054
 30
0.0
 11
36.677712
 21
-11.892052
 31
0.0
  0
MTEXT
  5
39
330
30
100
AcDbEntity
  8
SLD-0
100
AcDbMText
 10
13.363715
 20
-8.4373324631
 30
0.0
 40
3.2
 41
0.0
 71
     1
 72
     1
  1
４－Ｍ５取付用
  7
SLDTEXTSTYLE0
 73
     1
 44
1.0
  0
ENDBLK
  5
32
330
30
100
AcDbEntity
  8
0
100
AcDbBlockEnd
  0
BLOCK
  5
3B
330
3A
100
AcDbEntity
  8
0
100
AcDbBlockBegin
  2
KOZU0002
 70
     0
 71
     0
 10
0.0
 20
0.0
 30
0.0
  3
KOZU0002
  1

  0
LINE
  5
3D
330
3A
100
AcDbEntity
  8
SLD-0
  6
Continuous
 62
   179
100
AcDbLine
 10
0.0
 20
0.0
 30
0.0
 11
9.2087745
 21
-12.341256
 31
0.0
  0
LINE
  5
3E
330
3A
100
AcDbEntity
  8
SLD-0
  6
Continuous
 62
   179
100
AcDbLine
 10
0.0
 20
0.0
 30
0.0
 11
2.3210871
 21
-2.1708943
 31
0.0
  0
LINE
  5
3F
330
3A
100
AcDbEntity
  8
SLD-0
  6
Continuous
 62
   179
100
AcDbLine
 10
0.0
 20
0.0
 30
0.0
 11
1.4202372
 21
-2.8430888
 31
0.0
  0
LINE
  5
40
330
3A
100
AcDbEntity
  8
SLD-0
  6
Continuous
 62
   179
100
AcDbLine
 10
0.0
 20
0.0
 30
0.0
 11
9.2087745
 21
-12.341256
 31
0.0
  0
LINE
  5
41
330
3A
100
AcDbEntity
  8
SLD-0
  6
Continuous
 62
   179
100
AcDbLine
 10
9.2087745
 20
-12.341256
 30
0.0
 11
37.90765
 21
-12.34125
 31
0.0
  0
MTEXT
  5
42
330
3A
100
AcDbEntity
  8
SLD-0
100
AcDbMText
 10
14.593653
 20
-8.8865304631
 30
0.0
 40
3.2
 41
0.0
 71
     1
 72
     1
  1
２－Ｍ５取付用
  7
SLDTEXTSTYLE0
 73
     1
 44
1.0
  0
ENDBLK
  5
3C
330
3A
100
AcDbEntity
  8
0
100
AcDbBlockEnd
  0
BLOCK
  5
44
330
43
100
AcDbEntity
  8
0
100
AcDbBlockBegin
  2
KOZU0003
 70
     0
 71
     0
 10
0.0
 20
0.0
 30
0.0
  3
KOZU0003
  1

  0
LINE
  5
46
330
43
100
AcDbEntity
  8
SLD-0
  6
Continuous
 62
   179
100
AcDbLine
 10
0.0
 20
0.0
 30
0.0
 11
17.697241
 21
36.236307
 31
0.0
  0
LINE
  5
47
330
43
100
AcDbEntity
  8
SLD-0
  6
Continuous
 62
   179
100
AcDbLine
 10
0.0
 20
0.0
 30
0.0
 11
0.86771186
 21
3.0573361
 31
0.0
  0
LINE
  5
48
330
43
100
AcDbEntity
  8
SLD-0
  6
Continuous
 62
   179
100
AcDbLine
 10
0.0
 20
0.0
 30
0.0
 11
1.8776969
 21
2.5640753
 31
0.0
  0
LINE
  5
49
330
43
100
AcDbEntity
  8
SLD-0
  6
Continuous
 62
   179
100
AcDbLine
 10
0.0
 20
0.0
 30
0.0
 11
17.697241
 21
36.236307
 31
0.0
  0
LINE
  5
4A
330
43
100
AcDbEntity
  8
SLD-0
  6
Continuous
 62
   179
100
AcDbLine
 10
17.697241
 20
36.236307
 30
0.0
 11
73.691877
 21
36.236306
 31
0.0
  0
MTEXT
  5
4C
330
43
100
AcDbEntity
  8
SLD-0
100
AcDbMText
 10
21.577877
 20
39.6910255369
 30
0.0
 40
3.2
 41
0.0
 71
     1
 72
     1
  1
４－Ｍ６深１２（裏面ヨリ加工）
  7
SLDTEXTSTYLE1
 73
     1
 44
1.0
  0
INSERT
  5
56
330
43
100
AcDbEntity
  8
SLD-0
 62
     7
100
AcDbBlockReference
  2
SW_NOTE_0
 10
21.577877
 20
29.7847505537
 30
0.0
  0
ENDBLK
  5
45
330
43
100
AcDbEntity
  8
0
100
AcDbBlockEnd
  0
BLOCK
  5
4E
330
4D
100
AcDbEntity
  8
0
100
AcDbBlockBegin
  2
SW_NOTE_0
 70
     0
 71
     0
 10
0.0
 20
0.0
 30
0.0
  3
SW_NOTE_0
  1

  0
MTEXT
  5
51
330
4D
100
AcDbEntity
  8
SLD-0
100
AcDbMText
 10
0.0
 20
4.2902749832
 30
0.0
 40
3.2
 41
0.0
 71
     1
 72
     1
  1
４－
  7
SLDTEXTSTYLE2
 73
     1
 44
1.0
  0
MTEXT
  5
52
330
4D
100
AcDbEntity
  8
SLD-0
100
AcDbMText
 10
10.6177777052
 20
4.2902749832
 30
0.0
 40
3.2
 41
0.0
 71
     1
 72
     1
  1
%%c
  7
SLDTEXTSTYLE2
 73
     1
 44
1.0
  0
MTEXT
  5
53
330
4D
100
AcDbEntity
  8
SLD-0
100
AcDbMText
 10
15.8026665449
 20
4.2902749832
 30
0.0
 40
3.2
 41
0.0
 71
     1
 72
     1
  1
５．２　
  7
SLDTEXTSTYLE2
 73
     1
 44
1.0
  0
MTEXT
  5
54
330
4D
100
AcDbEntity
  8
SLD-0
100
AcDbMText
 10
32.7982231975
 20
4.2902749832
 30
0.0
 40
3.2
 41
0.0
 71
     1
 72
     1
  1
%%c
  7
SLDTEXTSTYLE2
 73
     1
 44
1.0
  0
MTEXT
  5
55
330
4D
100
AcDbEntity
  8
SLD-0
100
AcDbMText
 10
37.9831120372
 20
4.2902749832
 30
0.0
 40
3.2
 41
0.0
 71
     1
 72
     1
  1
９ザグリ深５．５
  7
SLDTEXTSTYLE2
 73
     1
 44
1.0
  0
ENDBLK
  5
4F
330
4D
100
AcDbEntity
  8
0
100
AcDbBlockEnd
  0
BLOCK
  5
58
330
57
100
AcDbEntity
  8
0
100
AcDbBlockBegin
  2
KOZU0004
 70
     0
 71
     0
 10
0.0
 20
0.0
 30
0.0
  3
KOZU0004
  1

  0
LINE
  5
5A
330
57
100
AcDbEntity
  8
SLD-0
  6
Continuous
 62
   179
100
AcDbLine
 10
0.0
 20
0.0
 30
0.0
 11
11.12518
 21
-32.567436
 31
0.0
  0
LINE
  5
5B
330
57
100
AcDbEntity
  8
SLD-0
  6
Continuous
 62
   179
100
AcDbLine
 10
0.0
 20
0.0
 30
0.0
 11
1.5429934
 21
-2.7783806
 31
0.0
  0
LINE
  5
5C
330
57
100
AcDbEntity
  8
SLD-0
  6
Continuous
 62
   179
100
AcDbLine
 10
0.0
 20
0.0
 30
0.0
 11
0.47934207
 21
-3.1417286
 31
0.0
  0
LINE
  5
5D
330
57
100
AcDbEntity
  8
SLD-0
  6
Continuous
 62
   179
100
AcDbLine
 10
0.0
 20
0.0
 30
0.0
 11
11.12518
 21
-32.567436
 31
0.0
  0
LINE
  5
5E
330
57
100
AcDbEntity
  8
SLD-0
  6
Continuous
 62
   179
100
AcDbLine
 10
11.12518
 20
-32.567436
 30
0.0
 11
44.301065
 21
-32.567432
 31
0.0
  0
MTEXT
  5
60
330
57
100
AcDbEntity
  8
SLD-0
100
AcDbMText
 10
14.587074
 20
-29.1127124631
 30
0.0
 40
3.2
 41
0.0
 71
     1
 72
     1
  1
２－Ｍ５（配管用）
  7
SLDTEXTSTYLE3
 73
     1
 44
1.0
  0
ENDBLK
  5
59
330
57
100
AcDbEntity
  8
0
100
AcDbBlockEnd
  0
BLOCK
  5
62
330
61
100
AcDbEntity
  8
0
100
AcDbBlockBegin
  2
KOZU0005
 70
     0
 71
     0
 10
0.0
 20
0.0
 30
0.0
  3
KOZU0005
  1

  0
LINE
  5
64
330
61
100
AcDbEntity
  8
SLD-0
  6
Continuous
 62
   179
100
AcDbLine
 10
0.0
 20
0.0
 30
0.0
 11
-6.0364742
 21
29.532681
 31
0.0
  0
LINE
  5
65
330
61
100
AcDbEntity
  8
SLD-0
  6
Continuous
 62
   179
100
AcDbLine
 10
0.0
 20
0.0
 30
0.0
 11
-1.1770265
 21
2.9520902
 31
0.0
  0
LINE
  5
66
330
61
100
AcDbEntity
  8
SLD-0
  6
Continuous
 62
   179
100
AcDbLine
 10
0.0
 20
0.0
 30
0.0
 11
-0.075795455
 21
3.1771816
 31
0.0
  0
LINE
  5
67
330
61
100
AcDbEntity
  8
SLD-0
  6
Continuous
 62
   179
100
AcDbLine
 10
0.0
 20
0.0
 30
0.0
 11
-6.0364742
 21
29.532681
 31
0.0
  0
LINE
  5
68
330
61
100
AcDbEntity
  8
SLD-0
  6
Continuous
 62
   179
100
AcDbLine
 10
-6.0364608
 20
29.532671
 30
0.0
 11
-31.705925
 21
29.532671
 31
0.0
  0
MTEXT
  5
6A
330
61
100
AcDbEntity
  8
SLD-0
100
AcDbMText
 10
-29.87794
 20
32.9873905369
 30
0.0
 40
3.2
 41
0.0
 71
     1
 72
     1
  1
２ｘ２－Ｍ５
  7
SLDTEXTSTYLE4
 73
     1
 44
1.0
  0
MTEXT
  5
6C
330
61
100
AcDbEntity
  8
SLD-0
100
AcDbMText
 10
-29.87794
 20
27.3713905369
 30
0.0
 40
3.2
 41
0.0
 71
     1
 72
     1
  1
取付ネジ
  7
SLDTEXTSTYLE5
 73
     1
 44
1.0
  0
ENDBLK
  5
63
330
61
100
AcDbEntity
  8
0
100
AcDbBlockEnd
  0
BLOCK
  5
6E
330
6D
100
AcDbEntity
  8
0
100
AcDbBlockBegin
  2
KOZU0006
 70
     0
 71
     0
 10
0.0
 20
0.0
 30
0.0
  3
KOZU0006
  1

  0
LINE
  5
70
330
6D
100
AcDbEntity
  8
SLD-0
  6
Continuous
 62
   179
100
AcDbLine
 10
0.0
 20
0.0
 30
0.0
 11
6.0566413
 21
-17.270569
 31
0.0
  0
LINE
  5
71
330
6D
100
AcDbEntity
  8
SLD-0
  6
Continuous
 62
   179
100
AcDbLine
 10
0.0
 20
0.0
 30
0.0
 11
1.5654882
 21
-2.7657683
 31
0.0
  0
LINE
  5
72
330
6D
100
AcDbEntity
  8
SLD-0
  6
Continuous
 62
   179
100
AcDbLine
 10
0.0
 20
0.0
 30
0.0
 11
0.50482029
 21
-3.1377355
 31
0.0
  0
LINE
  5
73
330
6D
100
AcDbEntity
  8
SLD-0
  6
Continuous
 62
   179
100
AcDbLine
 10
0.0
 20
0.0
 30
0.0
 11
6.0566413
 21
-17.270569
 31
0.0
  0
LINE
  5
74
330
6D
100
AcDbEntity
  8
SLD-0
  6
Continuous
 62
   179
100
AcDbLine
 10
6.0566522
 20
-17.270565
 30
0.0
 11
33.72395
 21
-17.270565
 31
0.0
  0
MTEXT
  5
75
330
6D
100
AcDbEntity
  8
SLD-0
100
AcDbMText
 10
10.409953
 20
-13.8158454631
 30
0.0
 40
3.2
 41
0.0
 71
     1
 72
     1
  1
４－Ｍ５取付用
  7
SLDTEXTSTYLE0
 73
     1
 44
1.0
  0
ENDBLK
  5
6F
330
6D
100
AcDbEntity
  8
0
100
AcDbBlockEnd
  0
BLOCK
  5
77
330
76
100
AcDbEntity
  8
0
100
AcDbBlockBegin
  2
KOZU0007
 70
     0
 71
     0
 10
0.0
 20
0.0
 30
0.0
  3
KOZU0007
  1

  0
LINE
  5
79
330
76
100
AcDbEntity
  8
SLD-0
  6
Continuous
 62
   179
100
AcDbLine
 10
0.0
 20
0.0
 30
0.0
 11
10.80507
 21
-18.663303
 31
0.0
  0
LINE
  5
7A
330
76
100
AcDbEntity
  8
SLD-0
  6
Continuous
 62
   179
100
AcDbLine
 10
0.0
 20
0.0
 30
0.0
 11
2.053611
 21
-2.425471
 31
0.0
  0
LINE
  5
7B
330
76
100
AcDbEntity
  8
SLD-0
  6
Continuous
 62
   179
100
AcDbLine
 10
0.0
 20
0.0
 30
0.0
 11
1.0808719
 21
-2.9886358
 31
0.0
  0
LINE
  5
7C
330
76
100
AcDbEntity
  8
SLD-0
  6
Continuous
 62
   179
100
AcDbLine
 10
0.0
 20
0.0
 30
0.0
 11
10.80507
 21
-18.663303
 31
0.0
  0
LINE
  5
7D
330
76
100
AcDbEntity
  8
SLD-0
  6
Continuous
 62
   179
100
AcDbLine
 10
10.80507
 20
-18.663303
 30
0.0
 11
60.634168
 21
-18.663296
 31
0.0
  0
MTEXT
  5
7E
330
76
100
AcDbEntity
  8
SLD-0
100
AcDbMText
 10
12.50489
 20
-15.2085764631
 30
0.0
 40
3.2
 41
0.0
 71
     1
 72
     1
  1
有接点オートスイッチ（ＳＭＣ）
  7
SLDTEXTSTYLE1
 73
     1
 44
1.0
  0
MTEXT
  5
7F
330
76
100
AcDbEntity
  8
SLD-0
100
AcDbMText
 10
12.50489
 20
-20.8245764631
 30
0.0
 40
3.2
 41
0.0
 71
     1
 72
     1
  1
Ｄ－Ａ９３　２ヶ（オプション）
  7
SLDTEXTSTYLE1
 73
     1
 44
1.0
  0
ENDBLK
  5
78
330
76
100
AcDbEntity
  8
0
100
AcDbBlockEnd
  0
ENDSEC
  0
SECTION
  2
ENTITIES
  0
LINE
  5
80
330
1F
100
AcDbEntity
  8
SLD-0
  6
Continuous
 62
   179
100
AcDbLine
 10
152.73846
 20
56.179955
 30
0.0
 11
159.43845
 21
56.179955
 31
0.0
  0
LINE
  5
81
330
1F
100
AcDbEntity
  8
SLD-0
  6
Continuous
 62
   179
100
AcDbLine
 10
152.73846
 20
68.179947
 30
0.0
 11
159.43845
 21
68.179947
 31
0.0
  0
LINE
  5
82
330
1F
100
AcDbEntity
  8
SLD-0
  6
Continuous
 62
   179
100
AcDbLine
 10
213.61965
 20
74.179953
 30
0.0
 11
215.92905
 21
78.179952
 31
0.0
  0
LINE
  5
83
330
1F
100
AcDbEntity
  8
SLD-0
  6
CENTER
 62
   179
100
AcDbLine
 10
211.79845
 20
74.179955
 30
0.0
 11
224.67845
 21
74.179955
 31
0.0
  0
LINE
  5
84
330
1F
100
AcDbEntity
  8
SLD-0
  6
CENTER
 62
   179
100
AcDbLine
 10
143.03845
 20
62.179955
 30
0.0
 11
236.73845
 21
62.179955
 31
0.0
  0
LINE
  5
85
330
1F
100
AcDbEntity
  8
SLD-0
  6
Continuous
 62
   179
100
AcDbLine
 10
142.73846
 20
49.179955
 30
0.0
 11
152.73846
 21
49.179955
 31
0.0
  0
LINE
  5
86
330
1F
100
AcDbEntity
  8
SLD-0
  6
Continuous
 62
   179
100
AcDbLine
 10
142.73846
 20
75.179947
 30
0.0
 11
152.73846
 21
75.179947
 31
0.0
  0
LINE
  5
87
330
1F
100
AcDbEntity
  8
SLD-0
  6
Continuous
 62
   179
100
AcDbLine
 10
142.73846
 20
75.179947
 30
0.0
 11
142.73846
 21
49.179955
 31
0.0
  0
LINE
  5
88
330
1F
100
AcDbEntity
  8
SLD-0
  6
Continuous
 62
   179
100
AcDbLine
 10
152.73846
 20
75.179947
 30
0.0
 11
152.73846
 21
49.179955
 31
0.0
  0
LINE
  5
89
330
1F
100
AcDbEntity
  8
SLD-0
  6
CENTER
 62
   179
100
AcDbLine
 10
214.73845
 20
55.219948
 30
0.0
 11
214.73845
 21
44.639954
 31
0.0
  0
LINE
  5
8A
330
1F
100
AcDbEntity
  8
SLD-0
  6
CENTER
 62
   179
100
AcDbLine
 10
164.73845
 20
55.219948
 30
0.0
 11
164.73845
 21
44.639954
 31
0.0
  0
LINE
  5
8B
330
1F
100
AcDbEntity
  8
SLD-0
  6
CENTER
 62
   179
100
AcDbLine
 10
159.69847
 20
50.179955
 30
0.0
 11
169.77846
 21
50.179955
 31
0.0
  0
LINE
  5
8C
330
1F
100
AcDbEntity
  8
SLD-0
  6
CENTER
 62
   179
100
AcDbLine
 10
209.69847
 20
50.179955
 30
0.0
 11
219.77846
 21
50.179955
 31
0.0
  0
LINE
  5
8D
330
1F
100
AcDbEntity
  8
SLD-0
  6
Continuous
 62
   179
100
AcDbLine
 10
220.54785
 20
70.179953
 30
0.0
 11
222.85726
 21
74.179952
 31
0.0
  0
LINE
  5
8E
330
1F
100
AcDbEntity
  8
SLD-0
  6
Continuous
 62
   179
100
AcDbLine
 10
213.61964
 20
74.179956
 30
0.0
 11
215.92904
 21
70.179954
 31
0.0
  0
LINE
  5
8F
330
1F
100
AcDbEntity
  8
SLD-0
  6
Continuous
 62
   179
100
AcDbLine
 10
215.92904
 20
70.179954
 30
0.0
 11
220.54785
 21
70.179953
 31
0.0
  0
LINE
  5
90
330
1F
100
AcDbEntity
  8
SLD-0
  6
Continuous
 62
   179
100
AcDbLine
 10
215.92905
 20
78.179952
 30
0.0
 11
220.54785
 21
78.179955
 31
0.0
  0
LINE
  5
91
330
1F
100
AcDbEntity
  8
SLD-0
  6
Continuous
 62
   179
100
AcDbLine
 10
220.54784
 20
78.179956
 30
0.0
 11
222.85724
 21
74.179954
 31
0.0
  0
LINE
  5
92
330
1F
100
AcDbEntity
  8
SLD-0
  6
CENTER
 62
   179
100
AcDbLine
 10
218.23845
 20
80.619949
 30
0.0
 11
218.23845
 21
67.739952
 31
0.0
  0
LINE
  5
93
330
1F
100
AcDbEntity
  8
SLD-0
  6
Continuous
 62
   179
100
AcDbLine
 10
178.23845
 20
67.179955
 30
0.0
 11
218.23845
 21
67.179955
 31
0.0
  0
LINE
  5
94
330
1F
100
AcDbEntity
  8
SLD-0
  6
Continuous
 62
   179
100
AcDbLine
 10
168.11965
 20
74.179954
 30
0.0
 11
170.42905
 21
78.179953
 31
0.0
  0
LINE
  5
95
330
1F
100
AcDbEntity
  8
SLD-0
  6
CENTER
 62
   179
100
AcDbLine
 10
166.29845
 20
74.179955
 30
0.0
 11
179.17845
 21
74.179955
 31
0.0
  0
LINE
  5
96
330
1F
100
AcDbEntity
  8
SLD-0
  6
Continuous
 62
   179
100
AcDbLine
 10
170.42905
 20
78.179953
 30
0.0
 11
175.04785
 21
78.179955
 31
0.0
  0
LINE
  5
97
330
1F
100
AcDbEntity
  8
SLD-0
  6
Continuous
 62
   179
100
AcDbLine
 10
170.42905
 20
70.179955
 30
0.0
 11
175.04785
 21
70.179955
 31
0.0
  0
LINE
  5
98
330
1F
100
AcDbEntity
  8
SLD-0
  6
Continuous
 62
   179
100
AcDbLine
 10
178.23845
 20
57.179955
 30
0.0
 11
218.23845
 21
57.179955
 31
0.0
  0
LINE
  5
99
330
1F
100
AcDbEntity
  8
SLD-0
  6
Continuous
 62
   179
100
AcDbLine
 10
168.11963
 20
74.179951
 30
0.0
 11
170.42903
 21
70.179949
 31
0.0
  0
LINE
  5
9A
330
1F
100
AcDbEntity
  8
SLD-0
  6
Continuous
 62
   179
100
AcDbLine
 10
175.04785
 20
70.179955
 30
0.0
 11
177.35725
 21
74.179953
 31
0.0
  0
LINE
  5
9B
330
1F
100
AcDbEntity
  8
SLD-0
  6
Continuous
 62
   179
100
AcDbLine
 10
178.23845
 20
67.179955
 30
0.0
 11
178.23845
 21
57.179955
 31
0.0
  0
LINE
  5
9C
330
1F
100
AcDbEntity
  8
SLD-0
  6
Continuous
 62
   179
100
AcDbLine
 10
236.73845
 20
79.679947
 30
0.0
 11
236.73845
 21
44.679955
 31
0.0
  0
LINE
  5
9D
330
1F
100
AcDbEntity
  8
SLD-0
  6
Continuous
 62
   179
100
AcDbLine
 10
159.73845
 20
79.679947
 30
0.0
 11
159.73845
 21
44.679955
 31
0.0
  0
LINE
  5
9E
330
1F
100
AcDbEntity
  8
SLD-0
  6
Continuous
 62
   179
100
AcDbLine
 10
159.73845
 20
44.679955
 30
0.0
 11
236.73845
 21
44.679955
 31
0.0
  0
LINE
  5
9F
330
1F
100
AcDbEntity
  8
SLD-0
  6
HIDDEN
 62
   179
100
AcDbLine
 10
236.73845
 20
74.679947
 30
0.0
 11
236.73845
 21
69.679947
 31
0.0
  0
LINE
  5
A0
330
1F
100
AcDbEntity
  8
SLD-0
  6
Continuous
 62
   179
100
AcDbLine
 10
159.73845
 20
79.679947
 30
0.0
 11
236.73845
 21
79.679947
 31
0.0
  0
LINE
  5
A1
330
1F
100
AcDbEntity
  8
SLD-0
  6
Continuous
 62
   179
100
AcDbLine
 10
218.23845
 20
67.179955
 30
0.0
 11
218.23845
 21
57.179955
 31
0.0
  0
LINE
  5
A2
330
1F
100
AcDbEntity
  8
SLD-0
  6
CENTER
 62
   179
100
AcDbLine
 10
218.23845
 20
79.719955
 30
0.0
 11
218.23845
 21
69.139954
 31
0.0
  0
LINE
  5
A3
330
1F
100
AcDbEntity
  8
SLD-0
  6
CENTER
 62
   179
100
AcDbLine
 10
172.73845
 20
79.719955
 30
0.0
 11
172.73845
 21
69.139954
 31
0.0
  0
LINE
  5
A4
330
1F
100
AcDbEntity
  8
SLD-0
  6
CENTER
 62
   179
100
AcDbLine
 10
167.69844
 20
74.179955
 30
0.0
 11
177.77846
 21
74.179955
 31
0.0
  0
LINE
  5
A5
330
1F
100
AcDbEntity
  8
SLD-0
  6
CENTER
 62
   179
100
AcDbLine
 10
213.19844
 20
74.179955
 30
0.0
 11
223.27846
 21
74.179955
 31
0.0
  0
LINE
  5
A6
330
1F
100
AcDbEntity
  8
SLD-0
  6
CENTER
 62
   179
100
AcDbLine
 10
172.73845
 20
80.619949
 30
0.0
 11
172.73845
 21
67.739952
 31
0.0
  0
LINE
  5
A7
330
1F
100
AcDbEntity
  8
SLD-0
  6
Continuous
 62
   179
100
AcDbLine
 10
159.73845
 20
77.679955
 30
0.0
 11
236.73845
 21
77.679955
 31
0.0
  0
LINE
  5
A8
330
1F
100
AcDbEntity
  8
SLD-0
  6
Continuous
 62
   179
100
AcDbLine
 10
159.73845
 20
46.679955
 30
0.0
 11
236.73845
 21
46.679955
 31
0.0
  0
LINE
  5
A9
330
1F
100
AcDbEntity
  8
SLD-0
  6
Continuous
 62
   179
100
AcDbLine
 10
142.73846
 20
73.179947
 30
0.0
 11
152.73846
 21
73.179947
 31
0.0
  0
LINE
  5
AA
330
1F
100
AcDbEntity
  8
SLD-0
  6
Continuous
 62
   179
100
AcDbLine
 10
142.73846
 20
51.179955
 30
0.0
 11
152.73846
 21
51.179955
 31
0.0
  0
LINE
  5
AB
330
1F
100
AcDbEntity
  8
SLD-0
  6
Continuous
 62
   179
100
AcDbLine
 10
175.04783
 20
78.179952
 30
0.0
 11
177.35724
 21
74.17995
 31
0.0
  0
LINE
  5
AC
330
1F
100
AcDbEntity
  8
SLD-0
  6
CENTER
 62
   179
100
AcDbLine
 10
181.73845
 20
172.21997
 30
0.0
 11
181.73845
 21
162.13997
 31
0.0
  0
LINE
  5
AD
330
1F
100
AcDbEntity
  8
SLD-0
  6
CENTER
 62
   179
100
AcDbLine
 10
218.73845
 20
172.21997
 30
0.0
 11
218.73845
 21
162.13997
 31
0.0
  0
LINE
  5
AE
330
1F
100
AcDbEntity
  8
SLD-0
  6
CENTER
 62
   179
100
AcDbLine
 10
213.69847
 20
167.17998
 30
0.0
 11
223.77846
 21
167.17998
 31
0.0
  0
LINE
  5
AF
330
1F
100
AcDbEntity
  8
SLD-0
  6
CENTER
 62
   179
100
AcDbLine
 10
176.69847
 20
167.17998
 30
0.0
 11
186.77846
 21
167.17998
 31
0.0
  0
LINE
  5
B0
330
1F
100
AcDbEntity
  8
SLD-0
  6
Continuous
 62
   179
100
AcDbLine
 10
159.73845
 20
161.17998
 30
0.0
 11
236.73845
 21
161.17998
 31
0.0
  0
LINE
  5
B1
330
1F
100
AcDbEntity
  8
SLD-0
  6
Continuous
 62
   179
100
AcDbLine
 10
159.73845
 20
159.12997
 30
0.0
 11
236.73845
 21
159.12997
 31
0.0
  0
LINE
  5
B2
330
1F
100
AcDbEntity
  8
SLD-0
  6
Continuous
 62
   179
100
AcDbLine
 10
159.73845
 20
156.12997
 30
0.0
 11
236.73845
 21
156.12997
 31
0.0
  0
LINE
  5
B3
330
1F
100
AcDbEntity
  8
SLD-0
  6
CENTER
 62
   179
100
AcDbLine
 10
181.73845
 20
133.17997
 30
0.0
 11
181.73845
 21
145.17998
 31
0.0
  0
LINE
  5
B4
330
1F
100
AcDbEntity
  8
SLD-0
  6
CENTER
 62
   179
100
AcDbLine
 10
212.73845
 20
139.17997
 30
0.0
 11
224.73845
 21
139.17997
 31
0.0
  0
LINE
  5
B5
330
1F
100
AcDbEntity
  8
SLD-0
  6
CENTER
 62
   179
100
AcDbLine
 10
218.73845
 20
133.17997
 30
0.0
 11
218.73845
 21
145.17998
 31
0.0
  0
LINE
  5
B6
330
1F
100
AcDbEntity
  8
SLD-0
  6
CENTER
 62
   179
100
AcDbLine
 10
175.23845
 20
139.17997
 30
0.0
 11
187.23845
 21
139.17997
 31
0.0
  0
LINE
  5
B7
330
1F
100
AcDbEntity
  8
SLD-0
  6
Continuous
 62
   179
100
AcDbLine
 10
159.73845
 20
173.71588
 30
0.0
 11
236.73845
 21
173.71588
 31
0.0
  0
LINE
  5
B8
330
1F
100
AcDbEntity
  8
SLD-0
  6
Continuous
 62
   179
100
AcDbLine
 10
159.73845
 20
192.17998
 30
0.0
 11
159.73845
 21
114.17995
 31
0.0
  0
LINE
  5
B9
330
1F
100
AcDbEntity
  8
SLD-0
  6
Continuous
 62
   179
100
AcDbLine
 10
159.73845
 20
182.71588
 30
0.0
 11
236.73845
 21
182.71588
 31
0.0
  0
LINE
  5
BA
330
1F
100
AcDbEntity
  8
SLD-0
  6
Continuous
 62
   179
100
AcDbLine
 10
152.73846
 20
132.17995
 30
0.0
 11
159.73845
 21
132.17995
 31
0.0
  0
LINE
  5
BB
330
1F
100
AcDbEntity
  8
SLD-0
  6
Continuous
 62
   179
100
AcDbLine
 10
152.73846
 20
186.17998
 30
0.0
 11
159.73845
 21
186.17998
 31
0.0
  0
LINE
  5
BC
330
1F
100
AcDbEntity
  8
SLD-0
  6
CENTER
 62
   179
100
AcDbLine
 10
142.73846
 20
153.17998
 30
0.0
 11
236.73845
 21
153.17998
 31
0.0
  0
LINE
  5
BD
330
1F
100
AcDbEntity
  8
SLD-0
  6
Continuous
 62
   179
100
AcDbLine
 10
236.73845
 20
192.17998
 30
0.0
 11
236.73845
 21
114.17995
 31
0.0
  0
LINE
  5
BE
330
1F
100
AcDbEntity
  8
SLD-0
  6
CENTER
 62
   179
100
AcDbLine
 10
139.54916
 20
153.17998
 30
0.0
 11
237.93845
 21
153.17998
 31
0.0
  0
LINE
  5
BF
330
1F
100
AcDbEntity
  8
SLD-0
  6
Continuous
 62
   179
100
AcDbLine
 10
159.73845
 20
192.17998
 30
0.0
 11
236.73845
 21
192.17998
 31
0.0
  0
LINE
  5
C0
330
1F
100
AcDbEntity
  8
SLD-0
  6
Continuous
 62
   179
100
AcDbLine
 10
159.73845
 20
114.17995
 30
0.0
 11
236.73845
 21
114.17995
 31
0.0
  0
LINE
  5
C1
330
1F
100
AcDbEntity
  8
SLD-0
  6
CENTER
 62
   179
100
AcDbLine
 10
142.73846
 20
180.17998
 30
0.0
 11
241.21478
 21
180.17998
 31
0.0
  0
LINE
  5
C2
330
1F
100
AcDbEntity
  8
SLD-0
  6
Continuous
 62
   179
100
AcDbLine
 10
152.73846
 20
174.17998
 30
0.0
 11
159.73845
 21
174.17998
 31
0.0
  0
LINE
  5
C3
330
1F
100
AcDbEntity
  8
SLD-0
  6
Continuous
 62
   179
100
AcDbLine
 10
159.73845
 20
181.21588
 30
0.0
 11
236.73845
 21
181.21588
 31
0.0
  0
LINE
  5
C4
330
1F
100
AcDbEntity
  8
SLD-0
  6
Continuous
 62
   179
100
AcDbLine
 10
159.73845
 20
172.21588
 30
0.0
 11
236.73845
 21
172.21588
 31
0.0
  0
LINE
  5
C5
330
1F
100
AcDbEntity
  8
SLD-0
  6
Continuous
 62
   179
100
AcDbLine
 10
142.73846
 20
190.17998
 30
0.0
 11
142.73846
 21
116.17995
 31
0.0
  0
LINE
  5
C6
330
1F
100
AcDbEntity
  8
SLD-0
  6
Continuous
 62
   179
100
AcDbLine
 10
142.73846
 20
190.17998
 30
0.0
 11
152.73846
 21
190.17998
 31
0.0
  0
LINE
  5
C7
330
1F
100
AcDbEntity
  8
SLD-0
  6
Continuous
 62
   179
100
AcDbLine
 10
142.73846
 20
116.17995
 30
0.0
 11
152.73846
 21
116.17995
 31
0.0
  0
LINE
  5
C8
330
1F
100
AcDbEntity
  8
SLD-0
  6
Continuous
 62
   179
100
AcDbLine
 10
152.73846
 20
120.17995
 30
0.0
 11
159.73845
 21
120.17995
 31
0.0
  0
LINE
  5
C9
330
1F
100
AcDbEntity
  8
SLD-0
  6
CENTER
 62
   179
100
AcDbLine
 10
142.73846
 20
126.17995
 30
0.0
 11
241.21478
 21
126.17995
 31
0.0
  0
LINE
  5
CA
330
1F
100
AcDbEntity
  8
SLD-0
  6
Continuous
 62
   179
100
AcDbLine
 10
159.73845
 20
184.71588
 30
0.0
 11
236.73845
 21
184.71588
 31
0.0
  0
LINE
  5
CB
330
1F
100
AcDbEntity
  8
SLD-0
  6
CENTER
 62
   179
100
AcDbLine
 10
142.69849
 20
170.17998
 30
0.0
 11
152.77847
 21
170.17998
 31
0.0
  0
LINE
  5
CC
330
1F
100
AcDbEntity
  8
SLD-0
  6
Continuous
 62
   179
100
AcDbLine
 10
159.73845
 20
158.17998
 30
0.0
 11
152.73846
 21
158.17998
 31
0.0
  0
LINE
  5
CD
330
1F
100
AcDbEntity
  8
SLD-0
  6
Continuous
 62
   179
100
AcDbLine
 10
159.73845
 20
148.17998
 30
0.0
 11
152.73846
 21
148.17998
 31
0.0
  0
LINE
  5
CE
330
1F
100
AcDbEntity
  8
SLD-0
  6
Continuous
 62
   179
100
AcDbLine
 10
159.73845
 20
150.17998
 30
0.0
 11
152.73846
 21
150.17998
 31
0.0
  0
LINE
  5
CF
330
1F
100
AcDbEntity
  8
SLD-0
  6
Continuous
 62
   179
100
AcDbLine
 10
159.73845
 20
156.17998
 30
0.0
 11
152.73846
 21
156.17998
 31
0.0
  0
LINE
  5
D0
330
1F
100
AcDbEntity
  8
SLD-0
  6
Continuous
 62
   179
100
AcDbLine
 10
159.73846
 20
155.56459
 30
0.0
 11
152.73845
 21
150.17997
 31
0.0
  0
LINE
  5
D1
330
1F
100
AcDbEntity
  8
SLD-0
  6
Continuous
 62
   179
100
AcDbLine
 10
152.73843
 20
156.17999
 30
0.0
 11
159.73845
 21
150.79535
 31
0.0
  0
LINE
  5
D2
330
1F
100
AcDbEntity
  8
SLD-0
  6
Continuous
 62
   179
100
AcDbLine
 10
152.73846
 20
190.17998
 30
0.0
 11
152.73846
 21
116.17995
 31
0.0
  0
LINE
  5
D3
330
1F
100
AcDbEntity
  8
SLD-0
  6
Continuous
 62
   179
100
AcDbLine
 10
218.83846
 20
143.67998
 30
0.0
 11
218.68849
 21
143.67998
 31
0.0
  0
LINE
  5
D4
330
1F
100
AcDbEntity
  8
SLD-0
  6
CENTER
 62
   179
100
AcDbLine
 10
147.73846
 20
175.21997
 30
0.0
 11
147.73846
 21
165.13997
 31
0.0
  0
LINE
  5
D5
330
1F
100
AcDbEntity
  8
SLD-0
  6
CENTER
 62
   179
100
AcDbLine
 10
147.73846
 20
131.13998
 30
0.0
 11
147.73846
 21
141.21999
 31
0.0
  0
LINE
  5
D6
330
1F
100
AcDbEntity
  8
SLD-0
  6
CENTER
 62
   179
100
AcDbLine
 10
142.69849
 20
136.17997
 30
0.0
 11
152.77847
 21
136.17997
 31
0.0
  0
LINE
  5
D7
330
1F
100
AcDbEntity
  8
SLD-0
  6
Continuous
 62
   179
100
AcDbLine
 10
180.73845
 20
171.17998
 30
0.0
 11
180.73845
 21
171.57997
 31
0.0
  0
LINE
  5
D8
330
1F
100
AcDbEntity
  8
SLD-0
  6
Continuous
 62
   179
100
AcDbLine
 10
159.73845
 20
126.64406
 30
0.0
 11
236.73845
 21
126.64406
 31
0.0
  0
LINE
  5
D9
330
1F
100
AcDbEntity
  8
SLD-0
  6
Continuous
 62
   179
100
AcDbLine
 10
159.73845
 20
129.64406
 30
0.0
 11
236.73845
 21
129.64406
 31
0.0
  0
LINE
  5
DA
330
1F
100
AcDbEntity
  8
SLD-0
  6
Continuous
 62
   179
100
AcDbLine
 10
159.73845
 20
131.14406
 30
0.0
 11
236.73845
 21
131.14406
 31
0.0
  0
LINE
  5
DB
330
1F
100
AcDbEntity
  8
SLD-0
  6
Continuous
 62
   179
100
AcDbLine
 10
159.73845
 20
128.14406
 30
0.0
 11
236.73845
 21
128.14406
 31
0.0
  0
LINE
  5
DC
330
1F
100
AcDbEntity
  8
SLD-0
  6
Continuous
 62
   179
100
AcDbLine
 10
159.73845
 20
150.22998
 30
0.0
 11
236.73845
 21
150.22998
 31
0.0
  0
LINE
  5
DD
330
1F
100
AcDbEntity
  8
SLD-0
  6
Continuous
 62
   179
100
AcDbLine
 10
159.73845
 20
132.64406
 30
0.0
 11
236.73845
 21
132.64406
 31
0.0
  0
LINE
  5
DE
330
1F
100
AcDbEntity
  8
SLD-0
  6
Continuous
 62
   179
100
AcDbLine
 10
159.73845
 20
145.17998
 30
0.0
 11
236.73845
 21
145.17998
 31
0.0
  0
LINE
  5
DF
330
1F
100
AcDbEntity
  8
SLD-0
  6
Continuous
 62
   179
100
AcDbLine
 10
159.73845
 20
125.14406
 30
0.0
 11
236.73845
 21
125.14406
 31
0.0
  0
LINE
  5
E0
330
1F
100
AcDbEntity
  8
SLD-0
  6
Continuous
 62
   179
100
AcDbLine
 10
159.73845
 20
147.22998
 30
0.0
 11
236.73845
 21
147.22998
 31
0.0
  0
LINE
  5
E1
330
1F
100
AcDbEntity
  8
SLD-0
  6
Continuous
 62
   179
100
AcDbLine
 10
159.73845
 20
123.64406
 30
0.0
 11
236.73845
 21
123.64406
 31
0.0
  0
LINE
  5
E2
330
1F
100
AcDbEntity
  8
SLD-0
  6
Continuous
 62
   179
100
AcDbLine
 10
159.73845
 20
178.21588
 30
0.0
 11
236.73845
 21
178.21588
 31
0.0
  0
LINE
  5
E3
330
1F
100
AcDbEntity
  8
SLD-0
  6
Continuous
 62
   179
100
AcDbLine
 10
159.73845
 20
176.71588
 30
0.0
 11
236.73845
 21
176.71588
 31
0.0
  0
LINE
  5
E4
330
1F
100
AcDbEntity
  8
SLD-0
  6
Continuous
 62
   179
100
AcDbLine
 10
159.73845
 20
175.21588
 30
0.0
 11
236.73845
 21
175.21588
 31
0.0
  0
LINE
  5
E5
330
1F
100
AcDbEntity
  8
SLD-0
  6
Continuous
 62
   179
100
AcDbLine
 10
159.73845
 20
179.71588
 30
0.0
 11
236.73845
 21
179.71588
 31
0.0
  0
LINE
  5
E6
330
1F
100
AcDbEntity
  8
SLD-0
  6
Continuous
 62
   179
100
AcDbLine
 10
159.73845
 20
121.64406
 30
0.0
 11
236.73845
 21
121.64406
 31
0.0
  0
LINE
  5
E7
330
1F
100
AcDbEntity
  8
SLD-0
  6
Continuous
 62
   179
100
AcDbLine
 10
159.73845
 20
134.14406
 30
0.0
 11
236.73845
 21
134.14406
 31
0.0
  0
LINE
  5
E8
330
1F
100
AcDbEntity
  8
SLD-0
  6
Continuous
 62
   179
100
AcDbLine
 10
313.638458
 20
147.22998
 30
0.0
 11
312.449249
 21
147.22998
 31
0.0
  0
LINE
  5
E9
330
1F
100
AcDbEntity
  8
SLD-0
  6
CENTER
 62
   179
100
AcDbLine
 10
310.938446
 20
152.98383
 30
0.0
 11
310.938446
 21
145.12997
 31
0.0
  0
LINE
  5
EA
330
1F
100
AcDbEntity
  8
SLD-0
  6
Continuous
 62
   179
100
AcDbLine
 10
313.938446
 20
155.83267
 30
0.0
 11
313.938446
 21
150.53268
 31
0.0
  0
LINE
  5
EB
330
1F
100
AcDbEntity
  8
SLD-0
  6
Continuous
 62
   179
100
AcDbLine
 10
313.638458
 20
150.2299799823
 30
0.0
 11
312.449249
 21
150.2299799823
 31
0.0
  0
LINE
  5
EC
330
1F
100
AcDbEntity
  8
SLD-0
  6
Continuous
 62
   179
100
AcDbLine
 10
313.938446
 20
160.17998
 30
0.0
 11
313.938446
 21
159.42728
 31
0.0
  0
LINE
  5
ED
330
1F
100
AcDbEntity
  8
SLD-0
  6
Continuous
 62
   179
100
AcDbLine
 10
281.93845
 20
155.83267
 30
0.0
 11
281.93845
 21
150.52728
 31
0.0
  0
LINE
  5
EE
330
1F
100
AcDbEntity
  8
SLD-0
  6
Continuous
 62
   179
100
AcDbLine
 10
281.93845
 20
146.93268
 30
0.0
 11
281.93845
 21
146.17998
 31
0.0
  0
LINE
  5
EF
330
1F
100
AcDbEntity
  8
SLD-0
  6
Continuous
 62
   179
100
AcDbLine
 10
280.43845
 20
145.17998
 30
0.0
 11
280.93845
 21
145.17998
 31
0.0
  0
LINE
  5
F0
330
1F
100
AcDbEntity
  8
SLD-0
  6
Continuous
 62
   179
100
AcDbLine
 10
281.93845
 20
160.17998
 30
0.0
 11
281.93845
 21
159.42728
 31
0.0
  0
LINE
  5
F1
330
1F
100
AcDbEntity
  8
SLD-0
  6
Continuous
 62
   179
100
AcDbLine
 10
315.4384505812
 20
145.1799888029
 30
0.0
 11
314.9384505812
 21
145.1799888029
 31
0.0
  0
LINE
  5
F2
330
1F
100
AcDbEntity
  8
SLD-0
  6
Continuous
 62
   179
100
AcDbLine
 10
282.23843
 20
150.22998
 30
0.0
 11
283.42764
 21
150.22998
 31
0.0
  0
LINE
  5
F3
330
1F
100
AcDbEntity
  8
SLD-0
  6
Continuous
 62
   179
100
AcDbLine
 10
281.93845
 20
155.83267
 30
0.0
 11
281.93845
 21
150.53268
 31
0.0
  0
LINE
  5
F4
330
1F
100
AcDbEntity
  8
SLD-0
  6
CENTER
 62
   179
100
AcDbLine
 10
284.93845
 20
152.98383
 30
0.0
 11
284.93845
 21
145.12997
 31
0.0
  0
LINE
  5
F5
330
1F
100
AcDbEntity
  8
SLD-0
  6
Continuous
 62
   179
100
AcDbLine
 10
282.23843
 20
147.22998
 30
0.0
 11
283.42764
 21
147.22998
 31
0.0
  0
LINE
  5
F6
330
1F
100
AcDbEntity
  8
SLD-0
  6
Continuous
 62
   179
100
AcDbLine
 10
280.43845
 20
161.17998
 30
0.0
 11
280.93845
 21
161.17998
 31
0.0
  0
LINE
  5
F7
330
1F
100
AcDbEntity
  8
SLD-0
  6
Continuous
 62
   179
100
AcDbLine
 10
282.23843
 20
159.12997
 30
0.0
 11
283.42764
 21
159.12997
 31
0.0
  0
LINE
  5
F8
330
1F
100
AcDbEntity
  8
SLD-0
  6
CENTER
 62
   179
100
AcDbLine
 10
284.93845
 20
153.37613
 30
0.0
 11
284.93845
 21
161.22998
 31
0.0
  0
LINE
  5
F9
330
1F
100
AcDbEntity
  8
SLD-0
  6
CENTER
 62
   179
100
AcDbLine
 10
280.43845
 20
157.62997
 30
0.0
 11
288.53845
 21
157.62997
 31
0.0
  0
LINE
  5
FA
330
1F
100
AcDbEntity
  8
SLD-0
  6
Continuous
 62
   179
100
AcDbLine
 10
282.23843
 20
156.12997
 30
0.0
 11
283.42764
 21
156.12997
 31
0.0
  0
LINE
  5
FB
330
1F
100
AcDbEntity
  8
SLD-0
  6
CENTER
 62
   179
100
AcDbLine
 10
280.43845
 20
148.72998
 30
0.0
 11
288.53845
 21
148.72998
 31
0.0
  0
LINE
  5
FC
330
1F
100
AcDbEntity
  8
SLD-0
  6
Continuous
 62
   179
100
AcDbLine
 10
313.938446
 20
155.83267
 30
0.0
 11
313.938446
 21
150.52728
 31
0.0
  0
LINE
  5
FD
330
1F
100
AcDbEntity
  8
SLD-0
  6
Continuous
 62
   179
100
AcDbLine
 10
280.43845
 20
145.17998
 30
0.0
 11
280.43845
 21
134.34406
 31
0.0
  0
LINE
  5
FE
330
1F
100
AcDbEntity
  8
SLD-0
  6
CENTER
 62
   179
100
AcDbLine
 10
307.938446
 20
115.67997
 30
0.0
 11
307.938446
 21
122.67997
 31
0.0
  0
LINE
  5
FF
330
1F
100
AcDbEntity
  8
SLD-0
  6
CENTER
 62
   179
100
AcDbLine
 10
311.438446
 20
187.17998
 30
0.0
 11
304.438446
 21
187.17998
 31
0.0
  0
LINE
  5
100
330
1F
100
AcDbEntity
  8
SLD-0
  6
CENTER
 62
   179
100
AcDbLine
 10
287.93845
 20
190.67998
 30
0.0
 11
287.93845
 21
183.67998
 31
0.0
  0
LINE
  5
101
330
1F
100
AcDbEntity
  8
SLD-0
  6
CENTER
 62
   179
100
AcDbLine
 10
307.938446
 20
190.67998
 30
0.0
 11
307.938446
 21
183.67998
 31
0.0
  0
LINE
  5
102
330
1F
100
AcDbEntity
  8
SLD-0
  6
CENTER
 62
   179
100
AcDbLine
 10
284.43845
 20
187.17998
 30
0.0
 11
291.43845
 21
187.17998
 31
0.0
  0
LINE
  5
103
330
1F
100
AcDbEntity
  8
SLD-0
  6
CENTER
 62
   179
100
AcDbLine
 10
297.93845
 20
165.71997
 30
0.0
 11
297.93845
 21
140.63997
 31
0.0
  0
LINE
  5
104
330
1F
100
AcDbEntity
  8
SLD-0
  6
CENTER
 62
   179
100
AcDbLine
 10
286.39844
 20
126.17995
 30
0.0
 11
309.478424
 21
126.17995
 31
0.0
  0
LINE
  5
105
330
1F
100
AcDbEntity
  8
SLD-0
  6
CENTER
 62
   179
100
AcDbLine
 10
297.93845
 20
114.63996
 30
0.0
 11
297.93845
 21
137.71996
 31
0.0
  0
LINE
  5
106
330
1F
100
AcDbEntity
  8
SLD-0
  6
CENTER
 62
   179
100
AcDbLine
 10
286.39844
 20
180.17998
 30
0.0
 11
309.478424
 21
180.17998
 31
0.0
  0
LINE
  5
107
330
1F
100
AcDbEntity
  8
SLD-0
  6
CENTER
 62
   179
100
AcDbLine
 10
285.39844
 20
153.17998
 30
0.0
 11
310.478424
 21
153.17998
 31
0.0
  0
LINE
  5
108
330
1F
100
AcDbEntity
  8
SLD-0
  6
CENTER
 62
   179
100
AcDbLine
 10
297.93845
 20
191.71997
 30
0.0
 11
297.93845
 21
168.63997
 31
0.0
  0
LINE
  5
109
330
1F
100
AcDbEntity
  8
SLD-0
  6
CENTER
 62
   179
100
AcDbLine
 10
311.438446
 20
119.17997
 30
0.0
 11
304.438446
 21
119.17997
 31
0.0
  0
LINE
  5
10A
330
1F
100
AcDbEntity
  8
SLD-0
  6
Continuous
 62
   179
100
AcDbLine
 10
313.9384505812
 20
146.9326888029
 30
0.0
 11
313.9384505812
 21
146.1799888029
 31
0.0
  0
LINE
  5
10B
330
1F
100
AcDbEntity
  8
SLD-0
  6
Continuous
 62
   179
100
AcDbLine
 10
283.2057725986
 20
114.1799533866
 30
0.0
 11
312.6711225986
 21
114.1799533866
 31
0.0
  0
LINE
  5
10C
330
1F
100
AcDbEntity
  8
SLD-0
  6
Continuous
 62
   179
100
AcDbLine
 10
283.2057738486
 20
192.1799749844
 30
0.0
 11
312.6711308486
 21
192.1799749844
 31
0.0
  0
LINE
  5
10D
330
1F
100
AcDbEntity
  8
SLD-0
  6
Continuous
 62
   179
100
AcDbLine
 10
280.43845
 20
121.64406
 30
0.0
 11
282.23985
 21
114.92113
 31
0.0
  0
LINE
  5
10E
330
1F
100
AcDbEntity
  8
SLD-0
  6
Continuous
 62
   179
100
AcDbLine
 10
315.4384505812
 20
132.4440668029
 30
0.0
 11
315.4384505812
 21
131.3440668029
 31
0.0
  0
LINE
  5
10F
330
1F
100
AcDbEntity
  8
SLD-0
  6
Continuous
 62
   179
100
AcDbLine
 10
314.9384515812
 20
133.9440678029
 30
0.0
 11
314.9384515812
 21
132.8440678029
 31
0.0
  0
LINE
  5
110
330
1F
100
AcDbEntity
  8
SLD-0
  6
Continuous
 62
   179
100
AcDbLine
 10
315.2384520812
 20
129.6440633029
 30
0.0
 11
315.1384540812
 21
129.6440633029
 31
0.0
  0
LINE
  5
111
330
1F
100
AcDbEntity
  8
SLD-0
  6
Continuous
 62
   179
100
AcDbLine
 10
315.2384520812
 20
134.1440703029
 30
0.0
 11
315.1384540812
 21
134.1440703029
 31
0.0
  0
LINE
  5
112
330
1F
100
AcDbEntity
  8
SLD-0
  6
Continuous
 62
   179
100
AcDbLine
 10
315.2384520812
 20
128.1440663029
 30
0.0
 11
315.1384540812
 21
128.1440663029
 31
0.0
  0
LINE
  5
113
330
1F
100
AcDbEntity
  8
SLD-0
  6
Continuous
 62
   179
100
AcDbLine
 10
315.2384520812
 20
123.6440593029
 30
0.0
 11
315.1384540812
 21
123.6440593029
 31
0.0
  0
LINE
  5
114
330
1F
100
AcDbEntity
  8
SLD-0
  6
Continuous
 62
   179
100
AcDbLine
 10
314.9384515812
 20
130.9440658029
 30
0.0
 11
314.9384515812
 21
129.8440658029
 31
0.0
  0
LINE
  5
115
330
1F
100
AcDbEntity
  8
SLD-0
  6
Continuous
 62
   179
100
AcDbLine
 10
314.9384515812
 20
124.9440618029
 30
0.0
 11
314.9384515812
 21
123.8440618029
 31
0.0
  0
LINE
  5
116
330
1F
100
AcDbEntity
  8
SLD-0
  6
Continuous
 62
   179
100
AcDbLine
 10
314.9384515812
 20
127.9440638029
 30
0.0
 11
314.9384515812
 21
126.8440638029
 31
0.0
  0
LINE
  5
117
330
1F
100
AcDbEntity
  8
SLD-0
  6
Continuous
 62
   179
100
AcDbLine
 10
315.438444
 20
184.71589
 30
0.0
 11
313.63705
 21
191.43878
 31
0.0
  0
LINE
  5
118
330
1F
100
AcDbEntity
  8
SLD-0
  6
Continuous
 62
   179
100
AcDbLine
 10
315.438446
 20
161.17998
 30
0.0
 11
315.438446
 21
172.01588
 31
0.0
  0
LINE
  5
119
330
1F
100
AcDbEntity
  8
SLD-0
  6
Continuous
 62
   179
100
AcDbLine
 10
315.2384475
 20
179.7158875
 30
0.0
 11
315.1384495
 21
179.7158875
 31
0.0
  0
LINE
  5
11A
330
1F
100
AcDbEntity
  8
SLD-0
  6
Continuous
 62
   179
100
AcDbLine
 10
315.2384475
 20
173.7158835
 30
0.0
 11
315.1384495
 21
173.7158835
 31
0.0
  0
LINE
  5
11B
330
1F
100
AcDbEntity
  8
SLD-0
  6
Continuous
 62
   179
100
AcDbLine
 10
315.2384475
 20
181.2158845
 30
0.0
 11
315.1384495
 21
181.2158845
 31
0.0
  0
LINE
  5
11C
330
1F
100
AcDbEntity
  8
SLD-0
  6
Continuous
 62
   179
100
AcDbLine
 10
315.2384475
 20
175.2158805
 30
0.0
 11
315.1384495
 21
175.2158805
 31
0.0
  0
LINE
  5
11D
330
1F
100
AcDbEntity
  8
SLD-0
  6
Continuous
 62
   179
100
AcDbLine
 10
314.938447
 20
178.415885
 30
0.0
 11
314.938447
 21
179.515885
 31
0.0
  0
LINE
  5
11E
330
1F
100
AcDbEntity
  8
SLD-0
  6
Continuous
 62
   179
100
AcDbLine
 10
314.938447
 20
181.415887
 30
0.0
 11
314.938447
 21
182.515887
 31
0.0
  0
LINE
  5
11F
330
1F
100
AcDbEntity
  8
SLD-0
  6
Continuous
 62
   179
100
AcDbLine
 10
315.2384520812
 20
131.1440683029
 30
0.0
 11
315.1384540812
 21
131.1440683029
 31
0.0
  0
LINE
  5
120
330
1F
100
AcDbEntity
  8
SLD-0
  6
Continuous
 62
   179
100
AcDbLine
 10
314.938447
 20
175.415883
 30
0.0
 11
314.938447
 21
176.515883
 31
0.0
  0
LINE
  5
121
330
1F
100
AcDbEntity
  8
SLD-0
  6
Continuous
 62
   179
100
AcDbLine
 10
315.2384520812
 20
125.1440643029
 30
0.0
 11
315.1384540812
 21
125.1440643029
 31
0.0
  0
LINE
  5
122
330
1F
100
AcDbEntity
  8
SLD-0
  6
Continuous
 62
   179
100
AcDbLine
 10
315.4384485812
 20
121.6440608029
 30
0.0
 11
313.6370485812
 21
114.9211408029
 31
0.0
  0
LINE
  5
123
330
1F
100
AcDbEntity
  8
SLD-0
  6
Continuous
 62
   179
100
AcDbLine
 10
315.2384475
 20
182.7158895
 30
0.0
 11
315.1384495
 21
182.7158895
 31
0.0
  0
LINE
  5
124
330
1F
100
AcDbEntity
  8
SLD-0
  6
Continuous
 62
   179
100
AcDbLine
 10
315.2384520812
 20
132.6440653029
 30
0.0
 11
315.1384540812
 21
132.6440653029
 31
0.0
  0
LINE
  5
125
330
1F
100
AcDbEntity
  8
SLD-0
  6
Continuous
 62
   179
100
AcDbLine
 10
315.2384475
 20
178.2158825
 30
0.0
 11
315.1384495
 21
178.2158825
 31
0.0
  0
LINE
  5
126
330
1F
100
AcDbEntity
  8
SLD-0
  6
Continuous
 62
   179
100
AcDbLine
 10
315.2384475
 20
172.2158785
 30
0.0
 11
315.1384495
 21
172.2158785
 31
0.0
  0
LINE
  5
127
330
1F
100
AcDbEntity
  8
SLD-0
  6
Continuous
 62
   179
100
AcDbLine
 10
315.2384520812
 20
126.6440613029
 30
0.0
 11
315.1384540812
 21
126.6440613029
 31
0.0
  0
LINE
  5
128
330
1F
100
AcDbEntity
  8
SLD-0
  6
Continuous
 62
   179
100
AcDbLine
 10
315.2384475
 20
176.7158855
 30
0.0
 11
315.1384495
 21
176.7158855
 31
0.0
  0
LINE
  5
129
330
1F
100
AcDbEntity
  8
SLD-0
  6
Continuous
 62
   179
100
AcDbLine
 10
314.938447
 20
172.415881
 30
0.0
 11
314.938447
 21
173.515881
 31
0.0
  0
LINE
  5
12A
330
1F
100
AcDbEntity
  8
SLD-0
  6
Continuous
 62
   179
100
AcDbLine
 10
315.4384505812
 20
145.1799888029
 30
0.0
 11
315.4384505812
 21
134.3440688029
 31
0.0
  0
LINE
  5
12B
330
1F
100
AcDbEntity
  8
SLD-0
  6
CENTER
 62
   179
100
AcDbLine
 10
282.89845
 20
119.17997
 30
0.0
 11
292.97845
 21
119.17997
 31
0.0
  0
LINE
  5
12C
330
1F
100
AcDbEntity
  8
SLD-0
  6
CENTER
 62
   179
100
AcDbLine
 10
287.93845
 20
124.21997
 30
0.0
 11
287.93845
 21
114.13997
 31
0.0
  0
LINE
  5
12D
330
1F
100
AcDbEntity
  8
SLD-0
  6
Continuous
 62
   179
100
AcDbLine
 10
280.63845
 20
182.71588
 30
0.0
 11
280.73845
 21
182.71588
 31
0.0
  0
LINE
  5
12E
330
1F
100
AcDbEntity
  8
SLD-0
  6
Continuous
 62
   179
100
AcDbLine
 10
280.63845
 20
181.21588
 30
0.0
 11
280.73845
 21
181.21588
 31
0.0
  0
LINE
  5
12F
330
1F
100
AcDbEntity
  8
SLD-0
  6
Continuous
 62
   179
100
AcDbLine
 10
280.63845
 20
179.71588
 30
0.0
 11
280.73845
 21
179.71588
 31
0.0
  0
LINE
  5
130
330
1F
100
AcDbEntity
  8
SLD-0
  6
Continuous
 62
   179
100
AcDbLine
 10
280.63845
 20
178.21588
 30
0.0
 11
280.73845
 21
178.21588
 31
0.0
  0
LINE
  5
131
330
1F
100
AcDbEntity
  8
SLD-0
  6
Continuous
 62
   179
100
AcDbLine
 10
280.93845
 20
181.41588
 30
0.0
 11
280.93845
 21
182.51588
 31
0.0
  0
LINE
  5
132
330
1F
100
AcDbEntity
  8
SLD-0
  6
Continuous
 62
   179
100
AcDbLine
 10
280.63845
 20
175.21588
 30
0.0
 11
280.73845
 21
175.21588
 31
0.0
  0
LINE
  5
133
330
1F
100
AcDbEntity
  8
SLD-0
  6
Continuous
 62
   179
100
AcDbLine
 10
280.63845
 20
173.71588
 30
0.0
 11
280.73845
 21
173.71588
 31
0.0
  0
LINE
  5
134
330
1F
100
AcDbEntity
  8
SLD-0
  6
Continuous
 62
   179
100
AcDbLine
 10
280.63845
 20
176.71588
 30
0.0
 11
280.73845
 21
176.71588
 31
0.0
  0
LINE
  5
135
330
1F
100
AcDbEntity
  8
SLD-0
  6
Continuous
 62
   179
100
AcDbLine
 10
280.63845
 20
172.21588
 30
0.0
 11
280.73845
 21
172.21588
 31
0.0
  0
LINE
  5
136
330
1F
100
AcDbEntity
  8
SLD-0
  6
Continuous
 62
   179
100
AcDbLine
 10
280.93845
 20
178.41588
 30
0.0
 11
280.93845
 21
179.51588
 31
0.0
  0
LINE
  5
137
330
1F
100
AcDbEntity
  8
SLD-0
  6
Continuous
 62
   179
100
AcDbLine
 10
280.93845
 20
175.41588
 30
0.0
 11
280.93845
 21
176.51588
 31
0.0
  0
LINE
  5
138
330
1F
100
AcDbEntity
  8
SLD-0
  6
Continuous
 62
   179
100
AcDbLine
 10
280.93845
 20
172.41588
 30
0.0
 11
280.93845
 21
173.51588
 31
0.0
  0
LINE
  5
139
330
1F
100
AcDbEntity
  8
SLD-0
  6
Continuous
 62
   179
100
AcDbLine
 10
280.43845
 20
179.91588
 30
0.0
 11
280.43845
 21
181.01588
 31
0.0
  0
LINE
  5
13A
330
1F
100
AcDbEntity
  8
SLD-0
  6
Continuous
 62
   179
100
AcDbLine
 10
280.43845
 20
176.91588
 30
0.0
 11
280.43845
 21
178.01588
 31
0.0
  0
LINE
  5
13B
330
1F
100
AcDbEntity
  8
SLD-0
  6
Continuous
 62
   179
100
AcDbLine
 10
280.43845
 20
182.91588
 30
0.0
 11
280.43845
 21
184.71588
 31
0.0
  0
LINE
  5
13C
330
1F
100
AcDbEntity
  8
SLD-0
  6
Continuous
 62
   179
100
AcDbLine
 10
280.43845
 20
132.44406
 30
0.0
 11
280.43845
 21
131.34406
 31
0.0
  0
LINE
  5
13D
330
1F
100
AcDbEntity
  8
SLD-0
  6
Continuous
 62
   179
100
AcDbLine
 10
280.43845
 20
173.91588
 30
0.0
 11
280.43845
 21
175.01588
 31
0.0
  0
LINE
  5
13E
330
1F
100
AcDbEntity
  8
SLD-0
  6
Continuous
 62
   179
100
AcDbLine
 10
280.43845
 20
123.44406
 30
0.0
 11
280.43845
 21
121.64406
 31
0.0
  0
LINE
  5
13F
330
1F
100
AcDbEntity
  8
SLD-0
  6
Continuous
 62
   179
100
AcDbLine
 10
280.43845
 20
126.44406
 30
0.0
 11
280.43845
 21
125.34406
 31
0.0
  0
LINE
  5
140
330
1F
100
AcDbEntity
  8
SLD-0
  6
Continuous
 62
   179
100
AcDbLine
 10
280.43845
 20
129.44406
 30
0.0
 11
280.43845
 21
128.34406
 31
0.0
  0
LINE
  5
141
330
1F
100
AcDbEntity
  8
SLD-0
  6
Continuous
 62
   179
100
AcDbLine
 10
280.93845
 20
133.94406
 30
0.0
 11
280.93845
 21
132.84406
 31
0.0
  0
LINE
  5
142
330
1F
100
AcDbEntity
  8
SLD-0
  6
Continuous
 62
   179
100
AcDbLine
 10
280.93845
 20
130.94406
 30
0.0
 11
280.93845
 21
129.84406
 31
0.0
  0
LINE
  5
143
330
1F
100
AcDbEntity
  8
SLD-0
  6
Continuous
 62
   179
100
AcDbLine
 10
280.93845
 20
127.94406
 30
0.0
 11
280.93845
 21
126.84406
 31
0.0
  0
LINE
  5
144
330
1F
100
AcDbEntity
  8
SLD-0
  6
Continuous
 62
   179
100
AcDbLine
 10
280.93845
 20
124.94406
 30
0.0
 11
280.93845
 21
123.84406
 31
0.0
  0
LINE
  5
145
330
1F
100
AcDbEntity
  8
SLD-0
  6
Continuous
 62
   179
100
AcDbLine
 10
280.63845
 20
134.14406
 30
0.0
 11
280.73845
 21
134.14406
 31
0.0
  0
LINE
  5
146
330
1F
100
AcDbEntity
  8
SLD-0
  6
Continuous
 62
   179
100
AcDbLine
 10
280.63845
 20
129.64406
 30
0.0
 11
280.73845
 21
129.64406
 31
0.0
  0
LINE
  5
147
330
1F
100
AcDbEntity
  8
SLD-0
  6
Continuous
 62
   179
100
AcDbLine
 10
280.63845
 20
132.64406
 30
0.0
 11
280.73845
 21
132.64406
 31
0.0
  0
LINE
  5
148
330
1F
100
AcDbEntity
  8
SLD-0
  6
Continuous
 62
   179
100
AcDbLine
 10
280.63845
 20
131.14406
 30
0.0
 11
280.73845
 21
131.14406
 31
0.0
  0
LINE
  5
149
330
1F
100
AcDbEntity
  8
SLD-0
  6
Continuous
 62
   179
100
AcDbLine
 10
280.63845
 20
128.14406
 30
0.0
 11
280.73845
 21
128.14406
 31
0.0
  0
LINE
  5
14A
330
1F
100
AcDbEntity
  8
SLD-0
  6
Continuous
 62
   179
100
AcDbLine
 10
280.63845
 20
123.64406
 30
0.0
 11
280.73845
 21
123.64406
 31
0.0
  0
LINE
  5
14B
330
1F
100
AcDbEntity
  8
SLD-0
  6
Continuous
 62
   179
100
AcDbLine
 10
280.63845
 20
126.64406
 30
0.0
 11
280.73845
 21
126.64406
 31
0.0
  0
LINE
  5
14C
330
1F
100
AcDbEntity
  8
SLD-0
  6
Continuous
 62
   179
100
AcDbLine
 10
280.63845
 20
125.14406
 30
0.0
 11
280.73845
 21
125.14406
 31
0.0
  0
LINE
  5
14D
330
1F
100
AcDbEntity
  8
SLD-0
  6
Continuous
 62
   179
100
AcDbLine
 10
280.43845
 20
161.17998
 30
0.0
 11
280.43845
 21
172.01588
 31
0.0
  0
LINE
  5
14E
330
1F
100
AcDbEntity
  8
SLD-0
  6
Continuous
 62
   179
100
AcDbLine
 10
280.43845
 20
184.71588
 30
0.0
 11
282.23985
 21
191.43879
 31
0.0
  0
LINE
  5
14F
330
1F
100
AcDbEntity
  8
SLD-0
  6
Continuous
 62
   179
100
AcDbLine
 10
315.438446
 20
161.17998
 30
0.0
 11
314.938446
 21
161.17998
 31
0.0
  0
LINE
  5
150
330
1F
100
AcDbEntity
  8
SLD-0
  6
Continuous
 62
   179
100
AcDbLine
 10
313.638458
 20
159.12997
 30
0.0
 11
312.449249
 21
159.12997
 31
0.0
  0
LINE
  5
151
330
1F
100
AcDbEntity
  8
SLD-0
  6
CENTER
 62
   179
100
AcDbLine
 10
310.938446
 20
153.37613
 30
0.0
 11
310.938446
 21
161.22998
 31
0.0
  0
LINE
  5
152
330
1F
100
AcDbEntity
  8
SLD-0
  6
CENTER
 62
   179
100
AcDbLine
 10
315.438446
 20
157.62997
 30
0.0
 11
307.33844
 21
157.62997
 31
0.0
  0
LINE
  5
153
330
1F
100
AcDbEntity
  8
SLD-0
  6
Continuous
 62
   179
100
AcDbLine
 10
313.638458
 20
156.12997
 30
0.0
 11
312.449249
 21
156.12997
 31
0.0
  0
LINE
  5
154
330
1F
100
AcDbEntity
  8
SLD-0
  6
CENTER
 62
   179
100
AcDbLine
 10
315.438446
 20
148.72998
 30
0.0
 11
307.33844
 21
148.72998
 31
0.0
  0
LINE
  5
155
330
1F
100
AcDbEntity
  8
SLD-0
  6
Continuous
 62
   179
100
AcDbLine
 10
315.438446
 20
173.915882
 30
0.0
 11
315.438446
 21
175.015882
 31
0.0
  0
LINE
  5
156
330
1F
100
AcDbEntity
  8
SLD-0
  6
Continuous
 62
   179
100
AcDbLine
 10
315.438446
 20
182.915888
 30
0.0
 11
315.438446
 21
184.715888
 31
0.0
  0
LINE
  5
157
330
1F
100
AcDbEntity
  8
SLD-0
  6
Continuous
 62
   179
100
AcDbLine
 10
315.438446
 20
176.915884
 30
0.0
 11
315.438446
 21
178.015884
 31
0.0
  0
LINE
  5
158
330
1F
100
AcDbEntity
  8
SLD-0
  6
Continuous
 62
   179
100
AcDbLine
 10
315.438446
 20
179.915886
 30
0.0
 11
315.438446
 21
181.015886
 31
0.0
  0
LINE
  5
159
330
1F
100
AcDbEntity
  8
SLD-0
  6
Continuous
 62
   179
100
AcDbLine
 10
315.4384505812
 20
126.4440628029
 30
0.0
 11
315.4384505812
 21
125.3440628029
 31
0.0
  0
LINE
  5
15A
330
1F
100
AcDbEntity
  8
SLD-0
  6
Continuous
 62
   179
100
AcDbLine
 10
315.4384505812
 20
129.4440648029
 30
0.0
 11
315.4384505812
 21
128.3440648029
 31
0.0
  0
LINE
  5
15B
330
1F
100
AcDbEntity
  8
SLD-0
  6
Continuous
 62
   179
100
AcDbLine
 10
315.4384505812
 20
123.4440608029
 30
0.0
 11
315.4384485812
 21
121.6440608029
 31
0.0
  0
LINE
  5
15C
330
1F
100
AcDbEntity
  8
SLD-0
  6
CENTER
 62
   179
100
AcDbLine
 10
310.915924
 20
153.17998
 30
0.0
 11
284.58089
 21
153.17998
 31
0.0
  0
LINE
  5
15D
330
1F
100
AcDbEntity
  8
SLD-0
  6
CENTER
 62
   179
100
AcDbLine
 10
297.93845
 20
141.24673
 30
0.0
 11
297.93845
 21
166.24603
 31
0.0
  0
LINE
  5
15E
330
1F
100
AcDbEntity
  8
SLD-0
  6
Continuous
 62
   179
100
AcDbLine
 10
295.0327
 20
143.61145
 30
0.0
 11
295.53863
 21
145.56607
 31
0.0
  0
LINE
  5
15F
330
1F
100
AcDbEntity
  8
SLD-0
  6
Continuous
 62
   179
100
AcDbLine
 10
300.84421
 20
143.61145
 30
0.0
 11
300.33827
 21
145.56607
 31
0.0
  0
LINE
  5
160
330
1F
100
AcDbEntity
  8
SLD-0
  6
CENTER
 62
   179
100
AcDbLine
 10
87.93845
 20
116.13996
 30
0.0
 11
87.93845
 21
126.21996
 31
0.0
  0
LINE
  5
161
330
1F
100
AcDbEntity
  8
SLD-0
  6
CENTER
 62
   179
100
AcDbLine
 10
71.93845
 20
116.13996
 30
0.0
 11
71.93845
 21
126.21996
 31
0.0
  0
LINE
  5
162
330
1F
100
AcDbEntity
  8
SLD-0
  6
CENTER
 62
   179
100
AcDbLine
 10
71.93845
 20
190.21997
 30
0.0
 11
71.93845
 21
180.13997
 31
0.0
  0
LINE
  5
163
330
1F
100
AcDbEntity
  8
SLD-0
  6
CENTER
 62
   179
100
AcDbLine
 10
87.93845
 20
190.21997
 30
0.0
 11
87.93845
 21
180.13997
 31
0.0
  0
LINE
  5
164
330
1F
100
AcDbEntity
  8
SLD-0
  6
CENTER
 62
   179
100
AcDbLine
 10
82.89847
 20
185.17998
 30
0.0
 11
92.97842
 21
185.17998
 31
0.0
  0
LINE
  5
165
330
1F
100
AcDbEntity
  8
SLD-0
  6
CENTER
 62
   179
100
AcDbLine
 10
76.97842
 20
121.17995
 30
0.0
 11
66.89847
 21
121.17995
 31
0.0
  0
LINE
  5
166
330
1F
100
AcDbEntity
  8
SLD-0
  6
CENTER
 62
   179
100
AcDbLine
 10
82.89847
 20
121.17995
 30
0.0
 11
92.97842
 21
121.17995
 31
0.0
  0
LINE
  5
167
330
1F
100
AcDbEntity
  8
SLD-0
  6
CENTER
 62
   179
100
AcDbLine
 10
76.97842
 20
185.17998
 30
0.0
 11
66.89847
 21
185.17998
 31
0.0
  0
LINE
  5
168
330
1F
100
AcDbEntity
  8
SLD-0
  6
Continuous
 62
   179
100
AcDbLine
 10
97.43845
 20
172.01588
 30
0.0
 11
97.43845
 21
161.17998
 31
0.0
  0
LINE
  5
169
330
1F
100
AcDbEntity
  8
SLD-0
  6
Continuous
 62
   179
100
AcDbLine
 10
95.93845
 20
155.83267
 30
0.0
 11
95.93845
 21
150.52728
 31
0.0
  0
LINE
  5
16A
330
1F
100
AcDbEntity
  8
SLD-0
  6
Continuous
 62
   179
100
AcDbLine
 10
68.93845
 20
190.17998
 30
0.0
 11
90.93845
 21
190.17998
 31
0.0
  0
LINE
  5
16B
330
1F
100
AcDbEntity
  8
SLD-0
  6
Continuous
 62
   179
100
AcDbLine
 10
68.93845
 20
116.17995
 30
0.0
 11
90.93845
 21
116.17995
 31
0.0
  0
LINE
  5
16C
330
1F
100
AcDbEntity
  8
SLD-0
  6
Continuous
 62
   179
100
AcDbLine
 10
66.93845
 20
188.17998
 30
0.0
 11
66.93845
 21
118.17995
 31
0.0
  0
LINE
  5
16D
330
1F
100
AcDbEntity
  8
SLD-0
  6
Continuous
 62
   179
100
AcDbLine
 10
92.93845
 20
188.17998
 30
0.0
 11
92.93845
 21
118.17995
 31
0.0
  0
LINE
  5
16E
330
1F
100
AcDbEntity
  8
SLD-0
  6
CENTER
 62
   179
100
AcDbLine
 10
91.47842
 20
126.17995
 30
0.0
 11
68.39847
 21
126.17995
 31
0.0
  0
LINE
  5
16F
330
1F
100
AcDbEntity
  8
SLD-0
  6
CENTER
 62
   179
100
AcDbLine
 10
91.47842
 20
180.17998
 30
0.0
 11
68.39847
 21
180.17998
 31
0.0
  0
LINE
  5
170
330
1F
100
AcDbEntity
  8
SLD-0
  6
CENTER
 62
   179
100
AcDbLine
 10
92.47842
 20
153.17998
 30
0.0
 11
67.39847
 21
153.17998
 31
0.0
  0
LINE
  5
171
330
1F
100
AcDbEntity
  8
SLD-0
  6
CENTER
 62
   179
100
AcDbLine
 10
79.93845
 20
191.71997
 30
0.0
 11
79.93845
 21
114.63996
 31
0.0
  0
LINE
  5
172
330
1F
100
AcDbEntity
  8
SLD-0
  6
Continuous
 62
   179
100
AcDbLine
 10
64.43845
 20
192.17998
 30
0.0
 11
95.43845
 21
192.17998
 31
0.0
  0
LINE
  5
173
330
1F
100
AcDbEntity
  8
SLD-0
  6
Continuous
 62
   179
100
AcDbLine
 10
64.43845
 20
114.17995
 30
0.0
 11
95.43845
 21
114.17995
 31
0.0
  0
LINE
  5
174
330
1F
100
AcDbEntity
  8
SLD-0
  6
CENTER
 62
   179
100
AcDbLine
 10
79.93845
 20
114.63998
 30
0.0
 11
79.93845
 21
191.71999
 31
0.0
  0
LINE
  5
175
330
1F
100
AcDbEntity
  8
SLD-0
  6
Continuous
 62
   179
100
AcDbLine
 10
90.93845
 20
190.17998
 30
0.0
 11
92.93845
 21
188.17998
 31
0.0
  0
LINE
  5
176
330
1F
100
AcDbEntity
  8
SLD-0
  6
Continuous
 62
   179
100
AcDbLine
 10
66.93845
 20
188.17997
 30
0.0
 11
68.93845
 21
190.17997
 31
0.0
  0
LINE
  5
177
330
1F
100
AcDbEntity
  8
SLD-0
  6
Continuous
 62
   179
100
AcDbLine
 10
66.93845
 20
118.17995
 30
0.0
 11
68.93845
 21
116.17995
 31
0.0
  0
LINE
  5
178
330
1F
100
AcDbEntity
  8
SLD-0
  6
Continuous
 62
   179
100
AcDbLine
 10
90.93846
 20
116.17995
 30
0.0
 11
92.93845
 21
118.17994
 31
0.0
  0
LINE
  5
179
330
1F
100
AcDbEntity
  8
SLD-0
  6
Continuous
 62
   179
100
AcDbLine
 10
62.43846
 20
184.71588
 30
0.0
 11
64.43846
 21
192.17998
 31
0.0
  0
LINE
  5
17A
330
1F
100
AcDbEntity
  8
SLD-0
  6
Continuous
 62
   179
100
AcDbLine
 10
62.43845
 20
173.91588
 30
0.0
 11
62.43845
 21
175.01588
 31
0.0
  0
LINE
  5
17B
330
1F
100
AcDbEntity
  8
SLD-0
  6
Continuous
 62
   179
100
AcDbLine
 10
62.43845
 20
182.91588
 30
0.0
 11
62.43845
 21
184.71588
 31
0.0
  0
LINE
  5
17C
330
1F
100
AcDbEntity
  8
SLD-0
  6
Continuous
 62
   179
100
AcDbLine
 10
62.43845
 20
176.91588
 30
0.0
 11
62.43845
 21
178.01588
 31
0.0
  0
LINE
  5
17D
330
1F
100
AcDbEntity
  8
SLD-0
  6
Continuous
 62
   179
100
AcDbLine
 10
62.93845
 20
172.41588
 30
0.0
 11
62.93845
 21
173.51588
 31
0.0
  0
LINE
  5
17E
330
1F
100
AcDbEntity
  8
SLD-0
  6
Continuous
 62
   179
100
AcDbLine
 10
62.93845
 20
175.41588
 30
0.0
 11
62.93845
 21
176.51588
 31
0.0
  0
LINE
  5
17F
330
1F
100
AcDbEntity
  8
SLD-0
  6
Continuous
 62
   179
100
AcDbLine
 10
62.93845
 20
178.41588
 30
0.0
 11
62.93845
 21
182.51588
 31
0.0
  0
LINE
  5
180
330
1F
100
AcDbEntity
  8
SLD-0
  6
Continuous
 62
   179
100
AcDbLine
 10
62.63846
 20
172.21588
 30
0.0
 11
62.73843
 21
172.21588
 31
0.0
  0
LINE
  5
181
330
1F
100
AcDbEntity
  8
SLD-0
  6
Continuous
 62
   179
100
AcDbLine
 10
62.63846
 20
176.71588
 30
0.0
 11
62.73843
 21
176.71588
 31
0.0
  0
LINE
  5
182
330
1F
100
AcDbEntity
  8
SLD-0
  6
Continuous
 62
   179
100
AcDbLine
 10
62.63846
 20
173.71588
 30
0.0
 11
62.73843
 21
173.71588
 31
0.0
  0
LINE
  5
183
330
1F
100
AcDbEntity
  8
SLD-0
  6
Continuous
 62
   179
100
AcDbLine
 10
62.63846
 20
175.21588
 30
0.0
 11
62.73843
 21
175.21588
 31
0.0
  0
LINE
  5
184
330
1F
100
AcDbEntity
  8
SLD-0
  6
Continuous
 62
   179
100
AcDbLine
 10
62.63846
 20
178.21588
 30
0.0
 11
62.73843
 21
178.21588
 31
0.0
  0
LINE
  5
185
330
1F
100
AcDbEntity
  8
SLD-0
  6
Continuous
 62
   179
100
AcDbLine
 10
62.63846
 20
182.71588
 30
0.0
 11
62.73843
 21
182.71588
 31
0.0
  0
LINE
  5
186
330
1F
100
AcDbEntity
  8
SLD-0
  6
Continuous
 62
   179
100
AcDbLine
 10
97.23843
 20
182.71588
 30
0.0
 11
97.13846
 21
182.71588
 31
0.0
  0
LINE
  5
187
330
1F
100
AcDbEntity
  8
SLD-0
  6
Continuous
 62
   179
100
AcDbLine
 10
97.23843
 20
181.21588
 30
0.0
 11
97.13846
 21
181.21588
 31
0.0
  0
LINE
  5
188
330
1F
100
AcDbEntity
  8
SLD-0
  6
Continuous
 62
   179
100
AcDbLine
 10
97.23843
 20
179.71588
 30
0.0
 11
97.13846
 21
179.71588
 31
0.0
  0
LINE
  5
189
330
1F
100
AcDbEntity
  8
SLD-0
  6
Continuous
 62
   179
100
AcDbLine
 10
97.23843
 20
178.21588
 30
0.0
 11
97.13846
 21
178.21588
 31
0.0
  0
LINE
  5
18A
330
1F
100
AcDbEntity
  8
SLD-0
  6
Continuous
 62
   179
100
AcDbLine
 10
96.93845
 20
181.41588
 30
0.0
 11
96.93845
 21
182.51588
 31
0.0
  0
LINE
  5
18B
330
1F
100
AcDbEntity
  8
SLD-0
  6
Continuous
 62
   179
100
AcDbLine
 10
97.23843
 20
175.21588
 30
0.0
 11
97.13846
 21
175.21588
 31
0.0
  0
LINE
  5
18C
330
1F
100
AcDbEntity
  8
SLD-0
  6
Continuous
 62
   179
100
AcDbLine
 10
97.23843
 20
173.71588
 30
0.0
 11
97.13846
 21
173.71588
 31
0.0
  0
LINE
  5
18D
330
1F
100
AcDbEntity
  8
SLD-0
  6
Continuous
 62
   179
100
AcDbLine
 10
97.23843
 20
176.71588
 30
0.0
 11
97.13846
 21
176.71588
 31
0.0
  0
LINE
  5
18E
330
1F
100
AcDbEntity
  8
SLD-0
  6
Continuous
 62
   179
100
AcDbLine
 10
97.23843
 20
172.21588
 30
0.0
 11
97.13846
 21
172.21588
 31
0.0
  0
LINE
  5
18F
330
1F
100
AcDbEntity
  8
SLD-0
  6
Continuous
 62
   179
100
AcDbLine
 10
96.93845
 20
178.41588
 30
0.0
 11
96.93845
 21
179.51588
 31
0.0
  0
LINE
  5
190
330
1F
100
AcDbEntity
  8
SLD-0
  6
Continuous
 62
   179
100
AcDbLine
 10
96.93845
 20
175.41588
 30
0.0
 11
96.93845
 21
176.51588
 31
0.0
  0
LINE
  5
191
330
1F
100
AcDbEntity
  8
SLD-0
  6
Continuous
 62
   179
100
AcDbLine
 10
96.93845
 20
172.41588
 30
0.0
 11
96.93845
 21
173.51588
 31
0.0
  0
LINE
  5
192
330
1F
100
AcDbEntity
  8
SLD-0
  6
Continuous
 62
   179
100
AcDbLine
 10
97.43845
 20
179.91588
 30
0.0
 11
97.43845
 21
181.01588
 31
0.0
  0
LINE
  5
193
330
1F
100
AcDbEntity
  8
SLD-0
  6
Continuous
 62
   179
100
AcDbLine
 10
97.43845
 20
176.91588
 30
0.0
 11
97.43845
 21
178.01588
 31
0.0
  0
LINE
  5
194
330
1F
100
AcDbEntity
  8
SLD-0
  6
Continuous
 62
   179
100
AcDbLine
 10
97.43845
 20
182.91588
 30
0.0
 11
97.43845
 21
184.71588
 31
0.0
  0
LINE
  5
195
330
1F
100
AcDbEntity
  8
SLD-0
  6
Continuous
 62
   179
100
AcDbLine
 10
97.43845
 20
173.91588
 30
0.0
 11
97.43845
 21
175.01588
 31
0.0
  0
LINE
  5
196
330
1F
100
AcDbEntity
  8
SLD-0
  6
Continuous
 62
   179
100
AcDbLine
 10
97.43845
 20
184.71588
 30
0.0
 11
95.43845
 21
192.17998
 31
0.0
  0
LINE
  5
197
330
1F
100
AcDbEntity
  8
SLD-0
  6
Continuous
 62
   179
100
AcDbLine
 10
62.43844
 20
121.64405
 30
0.0
 11
64.43845
 21
114.17995
 31
0.0
  0
LINE
  5
198
330
1F
100
AcDbEntity
  8
SLD-0
  6
Continuous
 62
   179
100
AcDbLine
 10
62.43845
 20
132.44406
 30
0.0
 11
62.43845
 21
131.34406
 31
0.0
  0
LINE
  5
199
330
1F
100
AcDbEntity
  8
SLD-0
  6
Continuous
 62
   179
100
AcDbLine
 10
62.43845
 20
123.44406
 30
0.0
 11
62.43845
 21
121.64406
 31
0.0
  0
LINE
  5
19A
330
1F
100
AcDbEntity
  8
SLD-0
  6
Continuous
 62
   179
100
AcDbLine
 10
62.43845
 20
129.44406
 30
0.0
 11
62.43845
 21
128.34406
 31
0.0
  0
LINE
  5
19B
330
1F
100
AcDbEntity
  8
SLD-0
  6
Continuous
 62
   179
100
AcDbLine
 10
62.93845
 20
133.94406
 30
0.0
 11
62.93845
 21
132.84406
 31
0.0
  0
LINE
  5
19C
330
1F
100
AcDbEntity
  8
SLD-0
  6
Continuous
 62
   179
100
AcDbLine
 10
62.93845
 20
130.94406
 30
0.0
 11
62.93845
 21
129.84406
 31
0.0
  0
LINE
  5
19D
330
1F
100
AcDbEntity
  8
SLD-0
  6
Continuous
 62
   179
100
AcDbLine
 10
62.93845
 20
127.94406
 30
0.0
 11
62.93845
 21
123.84406
 31
0.0
  0
LINE
  5
19E
330
1F
100
AcDbEntity
  8
SLD-0
  6
Continuous
 62
   179
100
AcDbLine
 10
62.63846
 20
134.14406
 30
0.0
 11
62.73843
 21
134.14406
 31
0.0
  0
LINE
  5
19F
330
1F
100
AcDbEntity
  8
SLD-0
  6
Continuous
 62
   179
100
AcDbLine
 10
62.63846
 20
129.64406
 30
0.0
 11
62.73843
 21
129.64406
 31
0.0
  0
LINE
  5
1A0
330
1F
100
AcDbEntity
  8
SLD-0
  6
Continuous
 62
   179
100
AcDbLine
 10
62.63846
 20
132.64406
 30
0.0
 11
62.73843
 21
132.64406
 31
0.0
  0
LINE
  5
1A1
330
1F
100
AcDbEntity
  8
SLD-0
  6
Continuous
 62
   179
100
AcDbLine
 10
62.63846
 20
131.14406
 30
0.0
 11
62.73843
 21
131.14406
 31
0.0
  0
LINE
  5
1A2
330
1F
100
AcDbEntity
  8
SLD-0
  6
Continuous
 62
   179
100
AcDbLine
 10
62.63846
 20
128.14406
 30
0.0
 11
62.73843
 21
128.14406
 31
0.0
  0
LINE
  5
1A3
330
1F
100
AcDbEntity
  8
SLD-0
  6
Continuous
 62
   179
100
AcDbLine
 10
62.63846
 20
123.64406
 30
0.0
 11
62.73843
 21
123.64406
 31
0.0
  0
LINE
  5
1A4
330
1F
100
AcDbEntity
  8
SLD-0
  6
Continuous
 62
   179
100
AcDbLine
 10
97.23843
 20
123.64406
 30
0.0
 11
97.13846
 21
123.64406
 31
0.0
  0
LINE
  5
1A5
330
1F
100
AcDbEntity
  8
SLD-0
  6
Continuous
 62
   179
100
AcDbLine
 10
97.23843
 20
125.14406
 30
0.0
 11
97.13846
 21
125.14406
 31
0.0
  0
LINE
  5
1A6
330
1F
100
AcDbEntity
  8
SLD-0
  6
Continuous
 62
   179
100
AcDbLine
 10
97.23843
 20
126.64406
 30
0.0
 11
97.13846
 21
126.64406
 31
0.0
  0
LINE
  5
1A7
330
1F
100
AcDbEntity
  8
SLD-0
  6
Continuous
 62
   179
100
AcDbLine
 10
97.23843
 20
128.14406
 30
0.0
 11
97.13846
 21
128.14406
 31
0.0
  0
LINE
  5
1A8
330
1F
100
AcDbEntity
  8
SLD-0
  6
Continuous
 62
   179
100
AcDbLine
 10
96.93845
 20
124.94406
 30
0.0
 11
96.93845
 21
123.84406
 31
0.0
  0
LINE
  5
1A9
330
1F
100
AcDbEntity
  8
SLD-0
  6
Continuous
 62
   179
100
AcDbLine
 10
97.23843
 20
131.14406
 30
0.0
 11
97.13846
 21
131.14406
 31
0.0
  0
LINE
  5
1AA
330
1F
100
AcDbEntity
  8
SLD-0
  6
Continuous
 62
   179
100
AcDbLine
 10
97.23843
 20
132.64406
 30
0.0
 11
97.13846
 21
132.64406
 31
0.0
  0
LINE
  5
1AB
330
1F
100
AcDbEntity
  8
SLD-0
  6
Continuous
 62
   179
100
AcDbLine
 10
97.23843
 20
129.64406
 30
0.0
 11
97.13846
 21
129.64406
 31
0.0
  0
LINE
  5
1AC
330
1F
100
AcDbEntity
  8
SLD-0
  6
Continuous
 62
   179
100
AcDbLine
 10
97.23843
 20
134.14406
 30
0.0
 11
97.13846
 21
134.14406
 31
0.0
  0
LINE
  5
1AD
330
1F
100
AcDbEntity
  8
SLD-0
  6
Continuous
 62
   179
100
AcDbLine
 10
96.93845
 20
127.94406
 30
0.0
 11
96.93845
 21
126.84406
 31
0.0
  0
LINE
  5
1AE
330
1F
100
AcDbEntity
  8
SLD-0
  6
Continuous
 62
   179
100
AcDbLine
 10
96.93845
 20
130.94406
 30
0.0
 11
96.93845
 21
129.84406
 31
0.0
  0
LINE
  5
1AF
330
1F
100
AcDbEntity
  8
SLD-0
  6
Continuous
 62
   179
100
AcDbLine
 10
96.93845
 20
133.94406
 30
0.0
 11
96.93845
 21
132.84406
 31
0.0
  0
LINE
  5
1B0
330
1F
100
AcDbEntity
  8
SLD-0
  6
Continuous
 62
   179
100
AcDbLine
 10
97.43845
 20
126.44406
 30
0.0
 11
97.43845
 21
125.34406
 31
0.0
  0
LINE
  5
1B1
330
1F
100
AcDbEntity
  8
SLD-0
  6
Continuous
 62
   179
100
AcDbLine
 10
97.43845
 20
129.44406
 30
0.0
 11
97.43845
 21
128.34406
 31
0.0
  0
LINE
  5
1B2
330
1F
100
AcDbEntity
  8
SLD-0
  6
Continuous
 62
   179
100
AcDbLine
 10
97.43845
 20
123.44406
 30
0.0
 11
97.43845
 21
121.64406
 31
0.0
  0
LINE
  5
1B3
330
1F
100
AcDbEntity
  8
SLD-0
  6
Continuous
 62
   179
100
AcDbLine
 10
97.43845
 20
132.44406
 30
0.0
 11
97.43845
 21
131.34406
 31
0.0
  0
LINE
  5
1B4
330
1F
100
AcDbEntity
  8
SLD-0
  6
Continuous
 62
   179
100
AcDbLine
 10
97.43846
 20
121.64406
 30
0.0
 11
95.43846
 21
114.17995
 31
0.0
  0
LINE
  5
1B5
330
1F
100
AcDbEntity
  8
SLD-0
  6
Continuous
 62
   179
100
AcDbLine
 10
62.43845
 20
172.01588
 30
0.0
 11
62.43845
 21
161.17998
 31
0.0
  0
LINE
  5
1B6
330
1F
100
AcDbEntity
  8
SLD-0
  6
Continuous
 62
   179
100
AcDbLine
 10
64.23843
 20
147.22998
 30
0.0
 11
65.42764
 21
147.22998
 31
0.0
  0
LINE
  5
1B7
330
1F
100
AcDbEntity
  8
SLD-0
  6
Continuous
 62
   179
100
AcDbLine
 10
63.93845
 20
155.83267
 30
0.0
 11
63.93845
 21
150.53268
 31
0.0
  0
LINE
  5
1B8
330
1F
100
AcDbEntity
  8
SLD-0
  6
Continuous
 62
   179
100
AcDbLine
 10
64.23843
 20
150.22998
 30
0.0
 11
65.42764
 21
150.22998
 31
0.0
  0
LINE
  5
1B9
330
1F
100
AcDbEntity
  8
SLD-0
  6
Continuous
 62
   179
100
AcDbLine
 10
63.93845
 20
160.17998
 30
0.0
 11
63.93845
 21
159.42728
 31
0.0
  0
LINE
  5
1BA
330
1F
100
AcDbEntity
  8
SLD-0
  6
Continuous
 62
   179
100
AcDbLine
 10
95.93845
 20
160.17998
 30
0.0
 11
95.93845
 21
159.42726
 31
0.0
  0
LINE
  5
1BB
330
1F
100
AcDbEntity
  8
SLD-0
  6
Continuous
 62
   179
100
AcDbLine
 10
95.93845
 20
146.93268
 30
0.0
 11
95.93845
 21
146.17998
 31
0.0
  0
LINE
  5
1BC
330
1F
100
AcDbEntity
  8
SLD-0
  6
Continuous
 62
   179
100
AcDbLine
 10
97.43845
 20
145.17998
 30
0.0
 11
96.93845
 21
145.17998
 31
0.0
  0
LINE
  5
1BD
330
1F
100
AcDbEntity
  8
SLD-0
  6
Continuous
 62
   179
100
AcDbLine
 10
62.43845
 20
145.17998
 30
0.0
 11
62.93845
 21
145.17998
 31
0.0
  0
LINE
  5
1BE
330
1F
100
AcDbEntity
  8
SLD-0
  6
Continuous
 62
   179
100
AcDbLine
 10
95.63846
 20
150.229975513
 30
0.0
 11
94.44925
 21
150.229975513
 31
0.0
  0
LINE
  5
1BF
330
1F
100
AcDbEntity
  8
SLD-0
  6
Continuous
 62
   179
100
AcDbLine
 10
95.63846
 20
147.22998
 30
0.0
 11
94.44925
 21
147.22998
 31
0.0
  0
LINE
  5
1C0
330
1F
100
AcDbEntity
  8
SLD-0
  6
Continuous
 62
   179
100
AcDbLine
 10
97.43845
 20
161.17998
 30
0.0
 11
96.93845
 21
161.17998
 31
0.0
  0
LINE
  5
1C1
330
1F
100
AcDbEntity
  8
SLD-0
  6
Continuous
 62
   179
100
AcDbLine
 10
95.63846
 20
159.12997
 30
0.0
 11
94.44925
 21
159.12997
 31
0.0
  0
LINE
  5
1C2
330
1F
100
AcDbEntity
  8
SLD-0
  6
Continuous
 62
   179
100
AcDbLine
 10
95.63846
 20
156.12997
 30
0.0
 11
94.44925
 21
156.12997
 31
0.0
  0
LINE
  5
1C3
330
1F
100
AcDbEntity
  8
SLD-0
  6
Continuous
 62
   179
100
AcDbLine
 10
63.93845
 20
146.93268
 30
0.0
 11
63.93845
 21
146.17998
 31
0.0
  0
LINE
  5
1C4
330
1F
100
AcDbEntity
  8
SLD-0
  6
Continuous
 62
   179
100
AcDbLine
 10
62.43845
 20
161.17998
 30
0.0
 11
62.93845
 21
161.17998
 31
0.0
  0
LINE
  5
1C5
330
1F
100
AcDbEntity
  8
SLD-0
  6
Continuous
 62
   179
100
AcDbLine
 10
64.23843
 20
159.12997
 30
0.0
 11
65.42764
 21
159.12997
 31
0.0
  0
LINE
  5
1C6
330
1F
100
AcDbEntity
  8
SLD-0
  6
Continuous
 62
   179
100
AcDbLine
 10
64.23843
 20
156.12997
 30
0.0
 11
65.42764
 21
156.12997
 31
0.0
  0
LINE
  5
1C7
330
1F
100
AcDbEntity
  8
SLD-0
  6
Continuous
 62
   179
100
AcDbLine
 10
62.43845
 20
145.17998
 30
0.0
 11
62.43845
 21
134.34406
 31
0.0
  0
LINE
  5
1C8
330
1F
100
AcDbEntity
  8
SLD-0
  6
Continuous
 62
   179
100
AcDbLine
 10
97.43845
 20
145.17998
 30
0.0
 11
97.43845
 21
134.34406
 31
0.0
  0
LINE
  5
1C9
330
1F
100
AcDbEntity
  8
SLD-0
  6
Continuous
 62
   179
100
AcDbLine
 10
79.93846
 20
128.48935
 30
0.0
 11
81.93845
 21
127.33466
 31
0.0
  0
LINE
  5
1CA
330
1F
100
AcDbEntity
  8
SLD-0
  6
Continuous
 62
   179
100
AcDbLine
 10
81.93845
 20
127.33466
 30
0.0
 11
81.93845
 21
125.02525
 31
0.0
  0
LINE
  5
1CB
330
1F
100
AcDbEntity
  8
SLD-0
  6
Continuous
 62
   179
100
AcDbLine
 10
81.93845
 20
125.02525
 30
0.0
 11
79.93845
 21
123.87055
 31
0.0
  0
LINE
  5
1CC
330
1F
100
AcDbEntity
  8
SLD-0
  6
Continuous
 62
   179
100
AcDbLine
 10
79.93845
 20
123.87056
 30
0.0
 11
77.93846
 21
125.02525
 31
0.0
  0
LINE
  5
1CD
330
1F
100
AcDbEntity
  8
SLD-0
  6
Continuous
 62
   179
100
AcDbLine
 10
77.93845
 20
127.33466
 30
0.0
 11
77.93845
 21
125.02525
 31
0.0
  0
LINE
  5
1CE
330
1F
100
AcDbEntity
  8
SLD-0
  6
Continuous
 62
   179
100
AcDbLine
 10
79.93845
 20
128.48935
 30
0.0
 11
77.93845
 21
127.33465
 31
0.0
  0
LINE
  5
1CF
330
1F
100
AcDbEntity
  8
SLD-0
  6
Continuous
 62
   179
100
AcDbLine
 10
79.93844
 20
182.48938
 30
0.0
 11
81.93845
 21
181.33467
 31
0.0
  0
LINE
  5
1D0
330
1F
100
AcDbEntity
  8
SLD-0
  6
Continuous
 62
   179
100
AcDbLine
 10
81.93845
 20
181.33467
 30
0.0
 11
81.93845
 21
179.02527
 31
0.0
  0
LINE
  5
1D1
330
1F
100
AcDbEntity
  8
SLD-0
  6
Continuous
 62
   179
100
AcDbLine
 10
81.93845
 20
179.02526
 30
0.0
 11
79.93845
 21
177.87056
 31
0.0
  0
LINE
  5
1D2
330
1F
100
AcDbEntity
  8
SLD-0
  6
Continuous
 62
   179
100
AcDbLine
 10
79.93845
 20
177.87056
 30
0.0
 11
77.93844
 21
179.02528
 31
0.0
  0
LINE
  5
1D3
330
1F
100
AcDbEntity
  8
SLD-0
  6
Continuous
 62
   179
100
AcDbLine
 10
77.93845
 20
181.33467
 30
0.0
 11
77.93845
 21
179.02527
 31
0.0
  0
LINE
  5
1D4
330
1F
100
AcDbEntity
  8
SLD-0
  6
Continuous
 62
   179
100
AcDbLine
 10
79.93845
 20
182.48936
 30
0.0
 11
77.93845
 21
181.33466
 31
0.0
  0
LINE
  5
1D5
330
1F
100
AcDbEntity
  8
SLD-0
  6
Continuous
 62
   179
100
AcDbLine
 10
79.93844
 20
155.48938
 30
0.0
 11
77.93843
 21
154.33468
 31
0.0
  0
LINE
  5
1D6
330
1F
100
AcDbEntity
  8
SLD-0
  6
Continuous
 62
   179
100
AcDbLine
 10
77.93845
 20
154.33467
 30
0.0
 11
77.93845
 21
152.02527
 31
0.0
  0
LINE
  5
1D7
330
1F
100
AcDbEntity
  8
SLD-0
  6
Continuous
 62
   179
100
AcDbLine
 10
79.93845
 20
150.87057
 30
0.0
 11
77.93845
 21
152.02527
 31
0.0
  0
LINE
  5
1D8
330
1F
100
AcDbEntity
  8
SLD-0
  6
Continuous
 62
   179
100
AcDbLine
 10
81.93844
 20
152.02528
 30
0.0
 11
79.93843
 21
150.87058
 31
0.0
  0
LINE
  5
1D9
330
1F
100
AcDbEntity
  8
SLD-0
  6
Continuous
 62
   179
100
AcDbLine
 10
81.93845
 20
154.33467
 30
0.0
 11
81.93845
 21
152.02527
 31
0.0
  0
LINE
  5
1DA
330
1F
100
AcDbEntity
  8
SLD-0
  6
Continuous
 62
   179
100
AcDbLine
 10
79.93844
 20
155.48938
 30
0.0
 11
81.93845
 21
154.33467
 31
0.0
  0
LINE
  5
1DB
330
1F
100
AcDbEntity
  8
SLD-0
  6
CENTER
 62
   179
100
AcDbLine
 10
231.84544
 20
139.17995
 30
0.0
 11
222.63145
 21
139.17995
 31
0.0
  0
LINE
  5
1DC
330
1F
100
AcDbEntity
  8
SLD-0
  6
CENTER
 62
   179
100
AcDbLine
 10
227.23845
 20
143.78696
 30
0.0
 11
227.23845
 21
134.57296
 31
0.0
  0
LINE
  5
1DD
330
1F
100
AcDbEntity
  8
SLD-0
  6
CENTER
 62
   179
100
AcDbLine
 10
177.34544
 20
139.17995
 30
0.0
 11
168.13145
 21
139.17995
 31
0.0
  0
LINE
  5
1DE
330
1F
100
AcDbEntity
  8
SLD-0
  6
CENTER
 62
   179
100
AcDbLine
 10
172.73845
 20
143.78696
 30
0.0
 11
172.73845
 21
134.57296
 31
0.0
  0
LINE
  5
1DF
330
1F
100
AcDbEntity
  8
SLD-0
  6
PHANTOM
 62
   179
100
AcDbLine
 10
112.73846
 20
56.179955
 30
0.0
 11
139.73843
 21
56.179955
 31
0.0
  0
LINE
  5
1E0
330
1F
100
AcDbEntity
  8
SLD-0
  6
PHANTOM
 62
   179
100
AcDbLine
 10
102.73846
 20
49.179955
 30
0.0
 11
112.73846
 21
49.179955
 31
0.0
  0
LINE
  5
1E1
330
1F
100
AcDbEntity
  8
SLD-0
  6
PHANTOM
 62
   179
100
AcDbLine
 10
102.73846
 20
75.179947
 30
0.0
 11
102.73846
 21
49.179955
 31
0.0
  0
LINE
  5
1E2
330
1F
100
AcDbEntity
  8
SLD-0
  6
PHANTOM
 62
   179
100
AcDbLine
 10
112.73846
 20
75.179947
 30
0.0
 11
112.73846
 21
49.179955
 31
0.0
  0
LINE
  5
1E3
330
1F
100
AcDbEntity
  8
SLD-0
  6
PHANTOM
 62
   179
100
AcDbLine
 10
102.73846
 20
73.179947
 30
0.0
 11
112.73846
 21
73.179947
 31
0.0
  0
LINE
  5
1E4
330
1F
100
AcDbEntity
  8
SLD-0
  6
PHANTOM
 62
   179
100
AcDbLine
 10
102.73846
 20
51.179955
 30
0.0
 11
112.73846
 21
51.179955
 31
0.0
  0
LINE
  5
1E5
330
1F
100
AcDbEntity
  8
SLD-0
  6
PHANTOM
 62
   179
100
AcDbLine
 10
102.73846
 20
75.179947
 30
0.0
 11
112.73846
 21
75.179947
 31
0.0
  0
LINE
  5
1E6
330
1F
100
AcDbEntity
  8
SLD-0
  6
PHANTOM
 62
   179
100
AcDbLine
 10
112.73846
 20
68.179947
 30
0.0
 11
139.73843
 21
68.179947
 31
0.0
  0
LINE
  5
1E7
330
1F
100
AcDbEntity
  8
SLD-0
  6
Continuous
 62
   179
100
AcDbLine
 10
152.73846
 20
250.67998
 30
0.0
 11
159.43845
 21
250.67998
 31
0.0
  0
LINE
  5
1E8
330
1F
100
AcDbEntity
  8
SLD-0
  6
Continuous
 62
   179
100
AcDbLine
 10
152.73846
 20
238.67998
 30
0.0
 11
159.43845
 21
238.67998
 31
0.0
  0
LINE
  5
1E9
330
1F
100
AcDbEntity
  8
SLD-0
  6
CENTER
 62
   179
100
AcDbLine
 10
143.03845
 20
244.67998
 30
0.0
 11
236.73845
 21
244.67998
 31
0.0
  0
LINE
  5
1EA
330
1F
100
AcDbEntity
  8
SLD-0
  6
Continuous
 62
   179
100
AcDbLine
 10
142.73846
 20
257.67998
 30
0.0
 11
152.73846
 21
257.67998
 31
0.0
  0
LINE
  5
1EB
330
1F
100
AcDbEntity
  8
SLD-0
  6
Continuous
 62
   179
100
AcDbLine
 10
142.73846
 20
231.67998
 30
0.0
 11
152.73846
 21
231.67998
 31
0.0
  0
LINE
  5
1EC
330
1F
100
AcDbEntity
  8
SLD-0
  6
Continuous
 62
   179
100
AcDbLine
 10
142.73846
 20
231.67998
 30
0.0
 11
142.73846
 21
257.67998
 31
0.0
  0
LINE
  5
1ED
330
1F
100
AcDbEntity
  8
SLD-0
  6
Continuous
 62
   179
100
AcDbLine
 10
152.73846
 20
231.67998
 30
0.0
 11
152.73846
 21
257.67998
 31
0.0
  0
LINE
  5
1EE
330
1F
100
AcDbEntity
  8
SLD-0
  6
CENTER
 62
   179
100
AcDbLine
 10
214.73845
 20
227.14
 30
0.0
 11
214.73845
 21
237.71999
 31
0.0
  0
LINE
  5
1EF
330
1F
100
AcDbEntity
  8
SLD-0
  6
CENTER
 62
   179
100
AcDbLine
 10
164.73845
 20
227.14
 30
0.0
 11
164.73845
 21
237.71999
 31
0.0
  0
LINE
  5
1F0
330
1F
100
AcDbEntity
  8
SLD-0
  6
CENTER
 62
   179
100
AcDbLine
 10
209.69847
 20
232.67998
 30
0.0
 11
219.77846
 21
232.67998
 31
0.0
  0
LINE
  5
1F1
330
1F
100
AcDbEntity
  8
SLD-0
  6
CENTER
 62
   179
100
AcDbLine
 10
159.69847
 20
232.67998
 30
0.0
 11
169.77846
 21
232.67998
 31
0.0
  0
LINE
  5
1F2
330
1F
100
AcDbEntity
  8
SLD-0
  6
CENTER
 62
   179
100
AcDbLine
 10
214.73845
 20
251.64
 30
0.0
 11
214.73845
 21
262.21999
 31
0.0
  0
LINE
  5
1F3
330
1F
100
AcDbEntity
  8
SLD-0
  6
CENTER
 62
   179
100
AcDbLine
 10
164.73845
 20
251.64
 30
0.0
 11
164.73845
 21
262.21999
 31
0.0
  0
LINE
  5
1F4
330
1F
100
AcDbEntity
  8
SLD-0
  6
CENTER
 62
   179
100
AcDbLine
 10
159.69847
 20
256.67998
 30
0.0
 11
169.77846
 21
256.67998
 31
0.0
  0
LINE
  5
1F5
330
1F
100
AcDbEntity
  8
SLD-0
  6
CENTER
 62
   179
100
AcDbLine
 10
209.69847
 20
256.67998
 30
0.0
 11
219.77846
 21
256.67998
 31
0.0
  0
LINE
  5
1F6
330
1F
100
AcDbEntity
  8
SLD-0
  6
HIDDEN
 62
   179
100
AcDbLine
 10
236.73845
 20
256.67998
 30
0.0
 11
223.53847
 21
256.67998
 31
0.0
  0
LINE
  5
1F7
330
1F
100
AcDbEntity
  8
SLD-0
  6
Continuous
 62
   179
100
AcDbLine
 10
236.73845
 20
227.17998
 30
0.0
 11
236.73845
 21
262.18001
 31
0.0
  0
LINE
  5
1F8
330
1F
100
AcDbEntity
  8
SLD-0
  6
Continuous
 62
   179
100
AcDbLine
 10
159.73845
 20
227.17998
 30
0.0
 11
159.73845
 21
262.18001
 31
0.0
  0
LINE
  5
1F9
330
1F
100
AcDbEntity
  8
SLD-0
  6
Continuous
 62
   179
100
AcDbLine
 10
159.73845
 20
262.18001
 30
0.0
 11
236.73845
 21
262.18001
 31
0.0
  0
LINE
  5
1FA
330
1F
100
AcDbEntity
  8
SLD-0
  6
Continuous
 62
   179
100
AcDbLine
 10
159.73845
 20
227.17998
 30
0.0
 11
236.73845
 21
227.17998
 31
0.0
  0
LINE
  5
1FB
330
1F
100
AcDbEntity
  8
SLD-0
  6
HIDDEN
 62
   179
100
AcDbLine
 10
236.73845
 20
232.17998
 30
0.0
 11
236.73845
 21
237.17998
 31
0.0
  0
LINE
  5
1FC
330
1F
100
AcDbEntity
  8
SLD-0
  6
Continuous
 62
   179
100
AcDbLine
 10
159.73845
 20
260.18001
 30
0.0
 11
236.73845
 21
260.18001
 31
0.0
  0
LINE
  5
1FD
330
1F
100
AcDbEntity
  8
SLD-0
  6
Continuous
 62
   179
100
AcDbLine
 10
159.73845
 20
229.17998
 30
0.0
 11
236.73845
 21
229.17998
 31
0.0
  0
LINE
  5
1FE
330
1F
100
AcDbEntity
  8
SLD-0
  6
Continuous
 62
   179
100
AcDbLine
 10
142.73846
 20
255.67998
 30
0.0
 11
152.73846
 21
255.67998
 31
0.0
  0
LINE
  5
1FF
330
1F
100
AcDbEntity
  8
SLD-0
  6
Continuous
 62
   179
100
AcDbLine
 10
142.73846
 20
233.67998
 30
0.0
 11
152.73846
 21
233.67998
 31
0.0
  0
LINE
  5
200
330
1F
100
AcDbEntity
  8
SLD-0
  6
Continuous
 62
   179
100
AcDbLine
 10
402.875
 20
285.0
 30
0.0
 11
402.875
 21
12.0
 31
0.0
  0
LINE
  5
201
330
1F
100
AcDbEntity
  8
SLD-0
  6
Continuous
 62
   179
100
AcDbLine
 10
17.07501
 20
12.0
 30
0.0
 11
402.875
 21
12.0
 31
0.0
  0
LINE
  5
202
330
1F
100
AcDbEntity
  8
SLD-0
  6
Continuous
 62
   179
100
AcDbLine
 10
17.07501
 20
285.0
 30
0.0
 11
402.875
 21
285.0
 31
0.0
  0
LINE
  5
203
330
1F
100
AcDbEntity
  8
SLD-0
  6
Continuous
 62
   179
100
AcDbLine
 10
17.07501
 20
285.0
 30
0.0
 11
17.07501
 21
12.0
 31
0.0
  0
LINE
  5
204
330
1F
100
AcDbEntity
  8
SLD-0
  6
Continuous
 62
   179
100
AcDbLine
 10
334.375
 20
50.700001
 30
0.0
 11
334.375
 21
12.0
 31
0.0
  0
LINE
  5
205
330
1F
100
AcDbEntity
  8
SLD-0
  6
Continuous
 62
   179
100
AcDbLine
 10
334.375
 20
24.7
 30
0.0
 11
402.875
 21
24.7
 31
0.0
  0
LINE
  5
206
330
1F
100
AcDbEntity
  8
SLD-0
  6
Continuous
 62
   179
100
AcDbLine
 10
334.375
 20
37.200001
 30
0.0
 11
402.875
 21
37.200001
 31
0.0
  0
LINE
  5
207
330
1F
100
AcDbEntity
  8
SLD-0
  6
Continuous
 62
   179
100
AcDbLine
 10
334.375
 20
50.700001
 30
0.0
 11
402.875
 21
50.700001
 31
0.0
  0
LINE
  5
208
330
1F
100
AcDbEntity
  8
SLD-0
  6
Continuous
 62
   179
100
AcDbLine
 10
17.07501
 20
12.0
 30
0.0
 11
402.875
 21
12.0
 31
0.0
  0
LINE
  5
209
330
1F
100
AcDbEntity
  8
SLD-0
  6
Continuous
 62
   179
100
AcDbLine
 10
17.07501
 20
285.0
 30
0.0
 11
17.07501
 21
12.0
 31
0.0
  0
LINE
  5
20A
330
1F
100
AcDbEntity
  8
SLD-0
  6
Continuous
 62
   179
100
AcDbLine
 10
17.07501
 20
285.0
 30
0.0
 11
402.875
 21
285.0
 31
0.0
  0
LINE
  5
20B
330
1F
100
AcDbEntity
  8
SLD-0
  6
Continuous
 62
   179
100
AcDbLine
 10
402.875
 20
285.0
 30
0.0
 11
402.875
 21
12.0
 31
0.0
  0
CIRCLE
  5
20C
330
1F
100
AcDbEntity
  8
SLD-0
  6
Continuous
 62
   179
100
AcDbCircle
 10
214.73845
 20
50.179955
 30
0.0
 40
2.5
  0
CIRCLE
  5
20D
330
1F
100
AcDbEntity
  8
SLD-0
  6
Continuous
 62
   179
100
AcDbCircle
 10
214.73845
 20
50.179955
 30
0.0
 40
2.0
  0
CIRCLE
  5
20E
330
1F
100
AcDbEntity
  8
SLD-0
  6
Continuous
 62
   179
100
AcDbCircle
 10
164.73845
 20
50.179955
 30
0.0
 40
2.5
  0
CIRCLE
  5
20F
330
1F
100
AcDbEntity
  8
SLD-0
  6
Continuous
 62
   179
100
AcDbCircle
 10
164.73845
 20
50.179955
 30
0.0
 40
2.0
  0
CIRCLE
  5
210
330
1F
100
AcDbEntity
  8
SLD-0
  6
Continuous
 62
   179
100
AcDbCircle
 10
218.23845
 20
74.179955
 30
0.0
 40
3.9000001
  0
CIRCLE
  5
211
330
1F
100
AcDbEntity
  8
SLD-0
  6
Continuous
 62
   179
100
AcDbCircle
 10
172.73845
 20
74.179955
 30
0.0
 40
3.900000099999971
  0
CIRCLE
  5
212
330
1F
100
AcDbEntity
  8
SLD-0
  6
Continuous
 62
   179
100
AcDbCircle
 10
218.73845
 20
167.17999
 30
0.0
 40
2.550000000000011
  0
CIRCLE
  5
213
330
1F
100
AcDbEntity
  8
SLD-0
  6
Continuous
 62
   179
100
AcDbCircle
 10
218.73845
 20
139.17995
 30
0.0
 40
2.550000000000011
  0
CIRCLE
  5
214
330
1F
100
AcDbEntity
  8
SLD-0
  6
Continuous
 62
   179
100
AcDbCircle
 10
172.73845
 20
139.17995
 30
0.0
 40
2.5
  0
CIRCLE
  5
215
330
1F
100
AcDbEntity
  8
SLD-0
  6
Continuous
 62
   179
100
AcDbCircle
 10
172.73845
 20
139.17995
 30
0.0
 40
2.066999899999985
  0
CIRCLE
  5
216
330
1F
100
AcDbEntity
  8
SLD-0
  6
Continuous
 62
   179
100
AcDbCircle
 10
227.23845
 20
139.17995
 30
0.0
 40
2.5
  0
CIRCLE
  5
217
330
1F
100
AcDbEntity
  8
SLD-0
  6
Continuous
 62
   179
100
AcDbCircle
 10
218.73845
 20
139.17995
 30
0.0
 40
4.5
  0
CIRCLE
  5
218
330
1F
100
AcDbEntity
  8
SLD-0
  6
Continuous
 62
   179
100
AcDbCircle
 10
181.73845
 20
139.17995
 30
0.0
 40
2.549999999999983
  0
CIRCLE
  5
219
330
1F
100
AcDbEntity
  8
SLD-0
  6
Continuous
 62
   179
100
AcDbCircle
 10
181.73845
 20
139.17995
 30
0.0
 40
4.5
  0
CIRCLE
  5
21A
330
1F
100
AcDbEntity
  8
SLD-0
  6
Continuous
 62
   179
100
AcDbCircle
 10
147.73846
 20
170.17998
 30
0.0
 40
2.500000000000028
  0
CIRCLE
  5
21B
330
1F
100
AcDbEntity
  8
SLD-0
  6
Continuous
 62
   179
100
AcDbCircle
 10
147.73846
 20
170.17998
 30
0.0
 40
2.000000000000028
  0
CIRCLE
  5
21C
330
1F
100
AcDbEntity
  8
SLD-0
  6
Continuous
 62
   179
100
AcDbCircle
 10
147.73846
 20
136.17997
 30
0.0
 40
2.000000000000028
  0
CIRCLE
  5
21D
330
1F
100
AcDbEntity
  8
SLD-0
  6
Continuous
 62
   179
100
AcDbCircle
 10
147.73846
 20
136.17997
 30
0.0
 40
2.500000000000028
  0
CIRCLE
  5
21E
330
1F
100
AcDbEntity
  8
SLD-0
  6
Continuous
 62
   179
100
AcDbCircle
 10
227.23845
 20
139.17995
 30
0.0
 40
2.066999900000013
  0
CIRCLE
  5
21F
330
1F
100
AcDbEntity
  8
SLD-0
  6
Continuous
 62
   179
100
AcDbCircle
 10
218.73845
 20
167.17999
 30
0.0
 40
4.5
  0
CIRCLE
  5
220
330
1F
100
AcDbEntity
  8
SLD-0
  6
Continuous
 62
   179
100
AcDbCircle
 10
181.73845
 20
167.17999
 30
0.0
 40
4.5
  0
CIRCLE
  5
221
330
1F
100
AcDbEntity
  8
SLD-0
  6
Continuous
 62
   179
100
AcDbCircle
 10
181.73845
 20
167.17999
 30
0.0
 40
2.549999999999983
  0
ARC
  5
222
330
1F
100
AcDbEntity
  8
SLD-0
  6
Continuous
 62
   179
100
AcDbCircle
 10
313.638458
 20
155.829969995
 30
0.0
 40
0.3000000049999869
100
AcDbArc
 50
0.0
 51
90.0
  0
ARC
  5
223
330
1F
100
AcDbEntity
  8
SLD-0
  6
Continuous
 62
   179
100
AcDbCircle
 10
313.638458
 20
146.929979995
 30
0.0
 40
0.3000000049999869
100
AcDbArc
 50
0.0
 51
90.0
  0
ARC
  5
224
330
1F
100
AcDbEntity
  8
SLD-0
  6
Continuous
 62
   179
100
AcDbCircle
 10
314.938446
 20
160.17998
 30
0.0
 40
1.0
100
AcDbArc
 50
90.0
 51
180.0
  0
ARC
  5
225
330
1F
100
AcDbEntity
  8
SLD-0
  6
Continuous
 62
   179
100
AcDbCircle
 10
280.93845
 20
146.17998
 30
0.0
 40
1.000000000000028
100
AcDbArc
 50
270.0
 51
0.0
  0
ARC
  5
226
330
1F
100
AcDbEntity
  8
SLD-0
  6
Continuous
 62
   179
100
AcDbCircle
 10
280.93845
 20
160.17998
 30
0.0
 40
1.0
100
AcDbArc
 50
0.0
 51
90.0
  0
ARC
  5
227
330
1F
100
AcDbEntity
  8
SLD-0
  6
Continuous
 62
   179
100
AcDbCircle
 10
314.9384505812
 20
146.1799888029
 30
0.0
 40
1.0
100
AcDbArc
 50
180.0
 51
270.0
  0
ARC
  5
228
330
1F
100
AcDbEntity
  8
SLD-0
  6
Continuous
 62
   179
100
AcDbCircle
 10
282.23843
 20
146.929979995
 30
0.0
 40
0.3000000049999869
100
AcDbArc
 50
90.0
 51
180.0
  0
ARC
  5
229
330
1F
100
AcDbEntity
  8
SLD-0
  6
Continuous
 62
   179
100
AcDbCircle
 10
282.23843
 20
155.829969995
 30
0.0
 40
0.3000000049999869
100
AcDbArc
 50
90.0
 51
180.0
  0
ARC
  5
22A
330
1F
100
AcDbEntity
  8
SLD-0
  6
Continuous
 62
   179
100
AcDbCircle
 10
283.42764
 20
146.929979995
 30
0.0
 40
0.3000000049999869
100
AcDbArc
 50
49.992241
 51
90.0
  0
ARC
  5
22B
330
1F
100
AcDbEntity
  8
SLD-0
  6
Continuous
 62
   179
100
AcDbCircle
 10
283.42764
 20
150.529980005
 30
0.0
 40
0.3000000050000153
100
AcDbArc
 50
270.0
 51
310.00776
  0
ARC
  5
22C
330
1F
100
AcDbEntity
  8
SLD-0
  6
Continuous
 62
   179
100
AcDbCircle
 10
284.93845
 20
148.72998
 30
0.0
 40
2.049999999999983
100
AcDbArc
 50
229.99224
 51
130.00776
  0
ARC
  5
22D
330
1F
100
AcDbEntity
  8
SLD-0
  6
Continuous
 62
   179
100
AcDbCircle
 10
282.23843
 20
150.529980005
 30
0.0
 40
0.3000000049999869
100
AcDbArc
 50
180.0
 51
270.0
  0
ARC
  5
22E
330
1F
100
AcDbEntity
  8
SLD-0
  6
Continuous
 62
   179
100
AcDbCircle
 10
284.93845
 20
157.62997
 30
0.0
 40
2.049999999999983
100
AcDbArc
 50
229.99224
 51
130.00776
  0
ARC
  5
22F
330
1F
100
AcDbEntity
  8
SLD-0
  6
Continuous
 62
   179
100
AcDbCircle
 10
283.42764
 20
155.829969995
 30
0.0
 40
0.3000000050000153
100
AcDbArc
 50
49.992245
 51
90.0
  0
ARC
  5
230
330
1F
100
AcDbEntity
  8
SLD-0
  6
Continuous
 62
   179
100
AcDbCircle
 10
283.42764
 20
159.429975005
 30
0.0
 40
0.300005005000005
100
AcDbArc
 50
270.0
 51
310.00776
  0
ARC
  5
231
330
1F
100
AcDbEntity
  8
SLD-0
  6
Continuous
 62
   179
100
AcDbCircle
 10
312.449249
 20
150.5299799873
 30
0.0
 40
0.3000000050000438
100
AcDbArc
 50
229.99224
 51
270.0
  0
CIRCLE
  5
232
330
1F
100
AcDbEntity
  8
SLD-0
  6
Continuous
 62
   179
100
AcDbCircle
 10
307.938446
 20
187.17998
 30
0.0
 40
2.066999899999928
  0
CIRCLE
  5
233
330
1F
100
AcDbEntity
  8
SLD-0
  6
Continuous
 62
   179
100
AcDbCircle
 10
307.938446
 20
187.17998
 30
0.0
 40
2.5
  0
CIRCLE
  5
234
330
1F
100
AcDbEntity
  8
SLD-0
  6
Continuous
 62
   179
100
AcDbCircle
 10
287.93845
 20
119.17997
 30
0.0
 40
2.066999899999985
  0
CIRCLE
  5
235
330
1F
100
AcDbEntity
  8
SLD-0
  6
Continuous
 62
   179
100
AcDbCircle
 10
287.93845
 20
187.17998
 30
0.0
 40
2.5
  0
CIRCLE
  5
236
330
1F
100
AcDbEntity
  8
SLD-0
  6
Continuous
 62
   179
100
AcDbCircle
 10
297.93845
 20
153.17998
 30
0.0
 40
10.0
  0
CIRCLE
  5
237
330
1F
100
AcDbEntity
  8
SLD-0
  6
Continuous
 62
   179
100
AcDbCircle
 10
307.938446
 20
119.17997
 30
0.0
 40
2.5
  0
CIRCLE
  5
238
330
1F
100
AcDbEntity
  8
SLD-0
  6
Continuous
 62
   179
100
AcDbCircle
 10
297.93845
 20
126.17995
 30
0.0
 40
7.0
  0
CIRCLE
  5
239
330
1F
100
AcDbEntity
  8
SLD-0
  6
Continuous
 62
   179
100
AcDbCircle
 10
307.938446
 20
119.17997
 30
0.0
 40
2.066999899999928
  0
CIRCLE
  5
23A
330
1F
100
AcDbEntity
  8
SLD-0
  6
Continuous
 62
   179
100
AcDbCircle
 10
297.93845
 20
180.17998
 30
0.0
 40
7.0
  0
CIRCLE
  5
23B
330
1F
100
AcDbEntity
  8
SLD-0
  6
Continuous
 62
   179
100
AcDbCircle
 10
287.93845
 20
119.17997
 30
0.0
 40
2.5
  0
CIRCLE
  5
23C
330
1F
100
AcDbEntity
  8
SLD-0
  6
Continuous
 62
   179
100
AcDbCircle
 10
287.93845
 20
187.17998
 30
0.0
 40
2.066999899999985
  0
ARC
  5
23D
330
1F
100
AcDbEntity
  8
SLD-0
  6
Continuous
 62
   179
100
AcDbCircle
 10
315.1384540812
 20
133.9440678029
 30
0.0
 40
0.200002500000096
100
AcDbArc
 50
90.0
 51
180.0
  0
ARC
  5
23E
330
1F
100
AcDbEntity
  8
SLD-0
  6
Continuous
 62
   179
100
AcDbCircle
 10
315.2384520812
 20
125.3440628029
 30
0.0
 40
0.1999984999999924
100
AcDbArc
 50
270.0
 51
0.0
  0
ARC
  5
23F
330
1F
100
AcDbEntity
  8
SLD-0
  6
Continuous
 62
   179
100
AcDbCircle
 10
315.1384540812
 20
130.9440658029
 30
0.0
 40
0.200002500000096
100
AcDbArc
 50
90.0
 51
180.0
  0
ARC
  5
240
330
1F
100
AcDbEntity
  8
SLD-0
  6
Continuous
 62
   179
100
AcDbCircle
 10
315.1384540812
 20
129.8440658029
 30
0.0
 40
0.200002500000096
100
AcDbArc
 50
180.0
 51
270.0
  0
ARC
  5
241
330
1F
100
AcDbEntity
  8
SLD-0
  6
Continuous
 62
   179
100
AcDbCircle
 10
315.2384520812
 20
126.4440628029
 30
0.0
 40
0.1999984999999924
100
AcDbArc
 50
0.0
 51
90.0
  0
ARC
  5
242
330
1F
100
AcDbEntity
  8
SLD-0
  6
Continuous
 62
   179
100
AcDbCircle
 10
315.1384540812
 20
124.9440618029
 30
0.0
 40
0.2000025000000534
100
AcDbArc
 50
90.0
 51
180.0
  0
ARC
  5
243
330
1F
100
AcDbEntity
  8
SLD-0
  6
Continuous
 62
   179
100
AcDbCircle
 10
315.1384540812
 20
126.8440638029
 30
0.0
 40
0.2000025000000392
100
AcDbArc
 50
180.0
 51
270.0
  0
ARC
  5
244
330
1F
100
AcDbEntity
  8
SLD-0
  6
Continuous
 62
   179
100
AcDbCircle
 10
315.2384520812
 20
131.3440668029
 30
0.0
 40
0.1999984999999924
100
AcDbArc
 50
270.0
 51
0.0
  0
ARC
  5
245
330
1F
100
AcDbEntity
  8
SLD-0
  6
Continuous
 62
   179
100
AcDbCircle
 10
315.2384475
 20
173.915882
 30
0.0
 40
0.1999984999999924
100
AcDbArc
 50
270.0
 51
0.0
  0
ARC
  5
246
330
1F
100
AcDbEntity
  8
SLD-0
  6
Continuous
 62
   179
100
AcDbCircle
 10
315.1384540812
 20
127.9440638029
 30
0.0
 40
0.2000025000000392
100
AcDbArc
 50
90.0
 51
180.0
  0
ARC
  5
247
330
1F
100
AcDbEntity
  8
SLD-0
  6
Continuous
 62
   179
100
AcDbCircle
 10
315.2384520812
 20
123.4440608029
 30
0.0
 40
0.1999984999999924
100
AcDbArc
 50
0.0
 51
90.0
  0
ARC
  5
248
330
1F
100
AcDbEntity
  8
SLD-0
  6
Continuous
 62
   179
100
AcDbCircle
 10
315.1384495
 20
182.515887
 30
0.0
 40
0.2000025000000392
100
AcDbArc
 50
90.0
 51
180.0
  0
ARC
  5
249
330
1F
100
AcDbEntity
  8
SLD-0
  6
Continuous
 62
   179
100
AcDbCircle
 10
315.2384475
 20
182.915888
 30
0.0
 40
0.1999984999999924
100
AcDbArc
 50
270.0
 51
0.0
  0
ARC
  5
24A
330
1F
100
AcDbEntity
  8
SLD-0
  6
Continuous
 62
   179
100
AcDbCircle
 10
315.1384540812
 20
123.8440618029
 30
0.0
 40
0.2000025000000392
100
AcDbArc
 50
180.0
 51
270.0
  0
ARC
  5
24B
330
1F
100
AcDbEntity
  8
SLD-0
  6
Continuous
 62
   179
100
AcDbCircle
 10
315.1384495
 20
178.415885
 30
0.0
 40
0.2000025000000392
100
AcDbArc
 50
180.0
 51
270.0
  0
ARC
  5
24C
330
1F
100
AcDbEntity
  8
SLD-0
  6
Continuous
 62
   179
100
AcDbCircle
 10
315.2384475
 20
175.015882
 30
0.0
 40
0.1999984999999924
100
AcDbArc
 50
0.0
 51
90.0
  0
ARC
  5
24D
330
1F
100
AcDbEntity
  8
SLD-0
  6
Continuous
 62
   179
100
AcDbCircle
 10
315.1384495
 20
179.515885
 30
0.0
 40
0.2000025000000392
100
AcDbArc
 50
90.0
 51
180.0
  0
ARC
  5
24E
330
1F
100
AcDbEntity
  8
SLD-0
  6
Continuous
 62
   179
100
AcDbCircle
 10
315.1384495
 20
181.415887
 30
0.0
 40
0.2000025000000392
100
AcDbArc
 50
180.0
 51
270.0
  0
ARC
  5
24F
330
1F
100
AcDbEntity
  8
SLD-0
  6
Continuous
 62
   179
100
AcDbCircle
 10
315.2384475
 20
179.915886
 30
0.0
 40
0.1999984999999924
100
AcDbArc
 50
270.0
 51
0.0
  0
ARC
  5
250
330
1F
100
AcDbEntity
  8
SLD-0
  6
Continuous
 62
   179
100
AcDbCircle
 10
315.1384495
 20
176.515883
 30
0.0
 40
0.2000025000000392
100
AcDbArc
 50
90.0
 51
180.0
  0
ARC
  5
251
330
1F
100
AcDbEntity
  8
SLD-0
  6
Continuous
 62
   179
100
AcDbCircle
 10
315.1384495
 20
175.415883
 30
0.0
 40
0.2000025000000392
100
AcDbArc
 50
180.0
 51
270.0
  0
ARC
  5
252
330
1F
100
AcDbEntity
  8
SLD-0
  6
Continuous
 62
   179
100
AcDbCircle
 10
315.2384475
 20
181.015886
 30
0.0
 40
0.1999984999999924
100
AcDbArc
 50
0.0
 51
90.0
  0
ARC
  5
253
330
1F
100
AcDbEntity
  8
SLD-0
  6
Continuous
 62
   179
100
AcDbCircle
 10
315.1384495
 20
172.415881
 30
0.0
 40
0.2000025000000392
100
AcDbArc
 50
180.0
 51
270.0
  0
ARC
  5
254
330
1F
100
AcDbEntity
  8
SLD-0
  6
Continuous
 62
   179
100
AcDbCircle
 10
280.63845
 20
175.01588
 30
0.0
 40
0.2000000000000455
100
AcDbArc
 50
90.0
 51
180.0
  0
ARC
  5
255
330
1F
100
AcDbEntity
  8
SLD-0
  6
Continuous
 62
   179
100
AcDbCircle
 10
280.63845
 20
181.01588
 30
0.0
 40
0.2000000000000455
100
AcDbArc
 50
90.0
 51
180.0
  0
ARC
  5
256
330
1F
100
AcDbEntity
  8
SLD-0
  6
Continuous
 62
   179
100
AcDbCircle
 10
280.63845
 20
173.91588
 30
0.0
 40
0.2000000000000455
100
AcDbArc
 50
180.0
 51
270.0
  0
ARC
  5
257
330
1F
100
AcDbEntity
  8
SLD-0
  6
Continuous
 62
   179
100
AcDbCircle
 10
280.73845
 20
178.41588
 30
0.0
 40
0.1999999999999886
100
AcDbArc
 50
270.0
 51
0.0
  0
ARC
  5
258
330
1F
100
AcDbEntity
  8
SLD-0
  6
Continuous
 62
   179
100
AcDbCircle
 10
280.63845
 20
182.91588
 30
0.0
 40
0.2000000000000455
100
AcDbArc
 50
180.0
 51
270.0
  0
ARC
  5
259
330
1F
100
AcDbEntity
  8
SLD-0
  6
Continuous
 62
   179
100
AcDbCircle
 10
280.73845
 20
181.41588
 30
0.0
 40
0.2000000000000171
100
AcDbArc
 50
270.0
 51
0.0
  0
ARC
  5
25A
330
1F
100
AcDbEntity
  8
SLD-0
  6
Continuous
 62
   179
100
AcDbCircle
 10
280.73845
 20
176.51588
 30
0.0
 40
0.1999999999999886
100
AcDbArc
 50
0.0
 51
90.0
  0
ARC
  5
25B
330
1F
100
AcDbEntity
  8
SLD-0
  6
Continuous
 62
   179
100
AcDbCircle
 10
280.73845
 20
182.51588
 30
0.0
 40
0.1999999999999886
100
AcDbArc
 50
0.0
 51
90.0
  0
ARC
  5
25C
330
1F
100
AcDbEntity
  8
SLD-0
  6
Continuous
 62
   179
100
AcDbCircle
 10
280.73845
 20
179.51588
 30
0.0
 40
0.1999999999999886
100
AcDbArc
 50
0.0
 51
90.0
  0
ARC
  5
25D
330
1F
100
AcDbEntity
  8
SLD-0
  6
Continuous
 62
   179
100
AcDbCircle
 10
280.73845
 20
175.41588
 30
0.0
 40
0.1999999999999886
100
AcDbArc
 50
270.0
 51
0.0
  0
ARC
  5
25E
330
1F
100
AcDbEntity
  8
SLD-0
  6
Continuous
 62
   179
100
AcDbCircle
 10
280.63845
 20
179.91588
 30
0.0
 40
0.2000000000000455
100
AcDbArc
 50
180.0
 51
270.0
  0
ARC
  5
25F
330
1F
100
AcDbEntity
  8
SLD-0
  6
Continuous
 62
   179
100
AcDbCircle
 10
280.73845
 20
172.41588
 30
0.0
 40
0.1999999999999886
100
AcDbArc
 50
270.0
 51
0.0
  0
ARC
  5
260
330
1F
100
AcDbEntity
  8
SLD-0
  6
Continuous
 62
   179
100
AcDbCircle
 10
280.63845
 20
178.01588
 30
0.0
 40
0.2000000000000455
100
AcDbArc
 50
90.0
 51
180.0
  0
ARC
  5
261
330
1F
100
AcDbEntity
  8
SLD-0
  6
Continuous
 62
   179
100
AcDbCircle
 10
280.63845
 20
172.01588
 30
0.0
 40
0.2000000000000455
100
AcDbArc
 50
90.0
 51
180.0
  0
ARC
  5
262
330
1F
100
AcDbEntity
  8
SLD-0
  6
Continuous
 62
   179
100
AcDbCircle
 10
280.73845
 20
173.51588
 30
0.0
 40
0.1999999999999886
100
AcDbArc
 50
0.0
 51
90.0
  0
ARC
  5
263
330
1F
100
AcDbEntity
  8
SLD-0
  6
Continuous
 62
   179
100
AcDbCircle
 10
280.63845
 20
176.91588
 30
0.0
 40
0.2000000000000455
100
AcDbArc
 50
180.0
 51
270.0
  0
ARC
  5
264
330
1F
100
AcDbEntity
  8
SLD-0
  6
Continuous
 62
   179
100
AcDbCircle
 10
280.63845
 20
129.44406
 30
0.0
 40
0.2000000000000455
100
AcDbArc
 50
90.0
 51
180.0
  0
ARC
  5
265
330
1F
100
AcDbEntity
  8
SLD-0
  6
Continuous
 62
   179
100
AcDbCircle
 10
280.73845
 20
132.84406
 30
0.0
 40
0.2000000000000171
100
AcDbArc
 50
270.0
 51
0.0
  0
ARC
  5
266
330
1F
100
AcDbEntity
  8
SLD-0
  6
Continuous
 62
   179
100
AcDbCircle
 10
280.63845
 20
134.34406
 30
0.0
 40
0.2000000000000455
100
AcDbArc
 50
180.0
 51
270.0
  0
ARC
  5
267
330
1F
100
AcDbEntity
  8
SLD-0
  6
Continuous
 62
   179
100
AcDbCircle
 10
280.63845
 20
128.34406
 30
0.0
 40
0.2000000000000455
100
AcDbArc
 50
180.0
 51
270.0
  0
ARC
  5
268
330
1F
100
AcDbEntity
  8
SLD-0
  6
Continuous
 62
   179
100
AcDbCircle
 10
280.73845
 20
133.94406
 30
0.0
 40
0.2000000000000171
100
AcDbArc
 50
0.0
 51
90.0
  0
ARC
  5
269
330
1F
100
AcDbEntity
  8
SLD-0
  6
Continuous
 62
   179
100
AcDbCircle
 10
280.63845
 20
126.44406
 30
0.0
 40
0.2000000000000455
100
AcDbArc
 50
90.0
 51
180.0
  0
ARC
  5
26A
330
1F
100
AcDbEntity
  8
SLD-0
  6
Continuous
 62
   179
100
AcDbCircle
 10
280.73845
 20
130.94406
 30
0.0
 40
0.2000000000000171
100
AcDbArc
 50
0.0
 51
90.0
  0
ARC
  5
26B
330
1F
100
AcDbEntity
  8
SLD-0
  6
Continuous
 62
   179
100
AcDbCircle
 10
280.73845
 20
126.84406
 30
0.0
 40
0.2000000000000171
100
AcDbArc
 50
270.0
 51
0.0
  0
ARC
  5
26C
330
1F
100
AcDbEntity
  8
SLD-0
  6
Continuous
 62
   179
100
AcDbCircle
 10
280.73845
 20
123.84406
 30
0.0
 40
0.2000000000000028
100
AcDbArc
 50
270.0
 51
0.0
  0
ARC
  5
26D
330
1F
100
AcDbEntity
  8
SLD-0
  6
Continuous
 62
   179
100
AcDbCircle
 10
280.73845
 20
129.84406
 30
0.0
 40
0.2000000000000171
100
AcDbArc
 50
270.0
 51
0.0
  0
ARC
  5
26E
330
1F
100
AcDbEntity
  8
SLD-0
  6
Continuous
 62
   179
100
AcDbCircle
 10
280.63845
 20
123.44406
 30
0.0
 40
0.2000000000000455
100
AcDbArc
 50
90.0
 51
180.0
  0
ARC
  5
26F
330
1F
100
AcDbEntity
  8
SLD-0
  6
Continuous
 62
   179
100
AcDbCircle
 10
280.73845
 20
124.94406
 30
0.0
 40
0.2000000000000028
100
AcDbArc
 50
0.0
 51
90.0
  0
ARC
  5
270
330
1F
100
AcDbEntity
  8
SLD-0
  6
Continuous
 62
   179
100
AcDbCircle
 10
280.73845
 20
127.94406
 30
0.0
 40
0.2000000000000028
100
AcDbArc
 50
0.0
 51
90.0
  0
ARC
  5
271
330
1F
100
AcDbEntity
  8
SLD-0
  6
Continuous
 62
   179
100
AcDbCircle
 10
280.63845
 20
132.44406
 30
0.0
 40
0.2000000000000455
100
AcDbArc
 50
90.0
 51
180.0
  0
ARC
  5
272
330
1F
100
AcDbEntity
  8
SLD-0
  6
Continuous
 62
   179
100
AcDbCircle
 10
280.63845
 20
125.34406
 30
0.0
 40
0.2000000000000455
100
AcDbArc
 50
180.0
 51
270.0
  0
ARC
  5
273
330
1F
100
AcDbEntity
  8
SLD-0
  6
Continuous
 62
   179
100
AcDbCircle
 10
280.63845
 20
131.34406
 30
0.0
 40
0.2000000000000455
100
AcDbArc
 50
180.0
 51
270.0
  0
ARC
  5
274
330
1F
100
AcDbEntity
  8
SLD-0
  6
Continuous
 62
   179
100
AcDbCircle
 10
315.2384520812
 20
132.4440668029
 30
0.0
 40
0.1999984999999924
100
AcDbArc
 50
0.0
 51
90.0
  0
ARC
  5
275
330
1F
100
AcDbEntity
  8
SLD-0
  6
Continuous
 62
   179
100
AcDbCircle
 10
312.449249
 20
146.929979995
 30
0.0
 40
0.300000004999992
100
AcDbArc
 50
90.0
 51
130.00776
  0
ARC
  5
276
330
1F
100
AcDbEntity
  8
SLD-0
  6
Continuous
 62
   179
100
AcDbCircle
 10
282.23843
 20
159.429975005
 30
0.0
 40
0.3000050050000073
100
AcDbArc
 50
180.0
 51
270.0
  0
ARC
  5
277
330
1F
100
AcDbEntity
  8
SLD-0
  6
Continuous
 62
   179
100
AcDbCircle
 10
310.9384460032
 20
148.7299799912
 30
0.0
 40
2.050005459103198
100
AcDbArc
 50
49.9920648604
 51
310.0079351396
  0
ARC
  5
278
330
1F
100
AcDbEntity
  8
SLD-0
  6
Continuous
 62
   179
100
AcDbCircle
 10
313.638458
 20
150.5299799873
 30
0.0
 40
0.3000000050000153
100
AcDbArc
 50
270.0
 51
0.0
  0
ARC
  5
279
330
1F
100
AcDbEntity
  8
SLD-0
  6
Continuous
 62
   179
100
AcDbCircle
 10
310.9384477581
 20
157.6299651709
 30
0.0
 40
2.050000000000043
100
AcDbArc
 50
49.992238
 51
310.00775
  0
ARC
  5
27A
330
1F
100
AcDbEntity
  8
SLD-0
  6
Continuous
 62
   179
100
AcDbCircle
 10
312.449249
 20
155.8299672654
 30
0.0
 40
0.3000027345833587
100
AcDbArc
 50
90.0
 51
130.0090251006
  0
ARC
  5
27B
330
1F
100
AcDbEntity
  8
SLD-0
  6
Continuous
 62
   179
100
AcDbCircle
 10
312.449249
 20
159.429975005
 30
0.0
 40
0.3000050050000416
100
AcDbArc
 50
229.99224
 51
270.0
  0
ARC
  5
27C
330
1F
100
AcDbEntity
  8
SLD-0
  6
Continuous
 62
   179
100
AcDbCircle
 10
313.638458
 20
159.429975005
 30
0.0
 40
0.3000050050000027
100
AcDbArc
 50
270.0
 51
0.0
  0
ARC
  5
27D
330
1F
100
AcDbEntity
  8
SLD-0
  6
Continuous
 62
   179
100
AcDbCircle
 10
315.2384475
 20
176.915884
 30
0.0
 40
0.1999984999999924
100
AcDbArc
 50
270.0
 51
0.0
  0
ARC
  5
27E
330
1F
100
AcDbEntity
  8
SLD-0
  6
Continuous
 62
   179
100
AcDbCircle
 10
315.2384475
 20
172.01588
 30
0.0
 40
0.1999984999999924
100
AcDbArc
 50
0.0
 51
90.0
  0
ARC
  5
27F
330
1F
100
AcDbEntity
  8
SLD-0
  6
Continuous
 62
   179
100
AcDbCircle
 10
315.1384495
 20
173.515881
 30
0.0
 40
0.2000025000000392
100
AcDbArc
 50
90.0
 51
180.0
  0
ARC
  5
280
330
1F
100
AcDbEntity
  8
SLD-0
  6
Continuous
 62
   179
100
AcDbCircle
 10
315.2384475
 20
178.015884
 30
0.0
 40
0.1999984999999924
100
AcDbArc
 50
0.0
 51
90.0
  0
ARC
  5
281
330
1F
100
AcDbEntity
  8
SLD-0
  6
Continuous
 62
   179
100
AcDbCircle
 10
315.2384520812
 20
128.3440648029
 30
0.0
 40
0.1999984999999924
100
AcDbArc
 50
270.0
 51
0.0
  0
ARC
  5
282
330
1F
100
AcDbEntity
  8
SLD-0
  6
Continuous
 62
   179
100
AcDbCircle
 10
315.1384540812
 20
132.8440678029
 30
0.0
 40
0.200002500000096
100
AcDbArc
 50
180.0
 51
270.0
  0
ARC
  5
283
330
1F
100
AcDbEntity
  8
SLD-0
  6
Continuous
 62
   179
100
AcDbCircle
 10
315.2384520812
 20
134.3440688029
 30
0.0
 40
0.1999984999999924
100
AcDbArc
 50
270.0
 51
0.0
  0
ARC
  5
284
330
1F
100
AcDbEntity
  8
SLD-0
  6
Continuous
 62
   179
100
AcDbCircle
 10
315.2384520812
 20
129.4440648029
 30
0.0
 40
0.1999984999999924
100
AcDbArc
 50
0.0
 51
90.0
  0
ARC
  5
285
330
1F
100
AcDbEntity
  8
SLD-0
  6
Continuous
 62
   179
100
AcDbCircle
 10
283.2057738486
 20
191.1799789688
 30
0.0
 40
0.9999960156091893
100
AcDbArc
 50
90.0
 51
165.0004141913
  0
ARC
  5
286
330
1F
100
AcDbEntity
  8
SLD-0
  6
Continuous
 62
   179
100
AcDbCircle
 10
283.2057725986
 20
115.1799506963
 30
0.0
 40
0.9999973096927961
100
AcDbArc
 50
195.0001392475
 51
270.0
  0
ARC
  5
287
330
1F
100
AcDbEntity
  8
SLD-0
  6
Continuous
 62
   179
100
AcDbCircle
 10
312.6711225986
 20
115.1799513341
 30
0.0
 40
0.9999979474648342
100
AcDbArc
 50
270.0
 51
345.0004735068
  0
ARC
  5
288
330
1F
100
AcDbEntity
  8
SLD-0
  6
Continuous
 62
   179
100
AcDbCircle
 10
312.6711308486
 20
191.1799749844
 30
0.0
 40
1.0
100
AcDbArc
 50
15.0
 51
90.0
  0
CIRCLE
  5
289
330
1F
100
AcDbEntity
  8
SLD-0
  6
Continuous
 62
   179
100
AcDbCircle
 10
302.1195667831
 20
146.0271491673
 30
0.0
 40
0.9999999999999704
  0
ARC
  5
28A
330
1F
100
AcDbEntity
  8
SLD-0
  6
Continuous
 62
   179
100
AcDbCircle
 10
302.1195667831
 20
146.0271491673
 30
0.0
 40
1.840003322874501
100
AcDbArc
 50
30.50929
 51
194.5121943913
  0
ARC
  5
28B
330
1F
100
AcDbEntity
  8
SLD-0
  6
Continuous
 62
   179
100
AcDbCircle
 10
297.93845
 20
152.47121
 30
0.0
 40
8.961506800000041
100
AcDbArc
 50
321.34483
 51
218.65517
  0
ARC
  5
28C
330
1F
100
AcDbEntity
  8
SLD-0
  6
Continuous
 62
   179
100
AcDbCircle
 10
291.525920354
 20
147.3420308542
 30
0.0
 40
0.7500000000000243
100
AcDbArc
 50
218.65518
 51
329.49071
  0
CIRCLE
  5
28D
330
1F
100
AcDbEntity
  8
SLD-0
  6
Continuous
 62
   179
100
AcDbCircle
 10
293.7573332166
 20
146.0271491674
 30
0.0
 40
1.000000000000025
  0
ARC
  5
28E
330
1F
100
AcDbEntity
  8
SLD-0
  6
Continuous
 62
   179
100
AcDbCircle
 10
293.7573332166
 20
146.0271491674
 30
0.0
 40
1.840003323117774
100
AcDbArc
 50
345.4878056087
 51
149.4909333734
  0
ARC
  5
28F
330
1F
100
AcDbEntity
  8
SLD-0
  6
Continuous
 62
   179
100
AcDbCircle
 10
304.3509765014
 20
147.3420319476
 30
0.0
 40
0.7499978463763116
100
AcDbArc
 50
210.5089359072
 51
321.34483
  0
CIRCLE
  5
290
330
1F
100
AcDbEntity
  8
SLD-0
  6
Continuous
 62
   179
100
AcDbCircle
 10
87.93845
 20
121.17995
 30
0.0
 40
2.5
  0
CIRCLE
  5
291
330
1F
100
AcDbEntity
  8
SLD-0
  6
Continuous
 62
   179
100
AcDbCircle
 10
87.93845
 20
121.17995
 30
0.0
 40
2.0
  0
CIRCLE
  5
292
330
1F
100
AcDbEntity
  8
SLD-0
  6
Continuous
 62
   179
100
AcDbCircle
 10
71.93845
 20
121.17995
 30
0.0
 40
2.5
  0
CIRCLE
  5
293
330
1F
100
AcDbEntity
  8
SLD-0
  6
Continuous
 62
   179
100
AcDbCircle
 10
71.93845
 20
121.17995
 30
0.0
 40
2.0
  0
CIRCLE
  5
294
330
1F
100
AcDbEntity
  8
SLD-0
  6
Continuous
 62
   179
100
AcDbCircle
 10
71.93845
 20
185.17998
 30
0.0
 40
2.5
  0
CIRCLE
  5
295
330
1F
100
AcDbEntity
  8
SLD-0
  6
Continuous
 62
   179
100
AcDbCircle
 10
71.93845
 20
185.17998
 30
0.0
 40
2.0
  0
CIRCLE
  5
296
330
1F
100
AcDbEntity
  8
SLD-0
  6
Continuous
 62
   179
100
AcDbCircle
 10
87.93845
 20
185.17998
 30
0.0
 40
2.5
  0
CIRCLE
  5
297
330
1F
100
AcDbEntity
  8
SLD-0
  6
Continuous
 62
   179
100
AcDbCircle
 10
87.93845
 20
185.17998
 30
0.0
 40
2.0
  0
ARC
  5
298
330
1F
100
AcDbEntity
  8
SLD-0
  6
Continuous
 62
   179
100
AcDbCircle
 10
62.63846
 20
176.91588
 30
0.0
 40
0.1999999999999917
100
AcDbArc
 50
180.0
 51
270.0
  0
ARC
  5
299
330
1F
100
AcDbEntity
  8
SLD-0
  6
Continuous
 62
   179
100
AcDbCircle
 10
62.73843
 20
173.51588
 30
0.0
 40
0.1999999999999886
100
AcDbArc
 50
0.0
 51
90.0
  0
ARC
  5
29A
330
1F
100
AcDbEntity
  8
SLD-0
  6
Continuous
 62
   179
100
AcDbCircle
 10
62.63846
 20
172.01588
 30
0.0
 40
0.2000000000000171
100
AcDbArc
 50
90.0
 51
180.0
  0
ARC
  5
29B
330
1F
100
AcDbEntity
  8
SLD-0
  6
Continuous
 62
   179
100
AcDbCircle
 10
62.63846
 20
178.01588
 30
0.0
 40
0.1999999999999917
100
AcDbArc
 50
90.0
 51
180.0
  0
ARC
  5
29C
330
1F
100
AcDbEntity
  8
SLD-0
  6
Continuous
 62
   179
100
AcDbCircle
 10
62.73843
 20
172.41588
 30
0.0
 40
0.1999999999999886
100
AcDbArc
 50
270.0
 51
0.0
  0
ARC
  5
29D
330
1F
100
AcDbEntity
  8
SLD-0
  6
Continuous
 62
   179
100
AcDbCircle
 10
62.73843
 20
175.41588
 30
0.0
 40
0.1999999999999886
100
AcDbArc
 50
270.0
 51
0.0
  0
ARC
  5
29E
330
1F
100
AcDbEntity
  8
SLD-0
  6
Continuous
 62
   179
100
AcDbCircle
 10
62.73843
 20
182.51588
 30
0.0
 40
0.1999999999999886
100
AcDbArc
 50
0.0
 51
90.0
  0
ARC
  5
29F
330
1F
100
AcDbEntity
  8
SLD-0
  6
Continuous
 62
   179
100
AcDbCircle
 10
62.73843
 20
176.51588
 30
0.0
 40
0.1999999999999886
100
AcDbArc
 50
0.0
 51
90.0
  0
ARC
  5
2A0
330
1F
100
AcDbEntity
  8
SLD-0
  6
Continuous
 62
   179
100
AcDbCircle
 10
62.63846
 20
182.91588
 30
0.0
 40
0.2000000000000171
100
AcDbArc
 50
180.0
 51
270.0
  0
ARC
  5
2A1
330
1F
100
AcDbEntity
  8
SLD-0
  6
Continuous
 62
   179
100
AcDbCircle
 10
62.73843
 20
178.41588
 30
0.0
 40
0.1999999999999886
100
AcDbArc
 50
270.0
 51
0.0
  0
ARC
  5
2A2
330
1F
100
AcDbEntity
  8
SLD-0
  6
Continuous
 62
   179
100
AcDbCircle
 10
62.63846
 20
173.91588
 30
0.0
 40
0.1999999999999917
100
AcDbArc
 50
180.0
 51
270.0
  0
ARC
  5
2A3
330
1F
100
AcDbEntity
  8
SLD-0
  6
Continuous
 62
   179
100
AcDbCircle
 10
62.63846
 20
175.01588
 30
0.0
 40
0.1999999999999917
100
AcDbArc
 50
90.0
 51
180.0
  0
ARC
  5
2A4
330
1F
100
AcDbEntity
  8
SLD-0
  6
Continuous
 62
   179
100
AcDbCircle
 10
97.23843
 20
175.01588
 30
0.0
 40
0.1999999999999886
100
AcDbArc
 50
0.0
 51
90.0
  0
ARC
  5
2A5
330
1F
100
AcDbEntity
  8
SLD-0
  6
Continuous
 62
   179
100
AcDbCircle
 10
97.23843
 20
181.01588
 30
0.0
 40
0.1999999999999886
100
AcDbArc
 50
0.0
 51
90.0
  0
ARC
  5
2A6
330
1F
100
AcDbEntity
  8
SLD-0
  6
Continuous
 62
   179
100
AcDbCircle
 10
97.23843
 20
173.91588
 30
0.0
 40
0.1999999999999886
100
AcDbArc
 50
270.0
 51
0.0
  0
ARC
  5
2A7
330
1F
100
AcDbEntity
  8
SLD-0
  6
Continuous
 62
   179
100
AcDbCircle
 10
97.13846
 20
178.41588
 30
0.0
 40
0.1999999999999917
100
AcDbArc
 50
180.0
 51
270.0
  0
ARC
  5
2A8
330
1F
100
AcDbEntity
  8
SLD-0
  6
Continuous
 62
   179
100
AcDbCircle
 10
97.23843
 20
182.91588
 30
0.0
 40
0.2000000000000171
100
AcDbArc
 50
270.0
 51
0.0
  0
ARC
  5
2A9
330
1F
100
AcDbEntity
  8
SLD-0
  6
Continuous
 62
   179
100
AcDbCircle
 10
97.13846
 20
181.41588
 30
0.0
 40
0.2000000000000171
100
AcDbArc
 50
180.0
 51
270.0
  0
ARC
  5
2AA
330
1F
100
AcDbEntity
  8
SLD-0
  6
Continuous
 62
   179
100
AcDbCircle
 10
97.13846
 20
176.51588
 30
0.0
 40
0.1999999999999917
100
AcDbArc
 50
90.0
 51
180.0
  0
ARC
  5
2AB
330
1F
100
AcDbEntity
  8
SLD-0
  6
Continuous
 62
   179
100
AcDbCircle
 10
97.13846
 20
182.51588
 30
0.0
 40
0.1999999999999917
100
AcDbArc
 50
90.0
 51
180.0
  0
ARC
  5
2AC
330
1F
100
AcDbEntity
  8
SLD-0
  6
Continuous
 62
   179
100
AcDbCircle
 10
97.13846
 20
179.51588
 30
0.0
 40
0.1999999999999917
100
AcDbArc
 50
90.0
 51
180.0
  0
ARC
  5
2AD
330
1F
100
AcDbEntity
  8
SLD-0
  6
Continuous
 62
   179
100
AcDbCircle
 10
97.13846
 20
175.41588
 30
0.0
 40
0.1999999999999917
100
AcDbArc
 50
180.0
 51
270.0
  0
ARC
  5
2AE
330
1F
100
AcDbEntity
  8
SLD-0
  6
Continuous
 62
   179
100
AcDbCircle
 10
97.23843
 20
179.91588
 30
0.0
 40
0.1999999999999886
100
AcDbArc
 50
270.0
 51
0.0
  0
ARC
  5
2AF
330
1F
100
AcDbEntity
  8
SLD-0
  6
Continuous
 62
   179
100
AcDbCircle
 10
97.13846
 20
172.41588
 30
0.0
 40
0.1999999999999917
100
AcDbArc
 50
180.0
 51
270.0
  0
ARC
  5
2B0
330
1F
100
AcDbEntity
  8
SLD-0
  6
Continuous
 62
   179
100
AcDbCircle
 10
97.23843
 20
178.01588
 30
0.0
 40
0.1999999999999886
100
AcDbArc
 50
0.0
 51
90.0
  0
ARC
  5
2B1
330
1F
100
AcDbEntity
  8
SLD-0
  6
Continuous
 62
   179
100
AcDbCircle
 10
97.23843
 20
172.01588
 30
0.0
 40
0.2000000000000171
100
AcDbArc
 50
0.0
 51
90.0
  0
ARC
  5
2B2
330
1F
100
AcDbEntity
  8
SLD-0
  6
Continuous
 62
   179
100
AcDbCircle
 10
97.13846
 20
173.51588
 30
0.0
 40
0.1999999999999917
100
AcDbArc
 50
90.0
 51
180.0
  0
ARC
  5
2B3
330
1F
100
AcDbEntity
  8
SLD-0
  6
Continuous
 62
   179
100
AcDbCircle
 10
97.23843
 20
176.91588
 30
0.0
 40
0.1999999999999886
100
AcDbArc
 50
270.0
 51
0.0
  0
ARC
  5
2B4
330
1F
100
AcDbEntity
  8
SLD-0
  6
Continuous
 62
   179
100
AcDbCircle
 10
66.93845
 20
157.62997
 30
0.0
 40
2.050000000000028
100
AcDbArc
 50
90.000003
 51
130.00776
  0
ARC
  5
2B5
330
1F
100
AcDbEntity
  8
SLD-0
  6
Continuous
 62
   179
100
AcDbCircle
 10
66.93845
 20
148.72998
 30
0.0
 40
2.050000000000028
100
AcDbArc
 50
90.000003
 51
130.00776
  0
ARC
  5
2B6
330
1F
100
AcDbEntity
  8
SLD-0
  6
Continuous
 62
   179
100
AcDbCircle
 10
62.63846
 20
129.44406
 30
0.0
 40
0.2000000000000171
100
AcDbArc
 50
90.0
 51
180.0
  0
ARC
  5
2B7
330
1F
100
AcDbEntity
  8
SLD-0
  6
Continuous
 62
   179
100
AcDbCircle
 10
62.73843
 20
132.84406
 30
0.0
 40
0.2000000000000171
100
AcDbArc
 50
270.0
 51
0.0
  0
ARC
  5
2B8
330
1F
100
AcDbEntity
  8
SLD-0
  6
Continuous
 62
   179
100
AcDbCircle
 10
62.63846
 20
134.34406
 30
0.0
 40
0.2000000000000171
100
AcDbArc
 50
180.0
 51
270.0
  0
ARC
  5
2B9
330
1F
100
AcDbEntity
  8
SLD-0
  6
Continuous
 62
   179
100
AcDbCircle
 10
62.63846
 20
128.34406
 30
0.0
 40
0.2000000000000171
100
AcDbArc
 50
180.0
 51
270.0
  0
ARC
  5
2BA
330
1F
100
AcDbEntity
  8
SLD-0
  6
Continuous
 62
   179
100
AcDbCircle
 10
62.73843
 20
133.94406
 30
0.0
 40
0.2000000000000171
100
AcDbArc
 50
0.0
 51
90.0
  0
ARC
  5
2BB
330
1F
100
AcDbEntity
  8
SLD-0
  6
Continuous
 62
   179
100
AcDbCircle
 10
62.73843
 20
130.94406
 30
0.0
 40
0.2000000000000171
100
AcDbArc
 50
0.0
 51
90.0
  0
ARC
  5
2BC
330
1F
100
AcDbEntity
  8
SLD-0
  6
Continuous
 62
   179
100
AcDbCircle
 10
62.73843
 20
123.84406
 30
0.0
 40
0.2000000000000028
100
AcDbArc
 50
270.0
 51
0.0
  0
ARC
  5
2BD
330
1F
100
AcDbEntity
  8
SLD-0
  6
Continuous
 62
   179
100
AcDbCircle
 10
62.73843
 20
129.84406
 30
0.0
 40
0.2000000000000171
100
AcDbArc
 50
270.0
 51
0.0
  0
ARC
  5
2BE
330
1F
100
AcDbEntity
  8
SLD-0
  6
Continuous
 62
   179
100
AcDbCircle
 10
62.63846
 20
123.44406
 30
0.0
 40
0.2000000000000028
100
AcDbArc
 50
90.0
 51
180.0
  0
ARC
  5
2BF
330
1F
100
AcDbEntity
  8
SLD-0
  6
Continuous
 62
   179
100
AcDbCircle
 10
62.73843
 20
127.94406
 30
0.0
 40
0.2000000000000028
100
AcDbArc
 50
0.0
 51
90.0
  0
ARC
  5
2C0
330
1F
100
AcDbEntity
  8
SLD-0
  6
Continuous
 62
   179
100
AcDbCircle
 10
62.63846
 20
132.44406
 30
0.0
 40
0.2000000000000171
100
AcDbArc
 50
90.0
 51
180.0
  0
ARC
  5
2C1
330
1F
100
AcDbEntity
  8
SLD-0
  6
Continuous
 62
   179
100
AcDbCircle
 10
62.63846
 20
131.34406
 30
0.0
 40
0.2000000000000171
100
AcDbArc
 50
180.0
 51
270.0
  0
ARC
  5
2C2
330
1F
100
AcDbEntity
  8
SLD-0
  6
Continuous
 62
   179
100
AcDbCircle
 10
97.23843
 20
131.34406
 30
0.0
 40
0.2000000000000171
100
AcDbArc
 50
270.0
 51
0.0
  0
ARC
  5
2C3
330
1F
100
AcDbEntity
  8
SLD-0
  6
Continuous
 62
   179
100
AcDbCircle
 10
97.23843
 20
125.34406
 30
0.0
 40
0.2000000000000171
100
AcDbArc
 50
270.0
 51
0.0
  0
ARC
  5
2C4
330
1F
100
AcDbEntity
  8
SLD-0
  6
Continuous
 62
   179
100
AcDbCircle
 10
97.23843
 20
132.44406
 30
0.0
 40
0.2000000000000171
100
AcDbArc
 50
0.0
 51
90.0
  0
ARC
  5
2C5
330
1F
100
AcDbEntity
  8
SLD-0
  6
Continuous
 62
   179
100
AcDbCircle
 10
97.13846
 20
127.94406
 30
0.0
 40
0.2000000000000028
100
AcDbArc
 50
90.0
 51
180.0
  0
ARC
  5
2C6
330
1F
100
AcDbEntity
  8
SLD-0
  6
Continuous
 62
   179
100
AcDbCircle
 10
97.23843
 20
123.44406
 30
0.0
 40
0.2000000000000028
100
AcDbArc
 50
0.0
 51
90.0
  0
ARC
  5
2C7
330
1F
100
AcDbEntity
  8
SLD-0
  6
Continuous
 62
   179
100
AcDbCircle
 10
97.13846
 20
124.94406
 30
0.0
 40
0.2000000000000028
100
AcDbArc
 50
90.0
 51
180.0
  0
ARC
  5
2C8
330
1F
100
AcDbEntity
  8
SLD-0
  6
Continuous
 62
   179
100
AcDbCircle
 10
97.13846
 20
129.84406
 30
0.0
 40
0.2000000000000171
100
AcDbArc
 50
180.0
 51
270.0
  0
ARC
  5
2C9
330
1F
100
AcDbEntity
  8
SLD-0
  6
Continuous
 62
   179
100
AcDbCircle
 10
97.13846
 20
123.84406
 30
0.0
 40
0.2000000000000028
100
AcDbArc
 50
180.0
 51
270.0
  0
ARC
  5
2CA
330
1F
100
AcDbEntity
  8
SLD-0
  6
Continuous
 62
   179
100
AcDbCircle
 10
97.13846
 20
126.84406
 30
0.0
 40
0.2000000000000171
100
AcDbArc
 50
180.0
 51
270.0
  0
ARC
  5
2CB
330
1F
100
AcDbEntity
  8
SLD-0
  6
Continuous
 62
   179
100
AcDbCircle
 10
97.13846
 20
130.94406
 30
0.0
 40
0.2000000000000171
100
AcDbArc
 50
90.0
 51
180.0
  0
ARC
  5
2CC
330
1F
100
AcDbEntity
  8
SLD-0
  6
Continuous
 62
   179
100
AcDbCircle
 10
97.23843
 20
126.44406
 30
0.0
 40
0.2000000000000028
100
AcDbArc
 50
0.0
 51
90.0
  0
ARC
  5
2CD
330
1F
100
AcDbEntity
  8
SLD-0
  6
Continuous
 62
   179
100
AcDbCircle
 10
97.13846
 20
133.94406
 30
0.0
 40
0.2000000000000171
100
AcDbArc
 50
90.0
 51
180.0
  0
ARC
  5
2CE
330
1F
100
AcDbEntity
  8
SLD-0
  6
Continuous
 62
   179
100
AcDbCircle
 10
97.23843
 20
128.34406
 30
0.0
 40
0.2000000000000171
100
AcDbArc
 50
270.0
 51
0.0
  0
ARC
  5
2CF
330
1F
100
AcDbEntity
  8
SLD-0
  6
Continuous
 62
   179
100
AcDbCircle
 10
97.23843
 20
134.34406
 30
0.0
 40
0.2000000000000171
100
AcDbArc
 50
270.0
 51
0.0
  0
ARC
  5
2D0
330
1F
100
AcDbEntity
  8
SLD-0
  6
Continuous
 62
   179
100
AcDbCircle
 10
97.13846
 20
132.84406
 30
0.0
 40
0.2000000000000171
100
AcDbArc
 50
180.0
 51
270.0
  0
ARC
  5
2D1
330
1F
100
AcDbEntity
  8
SLD-0
  6
Continuous
 62
   179
100
AcDbCircle
 10
97.23843
 20
129.44406
 30
0.0
 40
0.2000000000000171
100
AcDbArc
 50
0.0
 51
90.0
  0
ARC
  5
2D2
330
1F
100
AcDbEntity
  8
SLD-0
  6
Continuous
 62
   179
100
AcDbCircle
 10
64.23843
 20
155.829969995
 30
0.0
 40
0.3000000050000153
100
AcDbArc
 50
90.0
 51
180.0
  0
ARC
  5
2D3
330
1F
100
AcDbEntity
  8
SLD-0
  6
Continuous
 62
   179
100
AcDbCircle
 10
64.23843
 20
146.929979995
 30
0.0
 40
0.3000000050000153
100
AcDbArc
 50
90.0
 51
180.0
  0
ARC
  5
2D4
330
1F
100
AcDbEntity
  8
SLD-0
  6
Continuous
 62
   179
100
AcDbCircle
 10
62.93845
 20
160.17998
 30
0.0
 40
1.0
100
AcDbArc
 50
0.0
 51
90.0
  0
ARC
  5
2D5
330
1F
100
AcDbEntity
  8
SLD-0
  6
Continuous
 62
   179
100
AcDbCircle
 10
96.93845
 20
146.17998
 30
0.0
 40
1.000000000000028
100
AcDbArc
 50
180.0
 51
270.0
  0
ARC
  5
2D6
330
1F
100
AcDbEntity
  8
SLD-0
  6
Continuous
 62
   179
100
AcDbCircle
 10
96.93845
 20
160.17998
 30
0.0
 40
1.0
100
AcDbArc
 50
90.0
 51
180.0
  0
ARC
  5
2D7
330
1F
100
AcDbEntity
  8
SLD-0
  6
Continuous
 62
   179
100
AcDbCircle
 10
62.93845
 20
146.17998
 30
0.0
 40
1.000000000000028
100
AcDbArc
 50
270.0
 51
0.0
  0
ARC
  5
2D8
330
1F
100
AcDbEntity
  8
SLD-0
  6
Continuous
 62
   179
100
AcDbCircle
 10
95.63846
 20
146.929979995
 30
0.0
 40
0.3000000050000188
100
AcDbArc
 50
0.0
 51
90.0
  0
ARC
  5
2D9
330
1F
100
AcDbEntity
  8
SLD-0
  6
Continuous
 62
   179
100
AcDbCircle
 10
95.63846
 20
155.829969995
 30
0.0
 40
0.3000000050000153
100
AcDbArc
 50
360.0
 51
90.0
  0
ARC
  5
2DA
330
1F
100
AcDbEntity
  8
SLD-0
  6
Continuous
 62
   179
100
AcDbCircle
 10
92.9384511381
 20
148.7299768739
 30
0.0
 40
2.050000000000019
100
AcDbArc
 50
270.0
 51
310.00776
  0
ARC
  5
2DB
330
1F
100
AcDbEntity
  8
SLD-0
  6
Continuous
 62
   179
100
AcDbCircle
 10
94.44925
 20
146.9299782298
 30
0.0
 40
0.3000017702228774
100
AcDbArc
 50
90.0
 51
130.0085179202
  0
ARC
  5
2DC
330
1F
100
AcDbEntity
  8
SLD-0
  6
Continuous
 62
   179
100
AcDbCircle
 10
94.44925
 20
150.529975518
 30
0.0
 40
0.3000000049999869
100
AcDbArc
 50
229.99224
 51
270.0
  0
ARC
  5
2DD
330
1F
100
AcDbEntity
  8
SLD-0
  6
Continuous
 62
   179
100
AcDbCircle
 10
92.9384511381
 20
148.7299768739
 30
0.0
 40
2.050001765211706
100
AcDbArc
 50
49.9921290837
 51
90.000003
  0
ARC
  5
2DE
330
1F
100
AcDbEntity
  8
SLD-0
  6
Continuous
 62
   179
100
AcDbCircle
 10
95.63846
 20
150.529975518
 30
0.0
 40
0.3000000050000046
100
AcDbArc
 50
270.0
 51
0.0
  0
ARC
  5
2DF
330
1F
100
AcDbEntity
  8
SLD-0
  6
Continuous
 62
   179
100
AcDbCircle
 10
92.9384511381
 20
157.6299686391
 30
0.0
 40
2.050000000000005
100
AcDbArc
 50
49.992241
 51
90.000003
  0
ARC
  5
2E0
330
1F
100
AcDbEntity
  8
SLD-0
  6
Continuous
 62
   179
100
AcDbCircle
 10
94.44925
 20
155.829969995
 30
0.0
 40
0.3000000050000153
100
AcDbArc
 50
90.0
 51
130.00776
  0
ARC
  5
2E1
330
1F
100
AcDbEntity
  8
SLD-0
  6
Continuous
 62
   179
100
AcDbCircle
 10
94.44925
 20
159.429975005
 30
0.0
 40
0.3000050050000027
100
AcDbArc
 50
229.99224
 51
270.0
  0
ARC
  5
2E2
330
1F
100
AcDbEntity
  8
SLD-0
  6
Continuous
 62
   179
100
AcDbCircle
 10
92.9384511381
 20
157.6299686391
 30
0.0
 40
2.050001765211675
100
AcDbArc
 50
270.0
 51
310.0078709163
  0
ARC
  5
2E3
330
1F
100
AcDbEntity
  8
SLD-0
  6
Continuous
 62
   179
100
AcDbCircle
 10
65.42764
 20
150.529980005
 30
0.0
 40
0.3000000050000047
100
AcDbArc
 50
270.0
 51
310.00776
  0
ARC
  5
2E4
330
1F
100
AcDbEntity
  8
SLD-0
  6
Continuous
 62
   179
100
AcDbCircle
 10
65.42764
 20
146.929979995
 30
0.0
 40
0.3000000049999869
100
AcDbArc
 50
49.992241
 51
90.0
  0
ARC
  5
2E5
330
1F
100
AcDbEntity
  8
SLD-0
  6
Continuous
 62
   179
100
AcDbCircle
 10
95.63846
 20
159.429975005
 30
0.0
 40
0.3000050050000215
100
AcDbArc
 50
270.0
 51
360.0
  0
ARC
  5
2E6
330
1F
100
AcDbEntity
  8
SLD-0
  6
Continuous
 62
   179
100
AcDbCircle
 10
66.93845
 20
148.72998
 30
0.0
 40
2.050000000000006
100
AcDbArc
 50
229.99225
 51
270.0
  0
ARC
  5
2E7
330
1F
100
AcDbEntity
  8
SLD-0
  6
Continuous
 62
   179
100
AcDbCircle
 10
64.23843
 20
150.529980005
 30
0.0
 40
0.3000000050000153
100
AcDbArc
 50
180.0
 51
270.0
  0
ARC
  5
2E8
330
1F
100
AcDbEntity
  8
SLD-0
  6
Continuous
 62
   179
100
AcDbCircle
 10
66.93845
 20
157.62997
 30
0.0
 40
2.050000000000011
100
AcDbArc
 50
229.99225
 51
270.0
  0
ARC
  5
2E9
330
1F
100
AcDbEntity
  8
SLD-0
  6
Continuous
 62
   179
100
AcDbCircle
 10
65.42764
 20
155.829969995
 30
0.0
 40
0.3000000050000153
100
AcDbArc
 50
49.992241
 51
90.0
  0
ARC
  5
2EA
330
1F
100
AcDbEntity
  8
SLD-0
  6
Continuous
 62
   179
100
AcDbCircle
 10
65.42764
 20
159.429975005
 30
0.0
 40
0.3000050050000027
100
AcDbArc
 50
270.0
 51
310.00776
  0
ARC
  5
2EB
330
1F
100
AcDbEntity
  8
SLD-0
  6
Continuous
 62
   179
100
AcDbCircle
 10
64.23843
 20
159.429975005
 30
0.0
 40
0.3000050050000215
100
AcDbArc
 50
180.0
 51
270.0
  0
CIRCLE
  5
2EC
330
1F
100
AcDbEntity
  8
SLD-0
  6
Continuous
 62
   179
100
AcDbCircle
 10
79.93845
 20
126.17995
 30
0.0
 40
5.000000000000014
  0
CIRCLE
  5
2ED
330
1F
100
AcDbEntity
  8
SLD-0
  6
Continuous
 62
   179
100
AcDbCircle
 10
79.93845
 20
126.17995
 30
0.0
 40
4.4000001
  0
CIRCLE
  5
2EE
330
1F
100
AcDbEntity
  8
SLD-0
  6
Continuous
 62
   179
100
AcDbCircle
 10
79.93845
 20
180.17998
 30
0.0
 40
5.000000000000014
  0
CIRCLE
  5
2EF
330
1F
100
AcDbEntity
  8
SLD-0
  6
Continuous
 62
   179
100
AcDbCircle
 10
79.93845
 20
180.17998
 30
0.0
 40
4.4000001
  0
CIRCLE
  5
2F0
330
1F
100
AcDbEntity
  8
SLD-0
  6
Continuous
 62
   179
100
AcDbCircle
 10
79.93845
 20
153.17998
 30
0.0
 40
4.250000000000014
  0
CIRCLE
  5
2F1
330
1F
100
AcDbEntity
  8
SLD-0
  6
Continuous
 62
   179
100
AcDbCircle
 10
214.73845
 20
232.67998
 30
0.0
 40
2.5
  0
CIRCLE
  5
2F2
330
1F
100
AcDbEntity
  8
SLD-0
  6
Continuous
 62
   179
100
AcDbCircle
 10
164.73845
 20
232.67998
 30
0.0
 40
2.5
  0
CIRCLE
  5
2F3
330
1F
100
AcDbEntity
  8
SLD-0
  6
Continuous
 62
   179
100
AcDbCircle
 10
164.73845
 20
232.67998
 30
0.0
 40
2.0
  0
CIRCLE
  5
2F4
330
1F
100
AcDbEntity
  8
SLD-0
  6
Continuous
 62
   179
100
AcDbCircle
 10
214.73845
 20
232.67998
 30
0.0
 40
2.0
  0
CIRCLE
  5
2F5
330
1F
100
AcDbEntity
  8
SLD-0
  6
Continuous
 62
   179
100
AcDbCircle
 10
214.73845
 20
256.67998
 30
0.0
 40
2.5
  0
CIRCLE
  5
2F6
330
1F
100
AcDbEntity
  8
SLD-0
  6
Continuous
 62
   179
100
AcDbCircle
 10
214.73845
 20
256.67998
 30
0.0
 40
2.0
  0
CIRCLE
  5
2F7
330
1F
100
AcDbEntity
  8
SLD-0
  6
Continuous
 62
   179
100
AcDbCircle
 10
164.73845
 20
256.67998
 30
0.0
 40
2.5
  0
CIRCLE
  5
2F8
330
1F
100
AcDbEntity
  8
SLD-0
  6
Continuous
 62
   179
100
AcDbCircle
 10
164.73845
 20
256.67998
 30
0.0
 40
2.0
  0
MTEXT
  5
2FA
330
1F
100
AcDbEntity
  8
SLD-0
 62
     7
100
AcDbMText
 10
180.63665
 20
63.6526911091
 30
0.0
 40
5.0
 41
0.0
 71
     1
 72
     1
  1
ＳＴＡＲ
  7
SLDTEXTSTYLE6
 73
     1
 44
1.0
  0
MTEXT
  5
2FC
330
1F
100
AcDbEntity
  8
SLD-0
 62
     7
100
AcDbMText
 10
199.58342
 20
65.1298565505
 30
0.0
 40
2.0
 41
0.0
 71
     1
 72
     1
  1
ＧＣＹＬ－２０Ｘ４０
  7
SLDTEXTSTYLE7
 73
     1
 44
1.0
  0
MTEXT
  5
2FD
330
1F
100
AcDbEntity
  8
SLD-0
 62
     7
100
AcDbMText
 10
199.87933
 20
60.2965705505
 30
0.0
 40
2.0
 41
0.0
 71
     1
 72
     1
  1
ＳＴＡＲＴＥＣＨＮＯ
  7
SLDTEXTSTYLE7
 73
     1
 44
1.0
  0
MTEXT
  5
2FF
330
1F
100
AcDbEntity
  8
SLD-0
 62
     7
100
AcDbMText
 10
336.523909
 20
47.4807802496
 30
0.0
 40
4.8000002
 41
0.0
 71
     1
 72
     1
  1
コンテナシリンダーガイド付
  7
SLDTEXTSTYLE8
 73
     1
 44
1.0
  0
MTEXT
  5
301
330
1F
100
AcDbEntity
  8
SLD-0
 62
     7
100
AcDbMText
 10
359.49541
 20
40.9566895369
 30
0.0
 40
3.2
 41
0.0
 71
     1
 72
     1
  1
（複動型）
  7
SLDTEXTSTYLE9
 73
     1
 44
1.0
  0
MTEXT
  5
303
330
1F
100
AcDbEntity
  8
SLD-0
 62
     7
100
AcDbMText
 10
344.216791
 20
32.5300252496
 30
0.0
 40
4.8000002
 41
0.0
 71
     1
 72
     1
  1
ＧＣＹＬ－２０ｘ４０
  7
SLDTEXTSTYLE10
 73
     1
 44
1.0
  0
MTEXT
  5
305
330
1F
100
AcDbEntity
  8
SLD-0
 62
     7
100
AcDbMText
 10
355.870468
 20
19.7150914496
 30
0.0
 40
4.8000002
 41
0.0
 71
     1
 72
     1
  1
０６０４９７
  7
SLDTEXTSTYLE11
 73
     1
 44
1.0
  0
INSERT
  5
306
330
1F
100
AcDbEntity
  8
0
  6
Continuous
 62
     7
370
     0
100
AcDbBlockReference
  2
KOZU0001
 10
309.530746
 20
117.25265
 30
0.0
  0
INSERT
  5
307
330
1F
100
AcDbEntity
  8
0
  6
Continuous
 62
     7
370
     0
100
AcDbBlockReference
  2
KOZU0002
 10
216.23354
 20
48.176286
 30
0.0
  0
INSERT
  5
308
330
1F
100
AcDbEntity
  8
0
  6
Continuous
 62
     7
370
     0
100
AcDbBlockReference
  2
KOZU0003
 10
182.8575
 20
169.47132
 30
0.0
  0
INSERT
  5
309
330
1F
100
AcDbEntity
  8
0
  6
Continuous
 62
     7
370
     0
100
AcDbBlockReference
  2
KOZU0004
 10
173.54661
 20
136.81419
 30
0.0
  0
INSERT
  5
30A
330
1F
100
AcDbEntity
  8
0
  6
Continuous
 62
     7
370
     0
100
AcDbBlockReference
  2
KOZU0005
 10
147.23782
 20
172.62933
 30
0.0
  0
INSERT
  5
30B
330
1F
100
AcDbEntity
  8
0
  6
Continuous
 62
     7
370
     0
100
AcDbBlockReference
  2
KOZU0006
 10
88.76577
 20
118.82081
 30
0.0
  0
INSERT
  5
30C
330
1F
100
AcDbEntity
  8
0
  6
Continuous
 62
     7
370
     0
100
AcDbBlockReference
  2
KOZU0007
 10
312.344984
 20
149.23653
 30
0.0
  0
ENDSEC
  0
SECTION
  2
OBJECTS
  0
DICTIONARY
  5
C
330
0
100
AcDbDictionary
281
     1
  3
ACAD_GROUP
350
D
  3
ACAD_LAYOUT
350
1A
  3
ACAD_MLINESTYLE
350
17
  3
ACAD_PLOTSETTINGS
350
19
  3
ACAD_PLOTSTYLENAME
350
E
  0
DICTIONARY
  5
D
102
{ACAD_REACTORS
330
C
102
}
330
C
100
AcDbDictionary
281
     1
  0
DICTIONARY
  5
1A
102
{ACAD_REACTORS
330
C
102
}
330
C
100
AcDbDictionary
281
     1
  3
Layout1
350
1E
  3
Layout2
350
26
  3
Model
350
22
  0
DICTIONARY
  5
17
102
{ACAD_REACTORS
330
C
102
}
330
C
100
AcDbDictionary
281
     1
  3
Standard
350
18
  0
DICTIONARY
  5
19
102
{ACAD_REACTORS
330
C
102
}
330
C
100
AcDbDictionary
281
     1
  0
ACDBDICTIONARYWDFLT
  5
E
102
{ACAD_REACTORS
330
C
102
}
330
C
100
AcDbDictionary
281
     1
  3
Normal
350
F
100
AcDbDictionaryWithDefault
340
F
  0
LAYOUT
  5
1E
102
{ACAD_REACTORS
330
1A
102
}
330
1A
100
AcDbPlotSettings
  1

  2

  4

  6

 40
0.0
 41
0.0
 42
0.0
 43
0.0
 44
0.0
 45
0.0
 46
0.0
 47
0.0
 48
0.0
 49
0.0
140
0.0
141
0.0
142
1.0
143
1.0
 70
   688
 72
     0
 73
     0
 74
     5
  7

 75
    16
147
1.0
148
0.0
149
0.0
100
AcDbLayout
  1
Layout1
 70
     1
 71
     1
 10
0.0
 20
0.0
 11
0.0
 21
0.0
 12
0.0
 22
0.0
 32
0.0
 14
0.0
 24
0.0
 34
0.0
 15
0.0
 25
0.0
 35
0.0
146
0.0
 13
0.0
 23
0.0
 33
0.0
 16
1.0
 26
0.0
 36
0.0
 17
0.0
 27
1.0
 37
0.0
 76
     0
330
1B
  0
LAYOUT
  5
26
102
{ACAD_REACTORS
330
1A
102
}
330
1A
100
AcDbPlotSettings
  1

  2

  4

  6

 40
0.0
 41
0.0
 42
0.0
 43
0.0
 44
0.0
 45
0.0
 46
0.0
 47
0.0
 48
0.0
 49
0.0
140
0.0
141
0.0
142
1.0
143
1.0
 70
   688
 72
     0
 73
     0
 74
     5
  7

 75
    16
147
1.0
148
0.0
149
0.0
100
AcDbLayout
  1
Layout2
 70
     1
 71
     2
 10
0.0
 20
0.0
 11
0.0
 21
0.0
 12
0.0
 22
0.0
 32
0.0
 14
0.0
 24
0.0
 34
0.0
 15
0.0
 25
0.0
 35
0.0
146
0.0
 13
0.0
 23
0.0
 33
0.0
 16
1.0
 26
0.0
 36
0.0
 17
0.0
 27
1.0
 37
0.0
 76
     0
330
23
  0
LAYOUT
  5
22
102
{ACAD_REACTORS
330
1A
102
}
330
1A
100
AcDbPlotSettings
  1

  2

  4

  6

 40
0.0
 41
0.0
 42
0.0
 43
0.0
 44
0.0
 45
0.0
 46
0.0
 47
0.0
 48
0.0
 49
0.0
140
0.0
141
0.0
142
1.0
143
1.0
 70
  1712
 72
     0
 73
     0
 74
     0
  7

 75
     0
147
1.0
148
0.0
149
0.0
100
AcDbLayout
  1
Model
 70
     1
 71
     0
 10
0.0
 20
0.0
 11
0.0
 21
0.0
 12
0.0
 22
0.0
 32
0.0
 14
0.0
 24
0.0
 34
0.0
 15
420.0
 25
297.0
 35
0.0
146
0.0
 13
0.0
 23
0.0
 33
0.0
 16
1.0
 26
0.0
 36
0.0
 17
0.0
 27
1.0
 37
0.0
 76
     0
330
1F
  0
MLINESTYLE
  5
18
102
{ACAD_REACTORS
330
17
102
}
330
17
100
AcDbMlineStyle
  2
Standard
 70
     0
  3

 62
   256
 51
90.0
 52
90.0
 71
     2
 49
0.5
 62
   256
  6
BYLAYER
 49
-0.5
 62
   256
  6
BYLAYER
  0
ACDBPLACEHOLDER
  5
F
102
{ACAD_REACTORS
330
E
102
}
330
E
  0
ENDSEC
  0
EOF
