  0
SECTION
  2
HEADER
  9
$EXTMAX
 10
0
 20
420
 30
0
  9
$EXTMIN
 10
-594
 20
0
 30
0
  9
$LIMMAX
 10
0
 20
420
  9
$LIMMIN
 10
-594
 20
0
  9
$PLIMMAX
 10
0
 20
420
  9
$PLIMMIN
 10
-594
 20
0
  9
$PEXTMAX
 10
0
 20
420
 30
0
  9
$PEXTMIN
 10
-594
 20
0
 30
0
  9
$TEXTSIZE
 40
3.2
  9
$DIMSHO
 70
     0
  9
$DIMASZ
 40
1.0
  9
$DIMTAD
 70
     1
  9
$DIMTIH
 70
     0
  9
$DIMTOH
 70
     0
  9
$DIMEXE
 40
2.54
  9
$DIMEXO
 40
2.54
  9
$DIMTVP
 40
1.0
  9
$DIMSAH
 70
     1
  9
$DIMDLE
 40
0.0
  9
$DIMTXT
 40
3.2
  9
$DIMGAP
 40
1.6
  0
ENDSEC
  0
SECTION
  2
TABLES
  0
TABLE
  2
LTYPE
 70
     39
  0
LTYPE
  2
CONTINUOUS
 70
    64
  3
Solid line
 72
    65
 73
     0
 40
0.0
  0
LTYPE
  2
ACAD_ISO02W100
 70
     0
  3
ISO dash __ __ __ __ __ __ __ __ __ __ __ __ __
 72
    65
 73
     2
 40
15.0
 49
12.0
 49
-3.0
  0
LTYPE
  2
ACAD_ISO03W100
 70
     0
  3
ISO dash space __    __    __    __    __    __
 72
    65
 73
     2
 40
30.0
 49
12.0
 49
-18.0
  0
LTYPE
  2
ACAD_ISO04W100
 70
     0
  3
ISO long-dash dot ____ . ____ . ____ . ____ . _
 72
    65
 73
     4
 40
30.0
 49
24.0
 49
-3.0
 49
0.0
 49
-3.0
  0
LTYPE
  2
ACAD_ISO05W100
 70
     0
  3
ISO long-dash double-dot ____ .. ____ .. ____ .
 72
    65
 73
     6
 40
33.0
 49
24.0
 49
-3.0
 49
0.0
 49
-3.0
 49
0.0
 49
-3.0
  0
LTYPE
  2
ACAD_ISO06W100
 70
     0
  3
ISO long-dash triple-dot ____ ... ____ ... ____
 72
    65
 73
     8
 40
36.0
 49
24.0
 49
-3.0
 49
0.0
 49
-3.0
 49
0.0
 49
-3.0
 49
0.0
 49
-3.0
  0
LTYPE
  2
ACAD_ISO07W100
 70
     0
  3
ISO dot . . . . . . . . . . . . . . . . . . . .
 72
    65
 73
     2
 40
3.0
 49
0.0
 49
-3.0
  0
LTYPE
  2
ACAD_ISO08W100
 70
     0
  3
ISO long-dash short-dash ____ __ ____ __ ____ _
 72
    65
 73
     4
 40
36.0
 49
24.0
 49
-3.0
 49
6.0
 49
-3.0
  0
LTYPE
  2
ACAD_ISO09W100
 70
     0
  3
ISO long-dash double-short-dash ____ __ __ ____
 72
    65
 73
     6
 40
45.0
 49
24.0
 49
-3.0
 49
6.0
 49
-3.0
 49
6.0
 49
-3.0
  0
LTYPE
  2
ACAD_ISO10W100
 70
     0
  3
ISO dash dot __ . __ . __ . __ . __ . __ . __ .
 72
    65
 73
     4
 40
18.0
 49
12.0
 49
-3.0
 49
0.0
 49
-3.0
  0
LTYPE
  2
ACAD_ISO11W100
 70
     0
  3
ISO double-dash dot __ __ . __ __ . __ __ . __ 
 72
    65
 73
     6
 40
33.0
 49
12.0
 49
-3.0
 49
12.0
 49
-3.0
 49
0.0
 49
-3.0
  0
LTYPE
  2
ACAD_ISO12W100
 70
     0
  3
ISO dash double-dot __ . . __ . . __ . . __ . .
 72
    65
 73
     6
 40
21.0
 49
12.0
 49
-3.0
 49
0.0
 49
-3.0
 49
0.0
 49
-3.0
  0
LTYPE
  2
ACAD_ISO13W100
 70
     0
  3
ISO double-dash double-dot __ __ . . __ __ . . 
 72
    65
 73
     8
 40
36.0
 49
12.0
 49
-3.0
 49
12.0
 49
-3.0
 49
0.0
 49
-3.0
 49
0.0
 49
-3.0
  0
LTYPE
  2
ACAD_ISO14W100
 70
     0
  3
ISO dash triple-dot __ . . . __ . . . __ . . . 
 72
    65
 73
     8
 40
24.0
 49
12.0
 49
-3.0
 49
0.0
 49
-3.0
 49
0.0
 49
-3.0
 49
0.0
 49
-3.0
  0
LTYPE
  2
ACAD_ISO15W100
 70
     0
  3
ISO double-dash triple-dot __ __ . . . __ __ . 
 72
    65
 73
    10
 40
39.0
 49
12.0
 49
-3.0
 49
12.0
 49
-3.0
 49
0.0
 49
-3.0
 49
0.0
 49
-3.0
 49
0.0
 49
-3.0
  0
LTYPE
  2
BORDER
 70
    64
  3
Border __ __ . __ __ . __ __ . __ __ . __ __ .
 72
    65
 73
     6
 40
3.5
 49
1.0
 49
-0.5
 49
1.0
 49
-0.5
 49
0.0
 49
-0.5
  0
LTYPE
  2
BORDER2
 70
    64
  3
Border (.5x) __.__.__.__.__.__.__.__.__.__.__.
 72
    65
 73
     6
 40
1.75
 49
0.5
 49
-0.25
 49
0.5
 49
-0.25
 49
0.0
 49
-0.25
  0
LTYPE
  2
BORDERX2
 70
    64
  3
Border (2x) ____  ____  .  ____  ____  .  ___
 72
    65
 73
     6
 40
7.0
 49
2.0
 49
-1.0
 49
2.0
 49
-1.0
 49
0.0
 49
-1.0
  0
LTYPE
  2
CENTER
 70
    64
  3
Center ____ _ ____ _ ____ _ ____ _ ____ _ ____
 72
    65
 73
     4
 40
12.0
 49
7.5
 49
-1.5
 49
1.5
 49
-1.5
  0
LTYPE
  2
CENTER2
 70
    64
  3
Center (.5x) ___ _ ___ _ ___ _ ___ _ ___ _ ___
 72
    65
 73
     4
 40
6.0
 49
3.75
 49
-0.75
 49
0.75
 49
-0.75
  0
LTYPE
  2
CENTERX2
 70
    64
  3
Center (2x) ________  __  ________  __  _____
 72
    65
 73
     4
 40
24.0
 49
15.0
 49
-3.0
 49
3.0
 49
-3.0
  0
LTYPE
  2
DASHDOT
 70
    64
  3
Dash dot __ . __ . __ . __ . __ . __ . __ . __
 72
    65
 73
     4
 40
6.0
 49
3.0
 49
-1.5
 49
0.0
 49
-1.5
  0
LTYPE
  2
DASHDOT2
 70
    64
  3
Dash dot (.5x) _._._._._._._._._._._._._._._.
 72
    65
 73
     4
 40
3.0
 49
1.5
 49
-0.75
 49
0.0
 49
-0.75
  0
LTYPE
  2
DASHDOTX2
 70
    64
  3
Dash dot (2x) ____  .  ____  .  ____  .  ___
 72
    65
 73
     4
 40
12.0
 49
6.0
 49
-3.0
 49
0.0
 49
-3.0
  0
LTYPE
  2
DASHED
 70
    64
  3
Dashed __ __ __ __ __ __ __ __ __ __ __ __ __ _
 72
    65
 73
     2
 40
4.5
 49
3.0
 49
-1.5
  0
LTYPE
  2
DASHED2
 70
    64
  3
Dashed (.5x) _ _ _ _ _ _ _ _ _ _ _ _ _ _ _ _ _
 72
    65
 73
     2
 40
2.25
 49
1.5
 49
-0.75
  0
LTYPE
  2
DASHEDX2
 70
    64
  3
Dashed (2x) ____  ____  ____  ____  ____  ___
 72
    65
 73
     2
 40
9.0
 49
6.0
 49
-3.0
  0
LTYPE
  2
DIVIDE
 70
    64
  3
Divide ____ . . ____ . . ____ . . ____ . . ____
 72
    65
 73
     6
 40
7.5
 49
3.0
 49
-1.5
 49
0.0
 49
-1.5
 49
0.0
 49
-1.5
  0
LTYPE
  2
DIVIDE2
 70
    64
  3
Divide (.5x) __..__..__..__..__..__..__..__.._
 72
    65
 73
     6
 40
3.75
 49
1.5
 49
-0.75
 49
0.0
 49
-0.75
 49
0.0
 49
-0.75
  0
LTYPE
  2
DIVIDEX2
 70
    64
  3
Divide (2x) ________  .  .  ________  .  .  _
 72
    65
 73
     6
 40
15.0
 49
6.0
 49
-3.0
 49
0.0
 49
-3.0
 49
0.0
 49
-3.0
  0
LTYPE
  2
DOT
 70
    64
  3
Dot . . . . . . . . . . . . . . . . . . . . . .
 72
    65
 73
     2
 40
1.5
 49
0.0
 49
-1.5
  0
LTYPE
  2
DOT2
 70
    64
  3
Dot (.5x) .....................................
 72
    65
 73
     2
 40
0.75
 49
0.0
 49
-0.75
  0
LTYPE
  2
DOTX2
 70
    64
  3
Dot (2x) .  .  .  .  .  .  .  .  .  .  .  .  . 
 72
    65
 73
     2
 40
3.0
 49
0.0
 49
-3.0
  0
LTYPE
  2
HIDDEN
 70
    64
  3
Hidden __ __ __ __ __ __ __ __ __ __ __ __ __ _
 72
    65
 73
     2
 40
4.5
 49
3.0
 49
-1.5
  0
LTYPE
  2
HIDDEN2
 70
    64
  3
Hidden (.5x) _ _ _ _ _ _ _ _ _ _ _ _ _ _ _ _ _
 72
    65
 73
     2
 40
2.25
 49
1.5
 49
-0.75
  0
LTYPE
  2
HIDDENX2
 70
    64
  3
Hidden (2x) ____ ____ ____ ____ ____ ____ ____
 72
    65
 73
     2
 40
9.0
 49
6.0
 49
-3.0
  0
LTYPE
  2
PHANTOM
 70
    64
  3
Phantom ______  __  __  ______  __  __  ______
 72
    65
 73
     6
 40
15.0
 49
7.5
 49
-1.5
 49
1.5
 49
-1.5
 49
1.5
 49
-1.5
  0
LTYPE
  2
PHANTOM2
 70
    64
  3
Phantom (.5x) ___ _ _ ___ _ _ ___ _ _ ___ _ _
 72
    65
 73
     6
 40
7.5
 49
3.75
 49
-0.75
 49
0.75
 49
-0.75
 49
0.75
 49
-0.75
  0
LTYPE
  2
PHANTOMX2
 70
    64
  3
Phantom (2x) ____________    ____    ____   _
 72
    65
 73
     6
 40
30.0
 49
15.0
 49
-3.0
 49
3.0
 49
-3.0
 49
3.0
 49
-3.0
  0
ENDTAB
  0
TABLE
  2
LAYER
 70
     1
  0
LAYER
  2
0
 70
     0
 62
     7
  6
CONTINUOUS
  0
ENDTAB
  0
TABLE
  2
STYLE
 70
     1
  0
STYLE
  2
STANDARD
 70
     0
 40
0.0
 41
1.0
 50
0.0
 71
     0
 42
0.2
  3
txt
  4
BIGFONT
  0
ENDTAB
  0
TABLE
  2
DIMSTYLE
 70
     0
  0
ENDTAB
  0
ENDSEC
  0
SECTION
  2
BLOCKS
  0
BLOCK
  8
0
  2
KOZU0001
 70
    64
 10
0
 20
0
  0
LINE
  8
0
  6
CONTINUOUS
 62
     7
 10
0
 20
0
 11
12.323751
 21
-10.357195
  0
LINE
  8
0
  6
CONTINUOUS
 62
     7
 10
0
 20
0
 11
2.9400162
 21
-1.1646048
  0
LINE
  8
0
  6
CONTINUOUS
 62
     7
 10
0
 20
0
 11
1.6532501
 21
-2.6956936
  0
TEXT
  8
0
  6
CONTINUOUS
 62
     7
 10
16.384238
 20
-9.5571964
 40
3.2
 41
0.8430696
  1
有接点オートスイッチ（ＳＭＣ）
  0
TEXT
  8
0
  6
CONTINUOUS
 62
     7
 10
16.384238
 20
-15.173197
 40
3.2
 41
0.8430696
  1
Ｄ－Ａ９３　２ヶ（オプション）
  0
LINE
  8
0
  6
CONTINUOUS
 62
     7
 10
0
 20
0
 11
12.323751
 21
-10.357195
  0
LINE
  8
0
  6
CONTINUOUS
 62
     7
 10
12.32375
 20
-10.357196
 11
65.298239
 21
-10.357196
  0
ENDBLK
  8
0
  0
BLOCK
  8
0
  2
KOZU0002
 70
    64
 10
0
 20
0
  0
LINE
  8
0
  6
CONTINUOUS
 62
     7
 10
0
 20
0
 11
7.7165711
 21
-13.665491
  0
LINE
  8
0
  6
CONTINUOUS
 62
     7
 10
0
 20
0
 11
2.3458641
 21
-2.1205946
  0
LINE
  8
0
  6
CONTINUOUS
 62
     7
 10
0
 20
0
 11
0.60433447
 21
-3.1039941
  0
TEXT
  8
0
  6
CONTINUOUS
 62
     7
 10
11.699863
 20
-12.865497
 40
3.2
 41
0.85127004
  1
４－Ｍ５
  0
LINE
  8
0
  6
CONTINUOUS
 62
     7
 10
0
 20
0
 11
7.7165711
 21
-13.665491
  0
LINE
  8
0
  6
CONTINUOUS
 62
     7
 10
7.7165729
 20
-13.665497
 11
25.413869
 21
-13.665497
  0
ENDBLK
  8
0
  0
BLOCK
  8
0
  2
KOZU0003
 70
    64
 10
0
 20
0
  0
LINE
  8
0
  6
CONTINUOUS
 62
     7
 10
0
 20
0
 11
-11.539219
 21
15.088128
  0
LINE
  8
0
  6
CONTINUOUS
 62
     7
 10
0
 20
0
 11
-2.6168001
 21
1.7754878
  0
LINE
  8
0
  6
CONTINUOUS
 62
     7
 10
0
 20
0
 11
-1.0281474
 21
2.9904703
  0
TEXT
  8
0
  6
CONTINUOUS
 62
     7
 10
-38.119433
 20
15.888146
 40
3.2
 41
0.84741101
  1
２ｘ２－Ｍ５
  0
TEXT
  8
0
  6
CONTINUOUS
 62
     7
 10
-38.119433
 20
10.272146
 40
3.2
 41
0.84556539
  1
取付ネジ（両側）
  0
LINE
  8
0
  6
CONTINUOUS
 62
     7
 10
0
 20
0
 11
-11.539219
 21
15.088128
  0
LINE
  8
0
  6
CONTINUOUS
 62
     7
 10
-11.539239
 20
15.088146
 11
-39.947411
 21
15.088146
  0
ENDBLK
  8
0
  0
BLOCK
  8
0
  2
KOZU0004
 70
    64
 10
0
 20
0
  0
LINE
  8
0
  6
CONTINUOUS
 62
     7
 10
0
 20
0
 11
-21.351987
 21
34.827955
  0
LINE
  8
0
  6
CONTINUOUS
 62
     7
 10
0
 20
0
 11
-2.4205346
 21
2.0349476
  0
LINE
  8
0
  6
CONTINUOUS
 62
     7
 10
0
 20
0
 11
-0.71545911
 21
3.0802789
  0
TEXT
  8
0
  6
CONTINUOUS
 62
     7
 10
-74.091838
 20
35.627965
 40
3.2
 41
0.8430696
  1
４－Ｍ６深１２（裏側ヨリ加工）
  0
TEXT
  8
0
  6
CONTINUOUS
 62
     7
 10
-74.091838
 20
30.011965
 40
3.2
 41
0.84289512
  1
４－%%C５．２　%%C９ザグリ深５．５
  0
LINE
  8
0
  6
CONTINUOUS
 62
     7
 10
0
 20
0
 11
-21.351987
 21
34.827955
  0
LINE
  8
0
  6
CONTINUOUS
 62
     7
 10
-21.351982
 20
34.827965
 11
-75.919823
 21
34.827965
  0
ENDBLK
  8
0
  0
BLOCK
  8
0
  2
KOZU0005
 70
    64
 10
0
 20
0
  0
LINE
  8
0
  6
CONTINUOUS
 62
     7
 10
0
 20
0
 11
15.380072
 21
-21.325609
  0
LINE
  8
0
  6
CONTINUOUS
 62
     7
 10
0
 20
0
 11
2.5659116
 21
-1.8482687
  0
LINE
  8
0
  6
CONTINUOUS
 62
     7
 10
0
 20
0
 11
0.94376805
 21
-3.018162
  0
TEXT
  8
0
  6
CONTINUOUS
 62
     7
 10
19.184093
 20
-20.525605
 40
3.2
 41
0.85127004
  1
２－Ｍ５
  0
TEXT
  8
0
  6
CONTINUOUS
 62
     7
 10
19.184093
 20
-26.141605
 40
3.2
 41
0.85537026
  1
配管用
  0
LINE
  8
0
  6
CONTINUOUS
 62
     7
 10
0
 20
0
 11
15.380072
 21
-21.325609
  0
LINE
  8
0
  6
CONTINUOUS
 62
     7
 10
15.380063
 20
-21.325605
 11
32.898091
 21
-21.325605
  0
ENDBLK
  8
0
  0
BLOCK
  8
0
  2
KOZU0006
 70
    64
 10
0
 20
0
  0
LINE
  8
0
  6
CONTINUOUS
 62
     7
 10
0
 20
0
 11
-4.6504164
 21
13.052831
  0
LINE
  8
0
  6
CONTINUOUS
 62
     7
 10
0
 20
0
 11
-1.9488375
 21
2.4903879
  0
LINE
  8
0
  6
CONTINUOUS
 62
     7
 10
0
 20
0
 11
-0.064837275
 21
3.1616129
  0
TEXT
  8
0
  6
CONTINUOUS
 62
     7
 10
-20.167949
 20
13.852852
 40
3.2
 41
0.85127004
  1
４－Ｍ５
  0
LINE
  8
0
  6
CONTINUOUS
 62
     7
 10
0
 20
0
 11
-4.6504164
 21
13.052831
  0
LINE
  8
0
  6
CONTINUOUS
 62
     7
 10
-4.6504193
 20
13.052852
 11
-21.995939
 21
13.052852
  0
ENDBLK
  8
0
  0
ENDSEC
  0
SECTION
  2
ENTITIES
  0
LINE
  8
0
  6
CONTINUOUS
 62
     7
 10
-339.21225
 20
97.642372
 11
-308.21225
 21
97.642372
  0
LINE
  8
0
  6
CONTINUOUS
 62
     7
 10
-339.21225
 20
175.64238
 11
-308.21225
 21
175.64238
  0
LINE
  8
0
  6
CENTER
 62
     7
 10
-323.71225
 20
175.18237
 11
-323.71225
 21
98.102379
  0
LINE
  8
0
  6
CENTER
 62
     7
 10
-311.17227
 20
136.64238
 11
-336.25223
 21
136.64238
  0
LINE
  8
0
  6
CENTER
 62
     7
 10
-312.17227
 20
163.64238
 11
-335.25223
 21
163.64238
  0
LINE
  8
0
  6
CENTER
 62
     7
 10
-312.17227
 20
109.64237
 11
-335.25223
 21
109.64237
  0
LINE
  8
0
  6
CONTINUOUS
 62
     7
 10
-310.71225
 20
171.64238
 11
-310.71225
 21
101.64237
  0
LINE
  8
0
  6
CONTINUOUS
 62
     7
 10
-336.71225
 20
171.64238
 11
-336.71225
 21
101.64237
  0
LINE
  8
0
  6
CONTINUOUS
 62
     7
 10
-334.71225
 20
99.642372
 11
-312.71225
 21
99.642372
  0
LINE
  8
0
  6
CONTINUOUS
 62
     7
 10
-334.71225
 20
173.64238
 11
-312.71225
 21
173.64238
  0
LINE
  8
0
  6
CONTINUOUS
 62
     7
 10
-104.2464
 20
175.64238
 11
-74.781044
 21
175.64238
  0
LINE
  8
0
  6
CONTINUOUS
 62
     7
 10
-104.24639
 20
97.642372
 11
-74.781044
 21
97.642372
  0
LINE
  8
0
  6
CENTER
 62
     7
 10
-76.013718
 20
102.64239
 11
-83.013718
 21
102.64239
  0
LINE
  8
0
  6
CENTER
 62
     7
 10
-89.513718
 20
175.18237
 11
-89.513718
 21
152.10237
  0
LINE
  8
0
  6
CENTER
 62
     7
 10
-102.05373
 20
136.64238
 11
-76.97374
 21
136.64238
  0
LINE
  8
0
  6
CENTER
 62
     7
 10
-101.05373
 20
163.64238
 11
-77.97374
 21
163.64238
  0
LINE
  8
0
  6
CENTER
 62
     7
 10
-89.513718
 20
98.102379
 11
-89.513718
 21
121.18238
  0
LINE
  8
0
  6
CENTER
 62
     7
 10
-101.05373
 20
109.64237
 11
-77.97374
 21
109.64237
  0
LINE
  8
0
  6
CENTER
 62
     7
 10
-89.513718
 20
149.18237
 11
-89.513718
 21
124.10238
  0
LINE
  8
0
  6
CENTER
 62
     7
 10
-103.01372
 20
170.64238
 11
-96.013718
 21
170.64238
  0
LINE
  8
0
  6
CENTER
 62
     7
 10
-79.513718
 20
174.14238
 11
-79.513718
 21
167.14238
  0
LINE
  8
0
  6
CENTER
 62
     7
 10
-99.513718
 20
174.14238
 11
-99.513718
 21
167.14238
  0
LINE
  8
0
  6
CENTER
 62
     7
 10
-76.013718
 20
170.64238
 11
-83.013718
 21
170.64238
  0
LINE
  8
0
  6
CENTER
 62
     7
 10
-79.513718
 20
99.142387
 11
-79.513718
 21
106.14239
  0
LINE
  8
0
  6
CENTER
 62
     7
 10
-326.67227
 20
168.64238
 11
-336.75223
 21
168.64238
  0
LINE
  8
0
  6
CENTER
 62
     7
 10
-320.75223
 20
104.64237
 11
-310.67227
 21
104.64237
  0
LINE
  8
0
  6
CENTER
 62
     7
 10
-326.67227
 20
104.64237
 11
-336.75223
 21
104.64237
  0
LINE
  8
0
  6
CENTER
 62
     7
 10
-320.75223
 20
168.64238
 11
-310.67227
 21
168.64238
  0
LINE
  8
0
  6
CENTER
 62
     7
 10
-315.71225
 20
173.68237
 11
-315.71225
 21
163.60237
  0
LINE
  8
0
  6
CENTER
 62
     7
 10
-331.71225
 20
173.68237
 11
-331.71225
 21
163.60237
  0
LINE
  8
0
  6
CENTER
 62
     7
 10
-331.71225
 20
99.602379
 11
-331.71225
 21
109.68238
  0
LINE
  8
0
  6
CENTER
 62
     7
 10
-315.71225
 20
99.602379
 11
-315.71225
 21
109.68238
  0
LINE
  8
0
  6
CONTINUOUS
 62
     7
 10
-107.01372
 20
128.64238
 11
-107.01372
 21
117.80647
  0
LINE
  8
0
  6
CONTINUOUS
 62
     7
 10
-105.51372
 20
139.29507
 11
-105.51372
 21
133.99509
  0
LINE
  8
0
  6
DASHED
 62
     7
 10
-146.64252
 20
215.90953
 11
-146.64252
 21
220.90953
  0
LINE
  8
0
  6
CONTINUOUS
 62
     7
 10
-233.64252
 20
210.90953
 11
-146.64252
 21
210.90953
  0
LINE
  8
0
  6
CONTINUOUS
 62
     7
 10
-233.64252
 20
245.90956
 11
-146.64252
 21
245.90956
  0
LINE
  8
0
  6
CONTINUOUS
 62
     7
 10
-233.64252
 20
210.90953
 11
-233.64252
 21
245.90956
  0
LINE
  8
0
  6
CONTINUOUS
 62
     7
 10
-146.64252
 20
210.90953
 11
-146.64252
 21
245.90956
  0
LINE
  8
0
  6
CENTER
 62
     7
 10
-233.6825
 20
240.40953
 11
-223.60251
 21
240.40953
  0
LINE
  8
0
  6
CENTER
 62
     7
 10
-228.64252
 20
235.36955
 11
-228.64252
 21
245.94954
  0
LINE
  8
0
  6
CENTER
 62
     7
 10
-233.6825
 20
216.40953
 11
-223.60251
 21
216.40953
  0
LINE
  8
0
  6
CENTER
 62
     7
 10
-228.64252
 20
210.86955
 11
-228.64252
 21
221.44954
  0
LINE
  8
0
  6
CONTINUOUS
 62
     7
 10
-240.6425
 20
215.40953
 11
-240.6425
 21
241.40953
  0
LINE
  8
0
  6
CONTINUOUS
 62
     7
 10
-250.6425
 20
215.40953
 11
-250.6425
 21
241.40953
  0
LINE
  8
0
  6
CONTINUOUS
 62
     7
 10
-250.6425
 20
215.40953
 11
-240.6425
 21
215.40953
  0
LINE
  8
0
  6
CONTINUOUS
 62
     7
 10
-250.6425
 20
241.40953
 11
-240.6425
 21
241.40953
  0
LINE
  8
0
  6
CENTER
 62
     7
 10
-250.3425
 20
228.40953
 11
-146.64252
 21
228.40953
  0
LINE
  8
0
  6
CONTINUOUS
 62
     7
 10
-240.6425
 20
222.40953
 11
-233.94252
 21
222.40953
  0
LINE
  8
0
  6
CONTINUOUS
 62
     7
 10
-240.6425
 20
234.40953
 11
-233.94252
 21
234.40953
  0
LINE
  8
0
  6
CONTINUOUS
 62
     7
 10
-105.21373
 20
139.59238
 11
-104.02452
 21
139.59238
  0
LINE
  8
0
  6
CENTER
 62
     7
 10
-107.01372
 20
141.09238
 11
-98.913712
 21
141.09238
  0
LINE
  8
0
  6
CENTER
 62
     7
 10
-102.51372
 20
136.83853
 11
-102.51372
 21
144.69238
  0
LINE
  8
0
  6
CONTINUOUS
 62
     7
 10
-105.21373
 20
142.59238
 11
-104.02452
 21
142.59238
  0
LINE
  8
0
  6
CONTINUOUS
 62
     7
 10
-105.21373
 20
130.69238
 11
-104.02452
 21
130.69238
  0
LINE
  8
0
  6
CENTER
 62
     7
 10
-102.51372
 20
136.44623
 11
-102.51372
 21
128.59238
  0
LINE
  8
0
  6
CENTER
 62
     7
 10
-107.01372
 20
132.19238
 11
-98.913712
 21
132.19238
  0
LINE
  8
0
  6
CONTINUOUS
 62
     7
 10
-105.21373
 20
133.69238
 11
-104.02452
 21
133.69238
  0
LINE
  8
0
  6
CONTINUOUS
 62
     7
 10
-107.01372
 20
144.64238
 11
-106.51372
 21
144.64238
  0
LINE
  8
0
  6
CONTINUOUS
 62
     7
 10
-105.51372
 20
143.64238
 11
-105.51372
 21
142.88968
  0
LINE
  8
0
  6
CONTINUOUS
 62
     7
 10
-107.01372
 20
128.64238
 11
-106.51372
 21
128.64238
  0
LINE
  8
0
  6
CONTINUOUS
 62
     7
 10
-105.51372
 20
139.29507
 11
-105.51372
 21
133.98969
  0
LINE
  8
0
  6
CONTINUOUS
 62
     7
 10
-105.51372
 20
130.39508
 11
-105.51372
 21
129.64238
  0
LINE
  8
0
  6
CONTINUOUS
 62
     7
 10
-73.513718
 20
139.29507
 11
-73.513718
 21
133.98969
  0
LINE
  8
0
  6
CONTINUOUS
 62
     7
 10
-73.513718
 20
130.39508
 11
-73.513718
 21
129.64238
  0
LINE
  8
0
  6
CONTINUOUS
 62
     7
 10
-72.013718
 20
128.64238
 11
-72.513718
 21
128.64238
  0
LINE
  8
0
  6
CONTINUOUS
 62
     7
 10
-73.513718
 20
143.64238
 11
-73.513718
 21
142.88968
  0
LINE
  8
0
  6
CONTINUOUS
 62
     7
 10
-73.813705
 20
133.69238
 11
-75.002914
 21
133.69238
  0
LINE
  8
0
  6
CONTINUOUS
 62
     7
 10
-73.513718
 20
139.29507
 11
-73.513718
 21
133.99509
  0
LINE
  8
0
  6
CENTER
 62
     7
 10
-76.513718
 20
136.44623
 11
-76.513718
 21
128.59238
  0
LINE
  8
0
  6
CONTINUOUS
 62
     7
 10
-73.813705
 20
130.69238
 11
-75.002914
 21
130.69238
  0
LINE
  8
0
  6
CONTINUOUS
 62
     7
 10
-72.013718
 20
144.64238
 11
-72.513718
 21
144.64238
  0
LINE
  8
0
  6
CONTINUOUS
 62
     7
 10
-73.813705
 20
142.59238
 11
-75.002914
 21
142.59238
  0
LINE
  8
0
  6
CENTER
 62
     7
 10
-76.513718
 20
136.83853
 11
-76.513718
 21
144.69238
  0
LINE
  8
0
  6
CENTER
 62
     7
 10
-72.013718
 20
141.09238
 11
-80.113724
 21
141.09238
  0
LINE
  8
0
  6
CONTINUOUS
 62
     7
 10
-73.813705
 20
139.59238
 11
-75.002914
 21
139.59238
  0
LINE
  8
0
  6
CENTER
 62
     7
 10
-72.013718
 20
132.19238
 11
-80.113724
 21
132.19238
  0
LINE
  8
0
  6
CONTINUOUS
 62
     7
 10
-107.01372
 20
105.10647
 11
-105.21232
 21
98.383548
  0
LINE
  8
0
  6
CONTINUOUS
 62
     7
 10
-107.01372
 20
168.17831
 11
-105.21233
 21
174.9012
  0
LINE
  8
0
  6
CONTINUOUS
 62
     7
 10
-106.81372
 20
107.10647
 11
-106.71372
 21
107.10647
  0
LINE
  8
0
  6
CONTINUOUS
 62
     7
 10
-106.81372
 20
108.60647
 11
-106.71372
 21
108.60647
  0
LINE
  8
0
  6
CONTINUOUS
 62
     7
 10
-106.81372
 20
110.10647
 11
-106.71372
 21
110.10647
  0
LINE
  8
0
  6
CONTINUOUS
 62
     7
 10
-106.81372
 20
111.60647
 11
-106.71372
 21
111.60647
  0
LINE
  8
0
  6
CONTINUOUS
 62
     7
 10
-106.81372
 20
113.10647
 11
-106.71372
 21
113.10647
  0
LINE
  8
0
  6
CONTINUOUS
 62
     7
 10
-106.81372
 20
114.60647
 11
-106.71372
 21
114.60647
  0
LINE
  8
0
  6
CONTINUOUS
 62
     7
 10
-106.81372
 20
116.10647
 11
-106.71372
 21
116.10647
  0
LINE
  8
0
  6
CONTINUOUS
 62
     7
 10
-106.81372
 20
117.60647
 11
-106.71372
 21
117.60647
  0
LINE
  8
0
  6
CONTINUOUS
 62
     7
 10
-106.51372
 20
108.40647
 11
-106.51372
 21
107.30647
  0
LINE
  8
0
  6
CONTINUOUS
 62
     7
 10
-106.51372
 20
111.40647
 11
-106.51372
 21
110.30647
  0
LINE
  8
0
  6
CONTINUOUS
 62
     7
 10
-106.51372
 20
114.40647
 11
-106.51372
 21
113.30647
  0
LINE
  8
0
  6
CONTINUOUS
 62
     7
 10
-106.51372
 20
117.40647
 11
-106.51372
 21
116.30647
  0
LINE
  8
0
  6
CONTINUOUS
 62
     7
 10
-107.01372
 20
115.90647
 11
-107.01372
 21
114.80647
  0
LINE
  8
0
  6
CONTINUOUS
 62
     7
 10
-107.01372
 20
112.90647
 11
-107.01372
 21
111.80647
  0
LINE
  8
0
  6
CONTINUOUS
 62
     7
 10
-107.01372
 20
109.90647
 11
-107.01372
 21
108.80647
  0
LINE
  8
0
  6
CONTINUOUS
 62
     7
 10
-107.01372
 20
106.90647
 11
-107.01372
 21
105.10647
  0
LINE
  8
0
  6
CONTINUOUS
 62
     7
 10
-107.01372
 20
144.64238
 11
-107.01372
 21
155.4783
  0
LINE
  8
0
  6
CONTINUOUS
 62
     7
 10
-107.01372
 20
157.3783
 11
-107.01372
 21
158.4783
  0
LINE
  8
0
  6
CONTINUOUS
 62
     7
 10
-107.01372
 20
166.3783
 11
-107.01372
 21
168.1783
  0
LINE
  8
0
  6
CONTINUOUS
 62
     7
 10
-107.01372
 20
163.3783
 11
-107.01372
 21
164.4783
  0
LINE
  8
0
  6
CONTINUOUS
 62
     7
 10
-107.01372
 20
160.3783
 11
-107.01372
 21
161.4783
  0
LINE
  8
0
  6
CONTINUOUS
 62
     7
 10
-106.51372
 20
155.8783
 11
-106.51372
 21
156.9783
  0
LINE
  8
0
  6
CONTINUOUS
 62
     7
 10
-106.51372
 20
158.8783
 11
-106.51372
 21
159.9783
  0
LINE
  8
0
  6
CONTINUOUS
 62
     7
 10
-106.51372
 20
161.8783
 11
-106.51372
 21
162.9783
  0
LINE
  8
0
  6
CONTINUOUS
 62
     7
 10
-106.51372
 20
164.8783
 11
-106.51372
 21
165.9783
  0
LINE
  8
0
  6
CONTINUOUS
 62
     7
 10
-106.81372
 20
155.6783
 11
-106.71372
 21
155.6783
  0
LINE
  8
0
  6
CONTINUOUS
 62
     7
 10
-106.81372
 20
160.1783
 11
-106.71372
 21
160.1783
  0
LINE
  8
0
  6
CONTINUOUS
 62
     7
 10
-106.81372
 20
157.1783
 11
-106.71372
 21
157.1783
  0
LINE
  8
0
  6
CONTINUOUS
 62
     7
 10
-106.81372
 20
158.6783
 11
-106.71372
 21
158.6783
  0
LINE
  8
0
  6
CONTINUOUS
 62
     7
 10
-106.81372
 20
161.6783
 11
-106.71372
 21
161.6783
  0
LINE
  8
0
  6
CONTINUOUS
 62
     7
 10
-106.81372
 20
166.1783
 11
-106.71372
 21
166.1783
  0
LINE
  8
0
  6
CONTINUOUS
 62
     7
 10
-106.81372
 20
163.1783
 11
-106.71372
 21
163.1783
  0
LINE
  8
0
  6
CONTINUOUS
 62
     7
 10
-106.81372
 20
164.6783
 11
-106.71372
 21
164.6783
  0
LINE
  8
0
  6
CONTINUOUS
 62
     7
 10
-312.71225
 20
99.642387
 11
-310.71226
 21
101.64238
  0
LINE
  8
0
  6
CONTINUOUS
 62
     7
 10
-336.71224
 20
101.64238
 11
-334.71224
 21
99.642376
  0
LINE
  8
0
  6
CONTINUOUS
 62
     7
 10
-336.71224
 20
171.64238
 11
-334.71224
 21
173.64238
  0
LINE
  8
0
  6
CONTINUOUS
 62
     7
 10
-312.71225
 20
173.64239
 11
-310.71225
 21
171.64239
  0
LINE
  8
0
  6
CONTINUOUS
 62
     7
 10
-72.013718
 20
144.64238
 11
-72.013718
 21
155.4783
  0
LINE
  8
0
  6
CONTINUOUS
 62
     7
 10
-72.013722
 20
168.1783
 11
-73.815116
 21
174.9012
  0
LINE
  8
0
  6
CONTINUOUS
 62
     7
 10
-72.013717
 20
105.10647
 11
-73.815119
 21
98.383549
  0
LINE
  8
0
  6
CONTINUOUS
 62
     7
 10
-72.013718
 20
128.64238
 11
-72.013718
 21
117.80647
  0
LINE
  8
0
  6
CONTINUOUS
 62
     7
 10
-341.21227
 20
168.17831
 11
-339.21227
 21
175.64241
  0
LINE
  8
0
  6
CONTINUOUS
 62
     7
 10
-341.21225
 20
157.3783
 11
-341.21225
 21
158.4783
  0
LINE
  8
0
  6
CONTINUOUS
 62
     7
 10
-341.21225
 20
166.3783
 11
-341.21225
 21
168.1783
  0
LINE
  8
0
  6
CONTINUOUS
 62
     7
 10
-341.21225
 20
160.3783
 11
-341.21225
 21
161.4783
  0
LINE
  8
0
  6
CONTINUOUS
 62
     7
 10
-340.71225
 20
155.8783
 11
-340.71225
 21
156.9783
  0
LINE
  8
0
  6
CONTINUOUS
 62
     7
 10
-340.71225
 20
158.8783
 11
-340.71225
 21
159.9783
  0
LINE
  8
0
  6
CONTINUOUS
 62
     7
 10
-340.71225
 20
161.8783
 11
-340.71225
 21
165.9783
  0
LINE
  8
0
  6
CONTINUOUS
 62
     7
 10
-341.01224
 20
155.6783
 11
-340.91226
 21
155.6783
  0
LINE
  8
0
  6
CONTINUOUS
 62
     7
 10
-341.01224
 20
160.1783
 11
-340.91226
 21
160.1783
  0
LINE
  8
0
  6
CONTINUOUS
 62
     7
 10
-341.01224
 20
157.1783
 11
-340.91226
 21
157.1783
  0
LINE
  8
0
  6
CONTINUOUS
 62
     7
 10
-341.01224
 20
158.6783
 11
-340.91226
 21
158.6783
  0
LINE
  8
0
  6
CONTINUOUS
 62
     7
 10
-341.01224
 20
161.6783
 11
-340.91226
 21
161.6783
  0
LINE
  8
0
  6
CONTINUOUS
 62
     7
 10
-341.01224
 20
166.1783
 11
-340.91226
 21
166.1783
  0
LINE
  8
0
  6
CONTINUOUS
 62
     7
 10
-306.41226
 20
166.1783
 11
-306.51224
 21
166.1783
  0
LINE
  8
0
  6
CONTINUOUS
 62
     7
 10
-306.41226
 20
164.6783
 11
-306.51224
 21
164.6783
  0
LINE
  8
0
  6
CONTINUOUS
 62
     7
 10
-306.41226
 20
163.1783
 11
-306.51224
 21
163.1783
  0
LINE
  8
0
  6
CONTINUOUS
 62
     7
 10
-306.41226
 20
161.6783
 11
-306.51224
 21
161.6783
  0
LINE
  8
0
  6
CONTINUOUS
 62
     7
 10
-306.71225
 20
164.8783
 11
-306.71225
 21
165.9783
  0
LINE
  8
0
  6
CONTINUOUS
 62
     7
 10
-306.41226
 20
158.6783
 11
-306.51224
 21
158.6783
  0
LINE
  8
0
  6
CONTINUOUS
 62
     7
 10
-306.41226
 20
157.1783
 11
-306.51224
 21
157.1783
  0
LINE
  8
0
  6
CONTINUOUS
 62
     7
 10
-306.41226
 20
160.1783
 11
-306.51224
 21
160.1783
  0
LINE
  8
0
  6
CONTINUOUS
 62
     7
 10
-306.41226
 20
155.6783
 11
-306.51224
 21
155.6783
  0
LINE
  8
0
  6
CONTINUOUS
 62
     7
 10
-306.71225
 20
161.8783
 11
-306.71225
 21
162.9783
  0
LINE
  8
0
  6
CONTINUOUS
 62
     7
 10
-306.71225
 20
158.8783
 11
-306.71225
 21
159.9783
  0
LINE
  8
0
  6
CONTINUOUS
 62
     7
 10
-306.71225
 20
155.8783
 11
-306.71225
 21
156.9783
  0
LINE
  8
0
  6
CONTINUOUS
 62
     7
 10
-306.21225
 20
163.3783
 11
-306.21225
 21
164.4783
  0
LINE
  8
0
  6
CONTINUOUS
 62
     7
 10
-306.21225
 20
160.3783
 11
-306.21225
 21
161.4783
  0
LINE
  8
0
  6
CONTINUOUS
 62
     7
 10
-306.21225
 20
166.3783
 11
-306.21225
 21
168.1783
  0
LINE
  8
0
  6
CONTINUOUS
 62
     7
 10
-306.21225
 20
157.3783
 11
-306.21225
 21
158.4783
  0
LINE
  8
0
  6
CONTINUOUS
 62
     7
 10
-306.21224
 20
168.1783
 11
-308.21224
 21
175.64241
  0
LINE
  8
0
  6
CENTER
 62
     7
 10
-323.71225
 20
98.102394
 11
-323.71225
 21
175.18239
  0
LINE
  8
0
  6
CONTINUOUS
 62
     7
 10
-341.21226
 20
105.10648
 11
-339.21225
 21
97.642369
  0
LINE
  8
0
  6
CONTINUOUS
 62
     7
 10
-341.21225
 20
115.90647
 11
-341.21225
 21
114.80647
  0
LINE
  8
0
  6
CONTINUOUS
 62
     7
 10
-341.21225
 20
106.90647
 11
-341.21225
 21
105.10647
  0
LINE
  8
0
  6
CONTINUOUS
 62
     7
 10
-341.21225
 20
112.90647
 11
-341.21225
 21
111.80647
  0
LINE
  8
0
  6
CONTINUOUS
 62
     7
 10
-340.71225
 20
117.40647
 11
-340.71225
 21
116.30647
  0
LINE
  8
0
  6
CONTINUOUS
 62
     7
 10
-340.71225
 20
114.40647
 11
-340.71225
 21
113.30647
  0
LINE
  8
0
  6
CONTINUOUS
 62
     7
 10
-340.71225
 20
111.40647
 11
-340.71225
 21
107.30647
  0
LINE
  8
0
  6
CONTINUOUS
 62
     7
 10
-341.01224
 20
117.60647
 11
-340.91226
 21
117.60647
  0
LINE
  8
0
  6
CONTINUOUS
 62
     7
 10
-341.01224
 20
113.10647
 11
-340.91226
 21
113.10647
  0
LINE
  8
0
  6
CONTINUOUS
 62
     7
 10
-341.01224
 20
116.10647
 11
-340.91226
 21
116.10647
  0
LINE
  8
0
  6
CONTINUOUS
 62
     7
 10
-341.01224
 20
114.60647
 11
-340.91226
 21
114.60647
  0
LINE
  8
0
  6
CONTINUOUS
 62
     7
 10
-341.01224
 20
111.60647
 11
-340.91226
 21
111.60647
  0
LINE
  8
0
  6
CONTINUOUS
 62
     7
 10
-341.01224
 20
107.10647
 11
-340.91226
 21
107.10647
  0
LINE
  8
0
  6
CONTINUOUS
 62
     7
 10
-306.41226
 20
107.10647
 11
-306.51224
 21
107.10647
  0
LINE
  8
0
  6
CONTINUOUS
 62
     7
 10
-306.41226
 20
108.60647
 11
-306.51224
 21
108.60647
  0
LINE
  8
0
  6
CONTINUOUS
 62
     7
 10
-306.41226
 20
110.10647
 11
-306.51224
 21
110.10647
  0
LINE
  8
0
  6
CONTINUOUS
 62
     7
 10
-306.41226
 20
111.60647
 11
-306.51224
 21
111.60647
  0
LINE
  8
0
  6
CONTINUOUS
 62
     7
 10
-306.71225
 20
108.40647
 11
-306.71225
 21
107.30647
  0
LINE
  8
0
  6
CONTINUOUS
 62
     7
 10
-306.41226
 20
114.60647
 11
-306.51224
 21
114.60647
  0
LINE
  8
0
  6
CONTINUOUS
 62
     7
 10
-306.41226
 20
116.10647
 11
-306.51224
 21
116.10647
  0
LINE
  8
0
  6
CONTINUOUS
 62
     7
 10
-306.41226
 20
113.10647
 11
-306.51224
 21
113.10647
  0
LINE
  8
0
  6
CONTINUOUS
 62
     7
 10
-306.41226
 20
117.60647
 11
-306.51224
 21
117.60647
  0
LINE
  8
0
  6
CONTINUOUS
 62
     7
 10
-306.71225
 20
111.40647
 11
-306.71225
 21
110.30647
  0
LINE
  8
0
  6
CONTINUOUS
 62
     7
 10
-306.71225
 20
114.40647
 11
-306.71225
 21
113.30647
  0
LINE
  8
0
  6
CONTINUOUS
 62
     7
 10
-306.71225
 20
117.40647
 11
-306.71225
 21
116.30647
  0
LINE
  8
0
  6
CONTINUOUS
 62
     7
 10
-306.21225
 20
109.90647
 11
-306.21225
 21
108.80647
  0
LINE
  8
0
  6
CONTINUOUS
 62
     7
 10
-306.21225
 20
112.90647
 11
-306.21225
 21
111.80647
  0
LINE
  8
0
  6
CONTINUOUS
 62
     7
 10
-306.21225
 20
106.90647
 11
-306.21225
 21
105.10647
  0
LINE
  8
0
  6
CONTINUOUS
 62
     7
 10
-306.21225
 20
115.90647
 11
-306.21225
 21
114.80647
  0
LINE
  8
0
  6
CONTINUOUS
 62
     7
 10
-306.21227
 20
105.10648
 11
-308.21227
 21
97.642377
  0
LINE
  8
0
  6
CONTINUOUS
 62
     7
 10
-341.21225
 20
155.4783
 11
-341.21225
 21
144.64238
  0
LINE
  8
0
  6
CONTINUOUS
 62
     7
 10
-306.21225
 20
155.4783
 11
-306.21225
 21
144.64238
  0
LINE
  8
0
  6
CONTINUOUS
 62
     7
 10
-339.41226
 20
130.69238
 11
-338.22305
 21
130.69238
  0
LINE
  8
0
  6
CONTINUOUS
 62
     7
 10
-339.71225
 20
139.29507
 11
-339.71225
 21
133.99509
  0
LINE
  8
0
  6
CONTINUOUS
 62
     7
 10
-339.41226
 20
133.69238
 11
-338.22305
 21
133.69238
  0
LINE
  8
0
  6
CONTINUOUS
 62
     7
 10
-339.71225
 20
143.64238
 11
-339.71225
 21
142.88968
  0
LINE
  8
0
  6
CONTINUOUS
 62
     7
 10
-307.71225
 20
143.64238
 11
-307.71225
 21
142.88968
  0
LINE
  8
0
  6
CONTINUOUS
 62
     7
 10
-307.71225
 20
130.39508
 11
-307.71225
 21
129.64238
  0
LINE
  8
0
  6
CONTINUOUS
 62
     7
 10
-306.21225
 20
128.64238
 11
-306.71225
 21
128.64238
  0
LINE
  8
0
  6
CONTINUOUS
 62
     7
 10
-341.21225
 20
128.64238
 11
-340.71225
 21
128.64238
  0
LINE
  8
0
  6
CONTINUOUS
 62
     7
 10
-308.01224
 20
133.69238
 11
-309.20145
 21
133.69238
  0
LINE
  8
0
  6
CONTINUOUS
 62
     7
 10
-308.01224
 20
130.69238
 11
-309.20145
 21
130.69238
  0
LINE
  8
0
  6
CONTINUOUS
 62
     7
 10
-306.21225
 20
144.64238
 11
-306.71225
 21
144.64238
  0
LINE
  8
0
  6
CONTINUOUS
 62
     7
 10
-308.01224
 20
142.59238
 11
-309.20145
 21
142.59238
  0
LINE
  8
0
  6
CONTINUOUS
 62
     7
 10
-308.01224
 20
139.59238
 11
-309.20145
 21
139.59238
  0
LINE
  8
0
  6
CONTINUOUS
 62
     7
 10
-339.71225
 20
130.39508
 11
-339.71225
 21
129.64238
  0
LINE
  8
0
  6
CONTINUOUS
 62
     7
 10
-341.21225
 20
144.64238
 11
-340.71225
 21
144.64238
  0
LINE
  8
0
  6
CONTINUOUS
 62
     7
 10
-339.41226
 20
142.59238
 11
-338.22305
 21
142.59238
  0
LINE
  8
0
  6
CONTINUOUS
 62
     7
 10
-339.41226
 20
139.59238
 11
-338.22305
 21
139.59238
  0
LINE
  8
0
  6
CONTINUOUS
 62
     7
 10
-341.21225
 20
128.64238
 11
-341.21225
 21
117.80647
  0
LINE
  8
0
  6
CONTINUOUS
 62
     7
 10
-306.21225
 20
128.64238
 11
-306.21225
 21
117.80647
  0
LINE
  8
0
  6
CONTINUOUS
 62
     7
 10
-233.64252
 20
243.90956
 11
-146.64252
 21
243.90956
  0
LINE
  8
0
  6
CONTINUOUS
 62
     7
 10
-233.64252
 20
212.90953
 11
-146.64252
 21
212.90953
  0
LINE
  8
0
  6
CONTINUOUS
 62
     7
 10
-250.6425
 20
239.40953
 11
-240.6425
 21
239.40953
  0
LINE
  8
0
  6
CONTINUOUS
 62
     7
 10
-250.6425
 20
217.40953
 11
-240.6425
 21
217.40953
  0
LINE
  8
0
  6
CONTINUOUS
 62
     7
 10
-240.6425
 20
39.358448
 11
-233.94252
 21
39.358448
  0
LINE
  8
0
  6
CONTINUOUS
 62
     7
 10
-240.6425
 20
51.35844
 11
-233.94252
 21
51.35844
  0
LINE
  8
0
  6
CENTER
 62
     7
 10
-313.05734
 20
45.358448
 11
-146.64252
 21
45.358448
  0
LINE
  8
0
  6
CONTINUOUS
 62
     7
 10
-250.6425
 20
32.358448
 11
-240.6425
 21
32.358448
  0
LINE
  8
0
  6
CONTINUOUS
 62
     7
 10
-250.6425
 20
58.35844
 11
-240.6425
 21
58.35844
  0
LINE
  8
0
  6
CONTINUOUS
 62
     7
 10
-250.6425
 20
58.35844
 11
-250.6425
 21
32.358448
  0
LINE
  8
0
  6
CONTINUOUS
 62
     7
 10
-240.6425
 20
58.35844
 11
-240.6425
 21
32.358448
  0
LINE
  8
0
  6
CENTER
 62
     7
 10
-228.64252
 20
38.398441
 11
-228.64252
 21
27.818445
  0
LINE
  8
0
  6
CENTER
 62
     7
 10
-233.6825
 20
33.358448
 11
-223.60251
 21
33.358448
  0
LINE
  8
0
  6
CONTINUOUS
 62
     7
 10
-146.64252
 20
62.85844
 11
-146.64252
 21
27.858446
  0
LINE
  8
0
  6
CONTINUOUS
 62
     7
 10
-233.64252
 20
62.85844
 11
-233.64252
 21
27.858446
  0
LINE
  8
0
  6
CONTINUOUS
 62
     7
 10
-233.64252
 20
27.858446
 11
-146.64252
 21
27.858446
  0
LINE
  8
0
  6
CONTINUOUS
 62
     7
 10
-233.64252
 20
62.858448
 11
-146.64252
 21
62.858448
  0
LINE
  8
0
  6
CENTER
 62
     7
 10
-181.58252
 20
57.358448
 11
-168.70251
 21
57.358448
  0
LINE
  8
0
  6
CONTINUOUS
 62
     7
 10
-177.45192
 20
53.358448
 11
-172.83311
 21
53.358448
  0
LINE
  8
0
  6
CONTINUOUS
 62
     7
 10
-218.33312
 20
53.358449
 11
-216.02372
 21
57.358448
  0
LINE
  8
0
  6
CONTINUOUS
 62
     7
 10
-179.76132
 20
57.358445
 11
-177.45192
 21
61.358444
  0
LINE
  8
0
  6
CONTINUOUS
 62
     7
 10
-172.83311
 20
53.358444
 11
-170.52371
 21
57.358443
  0
LINE
  8
0
  6
CONTINUOUS
 62
     7
 10
-218.33313
 20
61.35845
 11
-216.02373
 21
57.358448
  0
LINE
  8
0
  6
CENTER
 62
     7
 10
-227.08252
 20
57.358448
 11
-214.20251
 21
57.358448
  0
LINE
  8
0
  6
CONTINUOUS
 62
     7
 10
-222.95192
 20
61.358448
 11
-218.33311
 21
61.358448
  0
LINE
  8
0
  6
CENTER
 62
     7
 10
-175.14252
 20
63.798443
 11
-175.14252
 21
50.918446
  0
LINE
  8
0
  6
CONTINUOUS
 62
     7
 10
-177.45192
 20
61.358448
 11
-172.83311
 21
61.358448
  0
LINE
  8
0
  6
CONTINUOUS
 62
     7
 10
-225.26133
 20
57.358449
 11
-222.95193
 21
53.358447
  0
LINE
  8
0
  6
CONTINUOUS
 62
     7
 10
-233.64252
 20
60.858448
 11
-146.64252
 21
60.858448
  0
LINE
  8
0
  6
CONTINUOUS
 62
     7
 10
-233.64252
 20
29.858446
 11
-146.64252
 21
29.858446
  0
LINE
  8
0
  6
CONTINUOUS
 62
     7
 10
-250.6425
 20
56.35844
 11
-240.6425
 21
56.35844
  0
LINE
  8
0
  6
CONTINUOUS
 62
     7
 10
-250.6425
 20
34.358448
 11
-240.6425
 21
34.358448
  0
LINE
  8
0
  6
CONTINUOUS
 62
     7
 10
-172.83313
 20
61.358451
 11
-170.52373
 21
57.358448
  0
LINE
  8
0
  6
CONTINUOUS
 62
     7
 10
-225.26132
 20
57.358449
 11
-222.95192
 21
61.358448
  0
LINE
  8
0
  6
CONTINUOUS
 62
     7
 10
-179.76134
 20
57.35845
 11
-177.45193
 21
53.358448
  0
LINE
  8
0
  6
CENTER
 62
     7
 10
-220.64252
 20
63.798443
 11
-220.64252
 21
50.918446
  0
LINE
  8
0
  6
CONTINUOUS
 62
     7
 10
-222.95192
 20
53.358448
 11
-218.33311
 21
53.358448
  0
LINE
  8
0
  6
CONTINUOUS
 62
     7
 10
-307.71225
 20
139.29509
 11
-307.71225
 21
133.98969
  0
LINE
  8
0
  6
CONTINUOUS
 62
     7
 10
-72.213722
 20
166.1783
 11
-72.313721
 21
166.1783
  0
LINE
  8
0
  6
CONTINUOUS
 62
     7
 10
-72.213722
 20
164.6783
 11
-72.313721
 21
164.6783
  0
LINE
  8
0
  6
CONTINUOUS
 62
     7
 10
-72.213722
 20
163.1783
 11
-72.313721
 21
163.1783
  0
LINE
  8
0
  6
CONTINUOUS
 62
     7
 10
-72.213722
 20
161.6783
 11
-72.313721
 21
161.6783
  0
LINE
  8
0
  6
CONTINUOUS
 62
     7
 10
-72.513718
 20
164.8783
 11
-72.513718
 21
165.9783
  0
LINE
  8
0
  6
CONTINUOUS
 62
     7
 10
-72.213722
 20
158.6783
 11
-72.313721
 21
158.6783
  0
LINE
  8
0
  6
CONTINUOUS
 62
     7
 10
-72.213722
 20
157.1783
 11
-72.313721
 21
157.1783
  0
LINE
  8
0
  6
CONTINUOUS
 62
     7
 10
-72.213722
 20
160.1783
 11
-72.313721
 21
160.1783
  0
LINE
  8
0
  6
CONTINUOUS
 62
     7
 10
-72.213722
 20
155.6783
 11
-72.313721
 21
155.6783
  0
LINE
  8
0
  6
CONTINUOUS
 62
     7
 10
-72.513718
 20
161.8783
 11
-72.513718
 21
162.9783
  0
LINE
  8
0
  6
CONTINUOUS
 62
     7
 10
-72.513718
 20
158.8783
 11
-72.513718
 21
159.9783
  0
LINE
  8
0
  6
CONTINUOUS
 62
     7
 10
-72.513718
 20
155.8783
 11
-72.513718
 21
156.9783
  0
LINE
  8
0
  6
CONTINUOUS
 62
     7
 10
-72.013718
 20
163.3783
 11
-72.013718
 21
164.4783
  0
LINE
  8
0
  6
CONTINUOUS
 62
     7
 10
-72.013718
 20
160.3783
 11
-72.013718
 21
161.4783
  0
LINE
  8
0
  6
CONTINUOUS
 62
     7
 10
-72.013718
 20
166.3783
 11
-72.013718
 21
168.1783
  0
LINE
  8
0
  6
CONTINUOUS
 62
     7
 10
-72.013718
 20
157.3783
 11
-72.013718
 21
158.4783
  0
LINE
  8
0
  6
CONTINUOUS
 62
     7
 10
-72.213722
 20
110.10647
 11
-72.313721
 21
110.10647
  0
LINE
  8
0
  6
CONTINUOUS
 62
     7
 10
-72.213722
 20
116.10647
 11
-72.313721
 21
116.10647
  0
LINE
  8
0
  6
CONTINUOUS
 62
     7
 10
-72.213722
 20
108.60647
 11
-72.313721
 21
108.60647
  0
LINE
  8
0
  6
CONTINUOUS
 62
     7
 10
-72.213722
 20
114.60647
 11
-72.313721
 21
114.60647
  0
LINE
  8
0
  6
CONTINUOUS
 62
     7
 10
-72.513718
 20
111.40647
 11
-72.513718
 21
110.30647
  0
LINE
  8
0
  6
CONTINUOUS
 62
     7
 10
-72.513718
 20
108.40647
 11
-72.513718
 21
107.30647
  0
LINE
  8
0
  6
CONTINUOUS
 62
     7
 10
-72.513718
 20
114.40647
 11
-72.513718
 21
113.30647
  0
LINE
  8
0
  6
CONTINUOUS
 62
     7
 10
-72.213722
 20
107.10647
 11
-72.313721
 21
107.10647
  0
LINE
  8
0
  6
CONTINUOUS
 62
     7
 10
-72.213722
 20
111.60647
 11
-72.313721
 21
111.60647
  0
LINE
  8
0
  6
CONTINUOUS
 62
     7
 10
-72.213722
 20
117.60647
 11
-72.313721
 21
117.60647
  0
LINE
  8
0
  6
CONTINUOUS
 62
     7
 10
-72.213722
 20
113.10647
 11
-72.313721
 21
113.10647
  0
LINE
  8
0
  6
CONTINUOUS
 62
     7
 10
-72.513718
 20
117.40647
 11
-72.513718
 21
116.30647
  0
LINE
  8
0
  6
CONTINUOUS
 62
     7
 10
-72.013718
 20
115.90647
 11
-72.013718
 21
114.80647
  0
LINE
  8
0
  6
CONTINUOUS
 62
     7
 10
-72.013718
 20
106.90647
 11
-72.013718
 21
105.10647
  0
LINE
  8
0
  6
CONTINUOUS
 62
     7
 10
-72.013718
 20
112.90647
 11
-72.013718
 21
111.80647
  0
LINE
  8
0
  6
CONTINUOUS
 62
     7
 10
-72.013718
 20
109.90647
 11
-72.013718
 21
108.80647
  0
LINE
  8
0
  6
CENTER
 62
     7
 10
-99.513718
 20
107.68238
 11
-99.513718
 21
97.602386
  0
LINE
  8
0
  6
CENTER
 62
     7
 10
-104.55372
 20
102.64239
 11
-94.473717
 21
102.64239
  0
LINE
  8
0
  6
PHANTOM
 62
     7
 10
-290.64252
 20
39.358448
 11
-253.64252
 21
39.358448
  0
LINE
  8
0
  6
PHANTOM
 62
     7
 10
-290.64252
 20
51.35844
 11
-253.64252
 21
51.35844
  0
LINE
  8
0
  6
PHANTOM
 62
     7
 10
-300.64252
 20
32.358448
 11
-290.64252
 21
32.358448
  0
LINE
  8
0
  6
PHANTOM
 62
     7
 10
-300.64252
 20
58.35844
 11
-290.64252
 21
58.35844
  0
LINE
  8
0
  6
PHANTOM
 62
     7
 10
-300.64252
 20
58.35844
 11
-300.64252
 21
32.358448
  0
LINE
  8
0
  6
PHANTOM
 62
     7
 10
-290.64252
 20
58.35844
 11
-290.64252
 21
32.358448
  0
LINE
  8
0
  6
PHANTOM
 62
     7
 10
-300.64252
 20
56.35844
 11
-290.64252
 21
56.35844
  0
LINE
  8
0
  6
PHANTOM
 62
     7
 10
-300.64252
 20
34.358448
 11
-290.64252
 21
34.358448
  0
LINE
  8
0
  6
CENTER
 62
     7
 10
-211.64252
 20
155.68237
 11
-211.64252
 21
145.60237
  0
LINE
  8
0
  6
CENTER
 62
     7
 10
-174.64252
 20
155.68237
 11
-174.64252
 21
145.60237
  0
LINE
  8
0
  6
CENTER
 62
     7
 10
-179.6825
 20
150.64238
 11
-169.60251
 21
150.64238
  0
LINE
  8
0
  6
CENTER
 62
     7
 10
-216.6825
 20
150.64238
 11
-206.60251
 21
150.64238
  0
LINE
  8
0
  6
CONTINUOUS
 62
     7
 10
-233.64252
 20
144.64238
 11
-146.64252
 21
144.64238
  0
LINE
  8
0
  6
CONTINUOUS
 62
     7
 10
-233.64252
 20
142.59238
 11
-146.64252
 21
142.59238
  0
LINE
  8
0
  6
CONTINUOUS
 62
     7
 10
-233.64252
 20
139.59238
 11
-146.64252
 21
139.59238
  0
LINE
  8
0
  6
CENTER
 62
     7
 10
-211.64252
 20
116.64239
 11
-211.64252
 21
128.64238
  0
LINE
  8
0
  6
CENTER
 62
     7
 10
-180.64252
 20
122.64239
 11
-168.64252
 21
122.64239
  0
LINE
  8
0
  6
CENTER
 62
     7
 10
-174.64252
 20
116.64239
 11
-174.64252
 21
128.64238
  0
LINE
  8
0
  6
CENTER
 62
     7
 10
-218.14252
 20
122.64239
 11
-206.14252
 21
122.64239
  0
LINE
  8
0
  6
CONTINUOUS
 62
     7
 10
-233.64252
 20
157.1783
 11
-146.64252
 21
157.1783
  0
LINE
  8
0
  6
CONTINUOUS
 62
     7
 10
-233.64252
 20
175.64238
 11
-233.64252
 21
97.642372
  0
LINE
  8
0
  6
CONTINUOUS
 62
     7
 10
-233.64252
 20
166.1783
 11
-146.64252
 21
166.1783
  0
LINE
  8
0
  6
CONTINUOUS
 62
     7
 10
-240.6425
 20
115.64237
 11
-233.64252
 21
115.64237
  0
LINE
  8
0
  6
CONTINUOUS
 62
     7
 10
-240.6425
 20
169.64238
 11
-233.64252
 21
169.64238
  0
LINE
  8
0
  6
CENTER
 62
     7
 10
-250.6425
 20
136.64238
 11
-146.64252
 21
136.64238
  0
LINE
  8
0
  6
CONTINUOUS
 62
     7
 10
-146.64252
 20
175.64238
 11
-146.64252
 21
97.642372
  0
LINE
  8
0
  6
CENTER
 62
     7
 10
-269.6088
 20
136.64238
 11
-131.15237
 21
136.64238
  0
LINE
  8
0
  6
CONTINUOUS
 62
     7
 10
-233.64252
 20
175.64238
 11
-146.64252
 21
175.64238
  0
LINE
  8
0
  6
CONTINUOUS
 62
     7
 10
-233.64252
 20
97.642372
 11
-146.64252
 21
97.642372
  0
LINE
  8
0
  6
CENTER
 62
     7
 10
-250.6425
 20
163.64238
 11
-231.21513
 21
163.64238
  0
LINE
  8
0
  6
CONTINUOUS
 62
     7
 10
-240.6425
 20
157.64238
 11
-233.64252
 21
157.64238
  0
LINE
  8
0
  6
CONTINUOUS
 62
     7
 10
-233.64252
 20
164.6783
 11
-146.64252
 21
164.6783
  0
LINE
  8
0
  6
CONTINUOUS
 62
     7
 10
-233.64252
 20
155.6783
 11
-146.64252
 21
155.6783
  0
LINE
  8
0
  6
CONTINUOUS
 62
     7
 10
-250.6425
 20
173.64238
 11
-250.6425
 21
99.642372
  0
LINE
  8
0
  6
CONTINUOUS
 62
     7
 10
-250.6425
 20
173.64238
 11
-240.6425
 21
173.64238
  0
LINE
  8
0
  6
CONTINUOUS
 62
     7
 10
-250.6425
 20
99.642372
 11
-240.6425
 21
99.642372
  0
LINE
  8
0
  6
CONTINUOUS
 62
     7
 10
-240.6425
 20
103.64237
 11
-233.64252
 21
103.64237
  0
LINE
  8
0
  6
CENTER
 62
     7
 10
-250.6425
 20
109.64237
 11
-231.81007
 21
109.64237
  0
LINE
  8
0
  6
CONTINUOUS
 62
     7
 10
-233.64252
 20
168.1783
 11
-146.64252
 21
168.1783
  0
LINE
  8
0
  6
CENTER
 62
     7
 10
-250.68248
 20
153.64238
 11
-240.60249
 21
153.64238
  0
LINE
  8
0
  6
CONTINUOUS
 62
     7
 10
-233.64252
 20
141.64238
 11
-240.6425
 21
141.64238
  0
LINE
  8
0
  6
CONTINUOUS
 62
     7
 10
-233.64252
 20
131.64238
 11
-240.6425
 21
131.64238
  0
LINE
  8
0
  6
CONTINUOUS
 62
     7
 10
-233.64252
 20
133.64238
 11
-240.6425
 21
133.64238
  0
LINE
  8
0
  6
CONTINUOUS
 62
     7
 10
-233.64252
 20
139.64238
 11
-240.6425
 21
139.64238
  0
LINE
  8
0
  6
CONTINUOUS
 62
     7
 10
-233.64251
 20
139.02701
 11
-240.64252
 21
133.64239
  0
LINE
  8
0
  6
CONTINUOUS
 62
     7
 10
-240.64251
 20
139.64239
 11
-233.64252
 21
134.25777
  0
LINE
  8
0
  6
CONTINUOUS
 62
     7
 10
-240.6425
 20
173.64238
 11
-240.6425
 21
99.642372
  0
LINE
  8
0
  6
CONTINUOUS
 62
     7
 10
-174.54251
 20
127.14239
 11
-174.69247
 21
127.14239
  0
LINE
  8
0
  6
CENTER
 62
     7
 10
-245.6425
 20
158.68237
 11
-245.6425
 21
148.60237
  0
LINE
  8
0
  6
CENTER
 62
     7
 10
-245.6425
 20
114.60239
 11
-245.6425
 21
124.6824
  0
LINE
  8
0
  6
CENTER
 62
     7
 10
-250.68248
 20
119.64239
 11
-240.60249
 21
119.64239
  0
LINE
  8
0
  6
CONTINUOUS
 62
     7
 10
-212.64252
 20
154.64238
 11
-212.64252
 21
155.04239
  0
LINE
  8
0
  6
CONTINUOUS
 62
     7
 10
-233.64252
 20
110.10647
 11
-146.64252
 21
110.10647
  0
LINE
  8
0
  6
CONTINUOUS
 62
     7
 10
-233.64252
 20
113.10647
 11
-146.64252
 21
113.10647
  0
LINE
  8
0
  6
CONTINUOUS
 62
     7
 10
-233.64252
 20
114.60647
 11
-146.64252
 21
114.60647
  0
LINE
  8
0
  6
CONTINUOUS
 62
     7
 10
-233.64252
 20
111.60647
 11
-146.64252
 21
111.60647
  0
LINE
  8
0
  6
CONTINUOUS
 62
     7
 10
-233.64252
 20
133.69238
 11
-146.64252
 21
133.69238
  0
LINE
  8
0
  6
CONTINUOUS
 62
     7
 10
-233.64252
 20
116.10647
 11
-146.64252
 21
116.10647
  0
LINE
  8
0
  6
CONTINUOUS
 62
     7
 10
-233.64252
 20
128.64238
 11
-146.64252
 21
128.64238
  0
LINE
  8
0
  6
CONTINUOUS
 62
     7
 10
-233.64252
 20
108.60647
 11
-146.64252
 21
108.60647
  0
LINE
  8
0
  6
CONTINUOUS
 62
     7
 10
-233.64252
 20
130.69238
 11
-146.64252
 21
130.69238
  0
LINE
  8
0
  6
CONTINUOUS
 62
     7
 10
-233.64252
 20
107.10647
 11
-146.64252
 21
107.10647
  0
LINE
  8
0
  6
CONTINUOUS
 62
     7
 10
-233.64252
 20
161.6783
 11
-146.64252
 21
161.6783
  0
LINE
  8
0
  6
CONTINUOUS
 62
     7
 10
-233.64252
 20
160.1783
 11
-146.64252
 21
160.1783
  0
LINE
  8
0
  6
CONTINUOUS
 62
     7
 10
-233.64252
 20
158.6783
 11
-146.64252
 21
158.6783
  0
LINE
  8
0
  6
CONTINUOUS
 62
     7
 10
-233.64252
 20
163.1783
 11
-146.64252
 21
163.1783
  0
LINE
  8
0
  6
CONTINUOUS
 62
     7
 10
-233.64252
 20
105.10647
 11
-146.64252
 21
105.10647
  0
LINE
  8
0
  6
CONTINUOUS
 62
     7
 10
-233.64252
 20
117.60647
 11
-146.64252
 21
117.60647
  0
LINE
  8
0
  6
CENTER
 62
     7
 10
-76.53624
 20
136.64238
 11
-102.87128
 21
136.64238
  0
LINE
  8
0
  6
CENTER
 62
     7
 10
-89.513718
 20
124.70914
 11
-89.513718
 21
149.70844
  0
LINE
  8
0
  6
CONTINUOUS
 62
     7
 10
-92.41948
 20
127.07386
 11
-91.913543
 21
129.02849
  0
LINE
  8
0
  6
CONTINUOUS
 62
     7
 10
-86.607959
 20
127.07386
 11
-87.113895
 21
129.02848
  0
LINE
  8
0
  6
CONTINUOUS
 62
     7
 10
-323.71224
 20
111.95176
 11
-321.71226
 21
110.79707
  0
LINE
  8
0
  6
CONTINUOUS
 62
     7
 10
-321.71225
 20
110.79707
 11
-321.71225
 21
108.48767
  0
LINE
  8
0
  6
CONTINUOUS
 62
     7
 10
-321.71225
 20
108.48767
 11
-323.71225
 21
107.33297
  0
LINE
  8
0
  6
CONTINUOUS
 62
     7
 10
-323.71226
 20
107.33297
 11
-325.71224
 21
108.48766
  0
LINE
  8
0
  6
CONTINUOUS
 62
     7
 10
-325.71225
 20
110.79707
 11
-325.71225
 21
108.48767
  0
LINE
  8
0
  6
CONTINUOUS
 62
     7
 10
-323.71225
 20
111.95177
 11
-325.71225
 21
110.79707
  0
LINE
  8
0
  6
CONTINUOUS
 62
     7
 10
-323.71224
 20
165.95178
 11
-321.71225
 21
164.79708
  0
LINE
  8
0
  6
CONTINUOUS
 62
     7
 10
-321.71225
 20
164.79709
 11
-321.71225
 21
162.48769
  0
LINE
  8
0
  6
CONTINUOUS
 62
     7
 10
-321.71224
 20
162.48769
 11
-323.71224
 21
161.33298
  0
LINE
  8
0
  6
CONTINUOUS
 62
     7
 10
-323.71225
 20
161.33298
 11
-325.71224
 21
162.48768
  0
LINE
  8
0
  6
CONTINUOUS
 62
     7
 10
-325.71225
 20
164.79709
 11
-325.71225
 21
162.48769
  0
LINE
  8
0
  6
CONTINUOUS
 62
     7
 10
-323.71224
 20
165.95179
 11
-325.71224
 21
164.79709
  0
LINE
  8
0
  6
CONTINUOUS
 62
     7
 10
-323.71224
 20
138.95178
 11
-325.71224
 21
137.79708
  0
LINE
  8
0
  6
CONTINUOUS
 62
     7
 10
-325.71225
 20
137.79709
 11
-325.71225
 21
135.48769
  0
LINE
  8
0
  6
CONTINUOUS
 62
     7
 10
-323.71225
 20
134.33298
 11
-325.71224
 21
135.48768
  0
LINE
  8
0
  6
CONTINUOUS
 62
     7
 10
-321.71224
 20
135.48768
 11
-323.71224
 21
134.33298
  0
LINE
  8
0
  6
CONTINUOUS
 62
     7
 10
-321.71225
 20
137.79709
 11
-321.71225
 21
135.48769
  0
LINE
  8
0
  6
CONTINUOUS
 62
     7
 10
-323.71224
 20
138.95178
 11
-321.71225
 21
137.79708
  0
LINE
  8
0
  6
CONTINUOUS
 62
     7
 10
-385.79999
 20
0
 11
0
 21
0
  0
LINE
  8
0
  6
CONTINUOUS
 62
     7
 10
0
 20
273
 11
0
 21
0
  0
LINE
  8
0
  6
CONTINUOUS
 62
     7
 10
-385.79999
 20
273
 11
-385.79999
 21
0
  0
LINE
  8
0
  6
CONTINUOUS
 62
     7
 10
-385.79999
 20
273
 11
0
 21
273
  0
LINE
  8
0
  6
CONTINUOUS
 62
     7
 10
-68.5
 20
38.700001
 11
-68.5
 21
0
  0
LINE
  8
0
  6
CONTINUOUS
 62
     7
 10
-68.5
 20
12.7
 11
0
 21
12.7
  0
LINE
  8
0
  6
CONTINUOUS
 62
     7
 10
-68.5
 20
25.200001
 11
0
 21
25.200001
  0
LINE
  8
0
  6
CONTINUOUS
 62
     7
 10
-68.5
 20
38.700001
 11
0
 21
38.700001
  0
LINE
  8
0
  6
CENTER
 62
     7
 10
-215.60251
 20
122.64237
 11
-225.68251
 21
122.64237
  0
LINE
  8
0
  6
CENTER
 62
     7
 10
-220.64252
 20
127.68237
 11
-220.64252
 21
117.60237
  0
LINE
  8
0
  6
CENTER
 62
     7
 10
-151.53552
 20
122.64237
 11
-170.74951
 21
122.64237
  0
LINE
  8
0
  6
CENTER
 62
     7
 10
-156.14252
 20
127.24937
 11
-156.14252
 21
118.03537
  0
LINE
  8
0
  6
CENTER
 62
     7
 10
-173.60252
 20
33.358448
 11
-183.68251
 21
33.358448
  0
LINE
  8
0
  6
CENTER
 62
     7
 10
-178.64252
 20
38.398449
 11
-178.64252
 21
28.318447
  0
LINE
  8
0
  6
CENTER
 62
     7
 10
-173.60252
 20
240.40953
 11
-183.68251
 21
240.40953
  0
LINE
  8
0
  6
CENTER
 62
     7
 10
-178.64252
 20
245.44952
 11
-178.64252
 21
235.36954
  0
LINE
  8
0
  6
CENTER
 62
     7
 10
-173.60252
 20
216.40953
 11
-183.68251
 21
216.40953
  0
LINE
  8
0
  6
CENTER
 62
     7
 10
-178.64252
 20
221.44952
 11
-178.64252
 21
211.36954
  0
LINE
  8
0
  6
CONTINUOUS
 62
     7
 10
-215.14252
 20
50.358448
 11
-175.14252
 21
50.358448
  0
LINE
  8
0
  6
CONTINUOUS
 62
     7
 10
-215.14252
 20
40.358448
 11
-175.14252
 21
40.358448
  0
LINE
  8
0
  6
CONTINUOUS
 62
     7
 10
-215.14252
 20
50.358448
 11
-215.14252
 21
40.358448
  0
LINE
  8
0
  6
CONTINUOUS
 62
     7
 10
-175.14252
 20
50.358448
 11
-175.14252
 21
40.358448
  0
LINE
  8
0
  6
CONTINUOUS
 62
     7
 10
-385.59998
 20
0.2
 11
-0.2
 21
0.2
  0
LINE
  8
0
  6
CONTINUOUS
 62
     7
 10
-385.59998
 20
272.79999
 11
-385.59998
 21
0.2
  0
LINE
  8
0
  6
CONTINUOUS
 62
     7
 10
-385.59998
 20
272.79999
 11
-0.2
 21
272.79999
  0
LINE
  8
0
  6
CONTINUOUS
 62
     7
 10
-0.2
 20
272.79999
 11
-0.2
 21
0.2
  0
CIRCLE
  8
0
  6
CONTINUOUS
 62
     7
 10
-99.513718
 20
170.64238
 40
2.0669999
  0
CIRCLE
  8
0
  6
CONTINUOUS
 62
     7
 10
-99.513718
 20
102.64239
 40
2.5
  0
CIRCLE
  8
0
  6
CONTINUOUS
 62
     7
 10
-89.513718
 20
163.64238
 40
7
  0
CIRCLE
  8
0
  6
CONTINUOUS
 62
     7
 10
-79.513718
 20
102.64239
 40
2.0669999
  0
CIRCLE
  8
0
  6
CONTINUOUS
 62
     7
 10
-89.513718
 20
109.64237
 40
7
  0
CIRCLE
  8
0
  6
CONTINUOUS
 62
     7
 10
-79.513718
 20
102.64239
 40
2.5
  0
CIRCLE
  8
0
  6
CONTINUOUS
 62
     7
 10
-89.513718
 20
136.64238
 40
10
  0
CIRCLE
  8
0
  6
CONTINUOUS
 62
     7
 10
-99.513718
 20
170.64238
 40
2.5
  0
CIRCLE
  8
0
  6
CONTINUOUS
 62
     7
 10
-99.513718
 20
102.64239
 40
2.0669999
  0
CIRCLE
  8
0
  6
CONTINUOUS
 62
     7
 10
-79.513718
 20
170.64238
 40
2.5
  0
CIRCLE
  8
0
  6
CONTINUOUS
 62
     7
 10
-79.513718
 20
170.64238
 40
2.0669999
  0
CIRCLE
  8
0
  6
CONTINUOUS
 62
     7
 10
-315.71225
 20
168.64238
 40
2
  0
CIRCLE
  8
0
  6
CONTINUOUS
 62
     7
 10
-315.71225
 20
168.64238
 40
2.5
  0
CIRCLE
  8
0
  6
CONTINUOUS
 62
     7
 10
-331.71225
 20
168.64238
 40
2
  0
CIRCLE
  8
0
  6
CONTINUOUS
 62
     7
 10
-331.71225
 20
168.64238
 40
2.5
  0
CIRCLE
  8
0
  6
CONTINUOUS
 62
     7
 10
-331.71225
 20
104.64237
 40
2
  0
CIRCLE
  8
0
  6
CONTINUOUS
 62
     7
 10
-331.71225
 20
104.64237
 40
2.5
  0
CIRCLE
  8
0
  6
CONTINUOUS
 62
     7
 10
-315.71225
 20
104.64237
 40
2
  0
CIRCLE
  8
0
  6
CONTINUOUS
 62
     7
 10
-315.71225
 20
104.64237
 40
2.5
  0
CIRCLE
  8
0
  6
CONTINUOUS
 62
     7
 10
-228.64252
 20
240.40953
 40
2
  0
CIRCLE
  8
0
  6
CONTINUOUS
 62
     7
 10
-228.64252
 20
240.40953
 40
2.5
  0
CIRCLE
  8
0
  6
CONTINUOUS
 62
     7
 10
-178.64252
 20
240.40953
 40
2
  0
CIRCLE
  8
0
  6
CONTINUOUS
 62
     7
 10
-178.64252
 20
240.40953
 40
2.5
  0
CIRCLE
  8
0
  6
CONTINUOUS
 62
     7
 10
-178.64252
 20
216.40953
 40
2
  0
CIRCLE
  8
0
  6
CONTINUOUS
 62
     7
 10
-228.64252
 20
216.40953
 40
2
  0
CIRCLE
  8
0
  6
CONTINUOUS
 62
     7
 10
-228.64252
 20
216.40953
 40
2.5
  0
CIRCLE
  8
0
  6
CONTINUOUS
 62
     7
 10
-178.64252
 20
216.40953
 40
2.5
  0
ARC
  8
0
  6
CONTINUOUS
 62
     7
 10
-104.02452
 20
142.89238
 40
0.30000001
 50
270
 51
310.00776
  0
ARC
  8
0
  6
CONTINUOUS
 62
     7
 10
-104.02452
 20
139.29237
 40
0.30000001
 50
49.992245
 51
90.000003
  0
ARC
  8
0
  6
CONTINUOUS
 62
     7
 10
-102.51372
 20
141.09238
 40
2.05
 50
229.99224
 51
130.00776
  0
ARC
  8
0
  6
CONTINUOUS
 62
     7
 10
-105.21373
 20
139.29237
 40
0.30000001
 50
89.999996
 51
180.00001
  0
ARC
  8
0
  6
CONTINUOUS
 62
     7
 10
-105.21373
 20
142.89238
 40
0.30000001
 50
180.00001
 51
270
  0
ARC
  8
0
  6
CONTINUOUS
 62
     7
 10
-105.21373
 20
133.99239
 40
0.30000001
 50
179.99999
 51
270
  0
ARC
  8
0
  6
CONTINUOUS
 62
     7
 10
-102.51372
 20
132.19238
 40
2.05
 50
229.99224
 51
130.00776
  0
ARC
  8
0
  6
CONTINUOUS
 62
     7
 10
-104.02452
 20
133.99239
 40
0.30000001
 50
270
 51
310.00776
  0
ARC
  8
0
  6
CONTINUOUS
 62
     7
 10
-104.02452
 20
130.39238
 40
0.30000001
 50
49.992241
 51
90.000003
  0
ARC
  8
0
  6
CONTINUOUS
 62
     7
 10
-105.21373
 20
130.39238
 40
0.30000001
 50
89.999996
 51
179.99999
  0
ARC
  8
0
  6
CONTINUOUS
 62
     7
 10
-106.51372
 20
143.64238
 40
1
 50
0
 51
90.000003
  0
ARC
  8
0
  6
CONTINUOUS
 62
     7
 10
-106.51372
 20
129.64238
 40
1
 50
270
 51
360
  0
ARC
  8
0
  6
CONTINUOUS
 62
     7
 10
-72.513718
 20
129.64238
 40
1
 50
179.99999
 51
270
  0
ARC
  8
0
  6
CONTINUOUS
 62
     7
 10
-72.513718
 20
143.64238
 40
1
 50
90.000003
 51
180.00001
  0
ARC
  8
0
  6
CONTINUOUS
 62
     7
 10
-73.813705
 20
130.39238
 40
0.30000001
 50
2.5044762e-006
 51
90.000003
  0
ARC
  8
0
  6
CONTINUOUS
 62
     7
 10
-73.813705
 20
139.29237
 40
0.30000001
 50
360
 51
90.000003
  0
ARC
  8
0
  6
CONTINUOUS
 62
     7
 10
-75.002914
 20
130.39238
 40
0.30000001
 50
89.999996
 51
130.00776
  0
ARC
  8
0
  6
CONTINUOUS
 62
     7
 10
-75.002914
 20
133.99239
 40
0.30000001
 50
229.99224
 51
270
  0
ARC
  8
0
  6
CONTINUOUS
 62
     7
 10
-76.513718
 20
132.19238
 40
2.05
 50
49.992241
 51
310.00775
  0
ARC
  8
0
  6
CONTINUOUS
 62
     7
 10
-73.813705
 20
133.99239
 40
0.30000001
 50
270
 51
2.5044762e-006
  0
ARC
  8
0
  6
CONTINUOUS
 62
     7
 10
-76.513718
 20
141.09238
 40
2.05
 50
49.992238
 51
310.00775
  0
ARC
  8
0
  6
CONTINUOUS
 62
     7
 10
-75.002914
 20
139.29237
 40
0.30000001
 50
90.000003
 51
130.00776
  0
ARC
  8
0
  6
CONTINUOUS
 62
     7
 10
-75.002914
 20
142.89238
 40
0.30000001
 50
229.99224
 51
270
  0
ARC
  8
0
  6
CONTINUOUS
 62
     7
 10
-73.813705
 20
142.89238
 40
0.30000001
 50
270
 51
360
  0
ARC
  8
0
  6
CONTINUOUS
 62
     7
 10
-106.71372
 20
107.30647
 40
0.2
 50
270
 51
360
  0
ARC
  8
0
  6
CONTINUOUS
 62
     7
 10
-106.71372
 20
108.40647
 40
0.2
 50
0
 51
90.000003
  0
ARC
  8
0
  6
CONTINUOUS
 62
     7
 10
-106.71372
 20
110.30647
 40
0.2
 50
270
 51
360
  0
ARC
  8
0
  6
CONTINUOUS
 62
     7
 10
-106.71372
 20
111.40647
 40
0.2
 50
0
 51
90.000003
  0
ARC
  8
0
  6
CONTINUOUS
 62
     7
 10
-106.71372
 20
113.30647
 40
0.2
 50
270
 51
360
  0
ARC
  8
0
  6
CONTINUOUS
 62
     7
 10
-106.71372
 20
114.40647
 40
0.2
 50
0
 51
90.000003
  0
ARC
  8
0
  6
CONTINUOUS
 62
     7
 10
-106.71372
 20
116.30647
 40
0.2
 50
270
 51
360
  0
ARC
  8
0
  6
CONTINUOUS
 62
     7
 10
-106.71372
 20
117.40647
 40
0.2
 50
0
 51
90.000003
  0
ARC
  8
0
  6
CONTINUOUS
 62
     7
 10
-106.81372
 20
117.80647
 40
0.2
 50
179.99999
 51
270
  0
ARC
  8
0
  6
CONTINUOUS
 62
     7
 10
-106.81372
 20
115.90647
 40
0.2
 50
90.000003
 51
180.00001
  0
ARC
  8
0
  6
CONTINUOUS
 62
     7
 10
-106.81372
 20
114.80647
 40
0.2
 50
179.99999
 51
270
  0
ARC
  8
0
  6
CONTINUOUS
 62
     7
 10
-106.81372
 20
112.90647
 40
0.2
 50
90.000003
 51
180.00001
  0
ARC
  8
0
  6
CONTINUOUS
 62
     7
 10
-106.81372
 20
111.80647
 40
0.2
 50
179.99999
 51
270
  0
ARC
  8
0
  6
CONTINUOUS
 62
     7
 10
-106.81372
 20
109.90647
 40
0.2
 50
90.000003
 51
180.00001
  0
ARC
  8
0
  6
CONTINUOUS
 62
     7
 10
-106.81372
 20
108.80647
 40
0.2
 50
179.99999
 51
270
  0
ARC
  8
0
  6
CONTINUOUS
 62
     7
 10
-106.81372
 20
106.90647
 40
0.2
 50
90.000003
 51
180.00001
  0
ARC
  8
0
  6
CONTINUOUS
 62
     7
 10
-106.81372
 20
160.3783
 40
0.2
 50
179.99999
 51
270
  0
ARC
  8
0
  6
CONTINUOUS
 62
     7
 10
-106.71372
 20
156.9783
 40
0.2
 50
0
 51
90.000003
  0
ARC
  8
0
  6
CONTINUOUS
 62
     7
 10
-106.81372
 20
155.4783
 40
0.2
 50
90.000003
 51
180.00001
  0
ARC
  8
0
  6
CONTINUOUS
 62
     7
 10
-106.81372
 20
161.4783
 40
0.2
 50
90.000003
 51
180.00001
  0
ARC
  8
0
  6
CONTINUOUS
 62
     7
 10
-106.71372
 20
155.8783
 40
0.2
 50
270
 51
360
  0
ARC
  8
0
  6
CONTINUOUS
 62
     7
 10
-106.81372
 20
163.3783
 40
0.2
 50
179.99999
 51
270
  0
ARC
  8
0
  6
CONTINUOUS
 62
     7
 10
-106.71372
 20
158.8783
 40
0.2
 50
270
 51
360
  0
ARC
  8
0
  6
CONTINUOUS
 62
     7
 10
-106.71372
 20
162.9783
 40
0.2
 50
0
 51
90.000003
  0
ARC
  8
0
  6
CONTINUOUS
 62
     7
 10
-106.71372
 20
165.9783
 40
0.2
 50
0
 51
90.000003
  0
ARC
  8
0
  6
CONTINUOUS
 62
     7
 10
-106.71372
 20
159.9783
 40
0.2
 50
0
 51
90.000003
  0
ARC
  8
0
  6
CONTINUOUS
 62
     7
 10
-106.81372
 20
166.3783
 40
0.2
 50
179.99999
 51
270
  0
ARC
  8
0
  6
CONTINUOUS
 62
     7
 10
-106.71372
 20
164.8783
 40
0.2
 50
270
 51
360
  0
ARC
  8
0
  6
CONTINUOUS
 62
     7
 10
-106.71372
 20
161.8783
 40
0.2
 50
270
 51
360
  0
ARC
  8
0
  6
CONTINUOUS
 62
     7
 10
-106.81372
 20
157.3783
 40
0.2
 50
179.99999
 51
270
  0
ARC
  8
0
  6
CONTINUOUS
 62
     7
 10
-106.81372
 20
164.4783
 40
0.2
 50
90.000003
 51
180.00001
  0
ARC
  8
0
  6
CONTINUOUS
 62
     7
 10
-106.81372
 20
158.4783
 40
0.2
 50
90.000003
 51
180.00001
  0
ARC
  8
0
  6
CONTINUOUS
 62
     7
 10
-341.01224
 20
160.3783
 40
0.2
 50
179.99999
 51
270
  0
ARC
  8
0
  6
CONTINUOUS
 62
     7
 10
-340.91226
 20
156.9783
 40
0.2
 50
0
 51
90.000003
  0
ARC
  8
0
  6
CONTINUOUS
 62
     7
 10
-341.01224
 20
155.4783
 40
0.2
 50
90.000003
 51
180.00001
  0
ARC
  8
0
  6
CONTINUOUS
 62
     7
 10
-341.01224
 20
161.4783
 40
0.2
 50
90.000003
 51
180.00001
  0
ARC
  8
0
  6
CONTINUOUS
 62
     7
 10
-340.91226
 20
155.8783
 40
0.2
 50
270
 51
360
  0
ARC
  8
0
  6
CONTINUOUS
 62
     7
 10
-340.91226
 20
158.8783
 40
0.2
 50
270
 51
360
  0
ARC
  8
0
  6
CONTINUOUS
 62
     7
 10
-340.91226
 20
165.9783
 40
0.2
 50
0
 51
90.000003
  0
ARC
  8
0
  6
CONTINUOUS
 62
     7
 10
-340.91226
 20
159.9783
 40
0.2
 50
0
 51
90.000003
  0
ARC
  8
0
  6
CONTINUOUS
 62
     7
 10
-341.01224
 20
166.3783
 40
0.2
 50
179.99999
 51
270
  0
ARC
  8
0
  6
CONTINUOUS
 62
     7
 10
-340.91226
 20
161.8783
 40
0.2
 50
270
 51
360
  0
ARC
  8
0
  6
CONTINUOUS
 62
     7
 10
-341.01224
 20
157.3783
 40
0.2
 50
179.99999
 51
270
  0
ARC
  8
0
  6
CONTINUOUS
 62
     7
 10
-341.01224
 20
158.4783
 40
0.2
 50
90.000003
 51
180.00001
  0
ARC
  8
0
  6
CONTINUOUS
 62
     7
 10
-306.41226
 20
158.4783
 40
0.2
 50
0
 51
90.000003
  0
ARC
  8
0
  6
CONTINUOUS
 62
     7
 10
-306.41226
 20
164.4783
 40
0.2
 50
0
 51
90.000003
  0
ARC
  8
0
  6
CONTINUOUS
 62
     7
 10
-306.41226
 20
157.3783
 40
0.2
 50
270
 51
360
  0
ARC
  8
0
  6
CONTINUOUS
 62
     7
 10
-306.51224
 20
161.8783
 40
0.2
 50
179.99999
 51
270
  0
ARC
  8
0
  6
CONTINUOUS
 62
     7
 10
-306.41226
 20
166.3783
 40
0.2
 50
270
 51
360
  0
ARC
  8
0
  6
CONTINUOUS
 62
     7
 10
-306.51224
 20
164.8783
 40
0.2
 50
179.99999
 51
270
  0
ARC
  8
0
  6
CONTINUOUS
 62
     7
 10
-306.51224
 20
159.9783
 40
0.2
 50
90.000003
 51
180.00001
  0
ARC
  8
0
  6
CONTINUOUS
 62
     7
 10
-306.51224
 20
165.9783
 40
0.2
 50
90.000003
 51
180.00001
  0
ARC
  8
0
  6
CONTINUOUS
 62
     7
 10
-306.51224
 20
162.9783
 40
0.2
 50
90.000003
 51
180.00001
  0
ARC
  8
0
  6
CONTINUOUS
 62
     7
 10
-306.51224
 20
158.8783
 40
0.2
 50
179.99999
 51
270
  0
ARC
  8
0
  6
CONTINUOUS
 62
     7
 10
-306.41226
 20
163.3783
 40
0.2
 50
270
 51
360
  0
ARC
  8
0
  6
CONTINUOUS
 62
     7
 10
-306.51224
 20
155.8783
 40
0.2
 50
179.99999
 51
270
  0
ARC
  8
0
  6
CONTINUOUS
 62
     7
 10
-306.41226
 20
161.4783
 40
0.2
 50
0
 51
90.000003
  0
ARC
  8
0
  6
CONTINUOUS
 62
     7
 10
-306.41226
 20
155.4783
 40
0.2
 50
0
 51
90.000003
  0
ARC
  8
0
  6
CONTINUOUS
 62
     7
 10
-306.51224
 20
156.9783
 40
0.2
 50
90.000003
 51
180.00001
  0
ARC
  8
0
  6
CONTINUOUS
 62
     7
 10
-306.41226
 20
160.3783
 40
0.2
 50
270
 51
360
  0
ARC
  8
0
  6
CONTINUOUS
 62
     7
 10
-341.01224
 20
112.90647
 40
0.2
 50
90.000003
 51
180.00001
  0
ARC
  8
0
  6
CONTINUOUS
 62
     7
 10
-340.91226
 20
116.30647
 40
0.2
 50
270
 51
360
  0
ARC
  8
0
  6
CONTINUOUS
 62
     7
 10
-341.01224
 20
117.80647
 40
0.2
 50
179.99999
 51
270
  0
ARC
  8
0
  6
CONTINUOUS
 62
     7
 10
-341.01224
 20
111.80647
 40
0.2
 50
179.99999
 51
270
  0
ARC
  8
0
  6
CONTINUOUS
 62
     7
 10
-340.91226
 20
117.40647
 40
0.2
 50
0
 51
90.000003
  0
ARC
  8
0
  6
CONTINUOUS
 62
     7
 10
-340.91226
 20
114.40647
 40
0.2
 50
0
 51
90.000003
  0
ARC
  8
0
  6
CONTINUOUS
 62
     7
 10
-340.91226
 20
107.30647
 40
0.2
 50
270
 51
360
  0
ARC
  8
0
  6
CONTINUOUS
 62
     7
 10
-340.91226
 20
113.30647
 40
0.2
 50
270
 51
360
  0
ARC
  8
0
  6
CONTINUOUS
 62
     7
 10
-341.01224
 20
106.90647
 40
0.2
 50
90.000003
 51
180.00001
  0
ARC
  8
0
  6
CONTINUOUS
 62
     7
 10
-340.91226
 20
111.40647
 40
0.2
 50
0
 51
90.000003
  0
ARC
  8
0
  6
CONTINUOUS
 62
     7
 10
-341.01224
 20
115.90647
 40
0.2
 50
90.000003
 51
180.00001
  0
ARC
  8
0
  6
CONTINUOUS
 62
     7
 10
-341.01224
 20
114.80647
 40
0.2
 50
179.99999
 51
270
  0
ARC
  8
0
  6
CONTINUOUS
 62
     7
 10
-306.41226
 20
114.80647
 40
0.2
 50
270
 51
360
  0
ARC
  8
0
  6
CONTINUOUS
 62
     7
 10
-306.41226
 20
108.80647
 40
0.2
 50
270
 51
360
  0
ARC
  8
0
  6
CONTINUOUS
 62
     7
 10
-306.41226
 20
115.90647
 40
0.2
 50
0
 51
90.000003
  0
ARC
  8
0
  6
CONTINUOUS
 62
     7
 10
-306.51224
 20
111.40647
 40
0.2
 50
90.000003
 51
180.00001
  0
ARC
  8
0
  6
CONTINUOUS
 62
     7
 10
-306.41226
 20
106.90647
 40
0.2
 50
0
 51
90.000003
  0
ARC
  8
0
  6
CONTINUOUS
 62
     7
 10
-306.51224
 20
108.40647
 40
0.2
 50
90.000003
 51
180.00001
  0
ARC
  8
0
  6
CONTINUOUS
 62
     7
 10
-306.51224
 20
113.30647
 40
0.2
 50
179.99999
 51
270
  0
ARC
  8
0
  6
CONTINUOUS
 62
     7
 10
-306.51224
 20
107.30647
 40
0.2
 50
179.99999
 51
270
  0
ARC
  8
0
  6
CONTINUOUS
 62
     7
 10
-306.51224
 20
110.30647
 40
0.2
 50
179.99999
 51
270
  0
ARC
  8
0
  6
CONTINUOUS
 62
     7
 10
-306.51224
 20
114.40647
 40
0.2
 50
90.000003
 51
180.00001
  0
ARC
  8
0
  6
CONTINUOUS
 62
     7
 10
-306.41226
 20
109.90647
 40
0.2
 50
0
 51
90.000003
  0
ARC
  8
0
  6
CONTINUOUS
 62
     7
 10
-306.51224
 20
117.40647
 40
0.2
 50
90.000003
 51
180.00001
  0
ARC
  8
0
  6
CONTINUOUS
 62
     7
 10
-306.41226
 20
111.80647
 40
0.2
 50
270
 51
360
  0
ARC
  8
0
  6
CONTINUOUS
 62
     7
 10
-306.41226
 20
117.80647
 40
0.2
 50
270
 51
360
  0
ARC
  8
0
  6
CONTINUOUS
 62
     7
 10
-306.51224
 20
116.30647
 40
0.2
 50
179.99999
 51
270
  0
ARC
  8
0
  6
CONTINUOUS
 62
     7
 10
-306.41226
 20
112.90647
 40
0.2
 50
0
 51
90.000003
  0
ARC
  8
0
  6
CONTINUOUS
 62
     7
 10
-339.41226
 20
139.29237
 40
0.30000001
 50
89.999996
 51
180.00001
  0
ARC
  8
0
  6
CONTINUOUS
 62
     7
 10
-339.41226
 20
130.39238
 40
0.30000001
 50
89.999996
 51
179.99999
  0
ARC
  8
0
  6
CONTINUOUS
 62
     7
 10
-340.71225
 20
143.64238
 40
1
 50
359.99999
 51
89.999996
  0
ARC
  8
0
  6
CONTINUOUS
 62
     7
 10
-306.71225
 20
129.64238
 40
1
 50
179.99999
 51
270
  0
ARC
  8
0
  6
CONTINUOUS
 62
     7
 10
-306.71225
 20
143.64238
 40
1
 50
89.999996
 51
180.00001
  0
ARC
  8
0
  6
CONTINUOUS
 62
     7
 10
-340.71225
 20
129.64238
 40
1
 50
270
 51
5.0089569e-006
  0
ARC
  8
0
  6
CONTINUOUS
 62
     7
 10
-308.01224
 20
130.39238
 40
0.30000001
 50
8.6514232e-006
 51
90.000003
  0
ARC
  8
0
  6
CONTINUOUS
 62
     7
 10
-308.01224
 20
139.29237
 40
0.30000001
 50
359.99999
 51
90.000003
  0
ARC
  8
0
  6
CONTINUOUS
 62
     7
 10
-309.20145
 20
130.39238
 40
0.30000001
 50
89.999996
 51
130.00776
  0
ARC
  8
0
  6
CONTINUOUS
 62
     7
 10
-309.20145
 20
133.99239
 40
0.30000001
 50
229.99224
 51
270
  0
ARC
  8
0
  6
CONTINUOUS
 62
     7
 10
-310.71225
 20
132.19238
 40
2.05
 50
49.992241
 51
90.000003
  0
ARC
  8
0
  6
CONTINUOUS
 62
     7
 10
-308.01224
 20
133.99239
 40
0.30000001
 50
270
 51
8.6514232e-006
  0
ARC
  8
0
  6
CONTINUOUS
 62
     7
 10
-310.71225
 20
141.09238
 40
2.05
 50
49.992241
 51
90.000003
  0
ARC
  8
0
  6
CONTINUOUS
 62
     7
 10
-309.20145
 20
139.29237
 40
0.30000001
 50
89.999996
 51
130.00776
  0
ARC
  8
0
  6
CONTINUOUS
 62
     7
 10
-309.20145
 20
142.89238
 40
0.30000001
 50
229.99224
 51
270
  0
ARC
  8
0
  6
CONTINUOUS
 62
     7
 10
-338.22305
 20
133.99239
 40
0.30000001
 50
270
 51
310.00776
  0
ARC
  8
0
  6
CONTINUOUS
 62
     7
 10
-338.22305
 20
130.39238
 40
0.30000001
 50
49.992241
 51
90.000003
  0
ARC
  8
0
  6
CONTINUOUS
 62
     7
 10
-308.01224
 20
142.89238
 40
0.30000001
 50
270
 51
359.99999
  0
ARC
  8
0
  6
CONTINUOUS
 62
     7
 10
-336.71225
 20
132.19238
 40
2.05
 50
229.99225
 51
270
  0
ARC
  8
0
  6
CONTINUOUS
 62
     7
 10
-339.41226
 20
133.99239
 40
0.30000001
 50
179.99999
 51
270
  0
ARC
  8
0
  6
CONTINUOUS
 62
     7
 10
-336.71225
 20
141.09238
 40
2.05
 50
229.99225
 51
270
  0
ARC
  8
0
  6
CONTINUOUS
 62
     7
 10
-338.22305
 20
139.29237
 40
0.30000001
 50
49.992241
 51
89.999996
  0
ARC
  8
0
  6
CONTINUOUS
 62
     7
 10
-338.22305
 20
142.89238
 40
0.30000001
 50
270
 51
310.00776
  0
ARC
  8
0
  6
CONTINUOUS
 62
     7
 10
-339.41226
 20
142.89238
 40
0.30000001
 50
180.00001
 51
270
  0
ARC
  8
0
  6
CONTINUOUS
 62
     7
 10
-104.24639
 20
98.642372
 40
1
 50
195.00001
 51
270
  0
ARC
  8
0
  6
CONTINUOUS
 62
     7
 10
-74.781044
 20
98.642372
 40
1
 50
270
 51
345
  0
ARC
  8
0
  6
CONTINUOUS
 62
     7
 10
-104.2464
 20
174.64238
 40
1
 50
90.000003
 51
164.99999
  0
ARC
  8
0
  6
CONTINUOUS
 62
     7
 10
-74.781044
 20
174.64238
 40
1
 50
15
 51
90.000003
  0
CIRCLE
  8
0
  6
CONTINUOUS
 62
     7
 10
-178.64252
 20
33.358448
 40
2.5
  0
CIRCLE
  8
0
  6
CONTINUOUS
 62
     7
 10
-178.64252
 20
33.358448
 40
2
  0
CIRCLE
  8
0
  6
CONTINUOUS
 62
     7
 10
-228.64252
 20
33.358448
 40
2.5
  0
CIRCLE
  8
0
  6
CONTINUOUS
 62
     7
 10
-228.64252
 20
33.358448
 40
2
  0
ARC
  8
0
  6
CONTINUOUS
 62
     7
 10
-72.213722
 20
158.4783
 40
0.2
 50
0
 51
90.000003
  0
ARC
  8
0
  6
CONTINUOUS
 62
     7
 10
-72.213722
 20
164.4783
 40
0.2
 50
0
 51
90.000003
  0
ARC
  8
0
  6
CONTINUOUS
 62
     7
 10
-72.213722
 20
157.3783
 40
0.2
 50
270
 51
360
  0
ARC
  8
0
  6
CONTINUOUS
 62
     7
 10
-72.313721
 20
161.8783
 40
0.2
 50
179.99999
 51
270
  0
ARC
  8
0
  6
CONTINUOUS
 62
     7
 10
-72.213722
 20
166.3783
 40
0.2
 50
270
 51
360
  0
ARC
  8
0
  6
CONTINUOUS
 62
     7
 10
-72.313721
 20
164.8783
 40
0.2
 50
179.99999
 51
270
  0
ARC
  8
0
  6
CONTINUOUS
 62
     7
 10
-72.313721
 20
159.9783
 40
0.2
 50
90.000003
 51
180.00001
  0
ARC
  8
0
  6
CONTINUOUS
 62
     7
 10
-72.313721
 20
165.9783
 40
0.2
 50
90.000003
 51
180.00001
  0
ARC
  8
0
  6
CONTINUOUS
 62
     7
 10
-72.313721
 20
162.9783
 40
0.2
 50
90.000003
 51
180.00001
  0
ARC
  8
0
  6
CONTINUOUS
 62
     7
 10
-72.313721
 20
158.8783
 40
0.2
 50
179.99999
 51
270
  0
ARC
  8
0
  6
CONTINUOUS
 62
     7
 10
-72.213722
 20
163.3783
 40
0.2
 50
270
 51
360
  0
ARC
  8
0
  6
CONTINUOUS
 62
     7
 10
-72.313721
 20
155.8783
 40
0.2
 50
179.99999
 51
270
  0
ARC
  8
0
  6
CONTINUOUS
 62
     7
 10
-72.213722
 20
161.4783
 40
0.2
 50
0
 51
90.000003
  0
ARC
  8
0
  6
CONTINUOUS
 62
     7
 10
-72.213722
 20
155.4783
 40
0.2
 50
0
 51
90.000003
  0
ARC
  8
0
  6
CONTINUOUS
 62
     7
 10
-72.313721
 20
156.9783
 40
0.2
 50
90.000003
 51
180.00001
  0
ARC
  8
0
  6
CONTINUOUS
 62
     7
 10
-72.213722
 20
160.3783
 40
0.2
 50
270
 51
360
  0
ARC
  8
0
  6
CONTINUOUS
 62
     7
 10
-72.213722
 20
115.90647
 40
0.2
 50
0
 51
90.000003
  0
ARC
  8
0
  6
CONTINUOUS
 62
     7
 10
-72.313721
 20
107.30647
 40
0.2
 50
179.99999
 51
270
  0
ARC
  8
0
  6
CONTINUOUS
 62
     7
 10
-72.213722
 20
106.90647
 40
0.2
 50
0
 51
90.000003
  0
ARC
  8
0
  6
CONTINUOUS
 62
     7
 10
-72.313721
 20
111.40647
 40
0.2
 50
90.000003
 51
180.00001
  0
ARC
  8
0
  6
CONTINUOUS
 62
     7
 10
-72.213722
 20
114.80647
 40
0.2
 50
270
 51
360
  0
ARC
  8
0
  6
CONTINUOUS
 62
     7
 10
-72.313721
 20
110.30647
 40
0.2
 50
179.99999
 51
270
  0
ARC
  8
0
  6
CONTINUOUS
 62
     7
 10
-72.313721
 20
108.40647
 40
0.2
 50
90.000003
 51
180.00001
  0
ARC
  8
0
  6
CONTINUOUS
 62
     7
 10
-72.213722
 20
109.90647
 40
0.2
 50
0
 51
90.000003
  0
ARC
  8
0
  6
CONTINUOUS
 62
     7
 10
-72.313721
 20
113.30647
 40
0.2
 50
179.99999
 51
270
  0
ARC
  8
0
  6
CONTINUOUS
 62
     7
 10
-72.313721
 20
114.40647
 40
0.2
 50
90.000003
 51
180.00001
  0
ARC
  8
0
  6
CONTINUOUS
 62
     7
 10
-72.213722
 20
108.80647
 40
0.2
 50
270
 51
360
  0
ARC
  8
0
  6
CONTINUOUS
 62
     7
 10
-72.313721
 20
117.40647
 40
0.2
 50
90.000003
 51
180.00001
  0
ARC
  8
0
  6
CONTINUOUS
 62
     7
 10
-72.213722
 20
112.90647
 40
0.2
 50
0
 51
90.000003
  0
ARC
  8
0
  6
CONTINUOUS
 62
     7
 10
-72.213722
 20
117.80647
 40
0.2
 50
270
 51
360
  0
ARC
  8
0
  6
CONTINUOUS
 62
     7
 10
-72.313721
 20
116.30647
 40
0.2
 50
179.99999
 51
270
  0
ARC
  8
0
  6
CONTINUOUS
 62
     7
 10
-72.213722
 20
111.80647
 40
0.2
 50
270
 51
360
  0
ARC
  8
0
  6
CONTINUOUS
 62
     7
 10
-336.71225
 20
141.09238
 40
2.05
 50
90.000003
 51
130.00776
  0
ARC
  8
0
  6
CONTINUOUS
 62
     7
 10
-336.71225
 20
132.19238
 40
2.05
 50
90.000003
 51
130.00776
  0
ARC
  8
0
  6
CONTINUOUS
 62
     7
 10
-310.71225
 20
141.09238
 40
2.05
 50
270
 51
310.00776
  0
ARC
  8
0
  6
CONTINUOUS
 62
     7
 10
-310.71225
 20
132.19238
 40
2.05
 50
270
 51
310.00776
  0
CIRCLE
  8
0
  6
CONTINUOUS
 62
     7
 10
-174.64252
 20
150.6424
 40
2.55
  0
CIRCLE
  8
0
  6
CONTINUOUS
 62
     7
 10
-174.64252
 20
122.64237
 40
2.55
  0
CIRCLE
  8
0
  6
CONTINUOUS
 62
     7
 10
-220.64252
 20
122.64237
 40
2.5
  0
CIRCLE
  8
0
  6
CONTINUOUS
 62
     7
 10
-220.64252
 20
122.64237
 40
2.0669999
  0
CIRCLE
  8
0
  6
CONTINUOUS
 62
     7
 10
-156.14252
 20
122.64237
 40
2.5
  0
CIRCLE
  8
0
  6
CONTINUOUS
 62
     7
 10
-174.64252
 20
122.64237
 40
4.5
  0
CIRCLE
  8
0
  6
CONTINUOUS
 62
     7
 10
-211.64252
 20
122.64237
 40
2.55
  0
CIRCLE
  8
0
  6
CONTINUOUS
 62
     7
 10
-211.64252
 20
122.64237
 40
4.5
  0
CIRCLE
  8
0
  6
CONTINUOUS
 62
     7
 10
-245.6425
 20
153.64238
 40
2.5
  0
CIRCLE
  8
0
  6
CONTINUOUS
 62
     7
 10
-245.6425
 20
153.64238
 40
2
  0
CIRCLE
  8
0
  6
CONTINUOUS
 62
     7
 10
-245.6425
 20
119.64239
 40
2
  0
CIRCLE
  8
0
  6
CONTINUOUS
 62
     7
 10
-245.6425
 20
119.64239
 40
2.5
  0
CIRCLE
  8
0
  6
CONTINUOUS
 62
     7
 10
-156.14252
 20
122.64237
 40
2.0669999
  0
CIRCLE
  8
0
  6
CONTINUOUS
 62
     7
 10
-174.64252
 20
150.6424
 40
4.5
  0
CIRCLE
  8
0
  6
CONTINUOUS
 62
     7
 10
-211.64252
 20
150.6424
 40
4.5
  0
CIRCLE
  8
0
  6
CONTINUOUS
 62
     7
 10
-211.64252
 20
150.6424
 40
2.55
  0
CIRCLE
  8
0
  6
CONTINUOUS
 62
     7
 10
-85.332603
 20
129.48956
 40
1
  0
ARC
  8
0
  6
CONTINUOUS
 62
     7
 10
-85.332603
 20
129.48956
 40
1.84
 50
30.50929
 51
194.51197
  0
ARC
  8
0
  6
CONTINUOUS
 62
     7
 10
-89.513718
 20
135.93361
 40
8.9615068
 50
321.34483
 51
218.65517
  0
ARC
  8
0
  6
CONTINUOUS
 62
     7
 10
-95.926247
 20
130.80444
 40
0.75
 50
218.65518
 51
329.49071
  0
CIRCLE
  8
0
  6
CONTINUOUS
 62
     7
 10
-93.694839
 20
129.48956
 40
1
  0
ARC
  8
0
  6
CONTINUOUS
 62
     7
 10
-93.694839
 20
129.48956
 40
1.84
 50
345.48802
 51
149.49071
  0
ARC
  8
0
  6
CONTINUOUS
 62
     7
 10
-83.101196
 20
130.80444
 40
0.75
 50
210.50929
 51
321.34483
  0
CIRCLE
  8
0
  6
CONTINUOUS
 62
     7
 10
-323.71225
 20
109.64237
 40
5
  0
CIRCLE
  8
0
  6
CONTINUOUS
 62
     7
 10
-323.71225
 20
109.64237
 40
4.4000001
  0
CIRCLE
  8
0
  6
CONTINUOUS
 62
     7
 10
-323.71225
 20
163.64238
 40
5
  0
CIRCLE
  8
0
  6
CONTINUOUS
 62
     7
 10
-323.71225
 20
163.64238
 40
4.4000001
  0
CIRCLE
  8
0
  6
CONTINUOUS
 62
     7
 10
-323.71225
 20
136.64238
 40
4.25
  0
CIRCLE
  8
0
  6
CONTINUOUS
 62
     7
 10
-220.64252
 20
57.358448
 40
3.9000001
  0
CIRCLE
  8
0
  6
CONTINUOUS
 62
     7
 10
-175.14252
 20
57.358448
 40
3.9000001
  0
TEXT
  8
0
  6
CONTINUOUS
 62
     7
 10
-64.999688
 20
32.121297
 40
4.8000002
 41
0.84350109
  1
コンテナシリンダーガイド付
  0
TEXT
  8
0
  6
CONTINUOUS
 62
     7
 10
-42.536785
 20
26.987706
 40
3.2
 41
0.84892695
  1
（複動型）
  0
TEXT
  8
0
  6
CONTINUOUS
 62
     7
 10
-58.308283
 20
16.185365
 40
4.8000002
 41
0.84448336
  1
ＧＣＹＬ－２０ｘ５０
  0
TEXT
  8
0
  6
CONTINUOUS
 62
     7
 10
-48.19969
 20
3.6400571
 40
4.8000002
 41
0.8474109
  1
０６０４９８
  0
TEXT
  8
0
  6
CONTINUOUS
 62
     7
 10
-212.74432
 20
42.683186
 40
5
 41
0.68754799
  1
ＳＴＡＲ
  0
TEXT
  8
0
  6
CONTINUOUS
 62
     7
 10
-193.79755
 20
46.649147
 40
2
 41
0.65198499
  1
ＧＣＹＬ－２０Ｘ５０
  0
TEXT
  8
0
  6
CONTINUOUS
 62
     7
 10
-193.50163
 20
41.815861
 40
2
 41
0.65198499
  1
ＳＴＡＲＴＥＣＨＮＯ
  0
INSERT
  8
0
  6
CONTINUOUS
 62
     7
  2
KOZU0001
 10
-74.798119
 20
132.55236
  0
INSERT
  8
0
  6
CONTINUOUS
 62
     7
  2
KOZU0002
 10
-177.41327
 20
214.23264
  0
INSERT
  8
0
  6
CONTINUOUS
 62
     7
  2
KOZU0003
 10
-247.29301
 20
155.5201
  0
INSERT
  8
0
  6
CONTINUOUS
 62
     7
  2
KOZU0004
 10
-212.97532
 20
152.81637
  0
INSERT
  8
0
  6
CONTINUOUS
 62
     7
  2
KOZU0005
 10
-154.68014
 20
120.61468
  0
INSERT
  8
0
  6
CONTINUOUS
 62
     7
  2
KOZU0006
 10
-332.55127
 20
170.99737
  0
ENDSEC
  0
EOF
