  0
SECTION
  2
HEADER
  9
$ACADVER
  1
AC1015
  9
$ACADMAINTVER
 70
     6
  9
$DWGCODEPAGE
  3
DOS932
  9
$INSBASE
 10
0.0
 20
0.0
 30
0.0
  9
$EXTMIN
 10
0.0
 20
0.0
 30
0.0
  9
$EXTMAX
 10
420.0
 20
297.0
 30
0.0
  9
$LIMMIN
 10
0.0
 20
0.0
  9
$LIMMAX
 10
0.0
 20
0.0
  9
$ORTHOMODE
 70
     0
  9
$REGENMODE
 70
     1
  9
$FILLMODE
 70
     1
  9
$QTEXTMODE
 70
     0
  9
$MIRRTEXT
 70
     1
  9
$LTSCALE
 40
1.0
  9
$ATTMODE
 70
     1
  9
$TEXTSIZE
 40
3.5
  9
$TRACEWID
 40
1.0
  9
$TEXTSTYLE
  7
Standard
  9
$CLAYER
  8
0
  9
$CELTYPE
  6
ByLayer
  9
$CECOLOR
 62
   256
  9
$CELTSCALE
 40
1.0
  9
$DISPSILH
 70
     0
  9
$DIMSCALE
 40
1.0
  9
$DIMASZ
 40
3.0
  9
$DIMEXO
 40
1.0
  9
$DIMDLI
 40
3.75
  9
$DIMRND
 40
0.0
  9
$DIMDLE
 40
0.0
  9
$DIMEXE
 40
1.0
  9
$DIMTP
 40
0.0
  9
$DIMTM
 40
0.0
  9
$DIMTXT
 40
3.2000000477
  9
$DIMCEN
 40
2.5
  9
$DIMTSZ
 40
0.0
  9
$DIMTOL
 70
     0
  9
$DIMLIM
 70
     0
  9
$DIMTIH
 70
     1
  9
$DIMTOH
 70
     1
  9
$DIMSE1
 70
     0
  9
$DIMSE2
 70
     0
  9
$DIMTAD
 70
     1
  9
$DIMZIN
 70
     1
  9
$DIMBLK
  1

  9
$DIMASO
 70
     1
  9
$DIMSHO
 70
     1
  9
$DIMPOST
  1

  9
$DIMAPOST
  1

  9
$DIMALT
 70
     0
  9
$DIMALTD
 70
     3
  9
$DIMALTF
 40
0.0393700787
  9
$DIMLFAC
 40
1.0
  9
$DIMTOFL
 70
     1
  9
$DIMTVP
 40
0.0
  9
$DIMTIX
 70
     0
  9
$DIMSOXD
 70
     0
  9
$DIMSAH
 70
     0
  9
$DIMBLK1
  1

  9
$DIMBLK2
  1

  9
$DIMSTYLE
  2
ISO-25
  9
$DIMCLRD
 70
     0
  9
$DIMCLRE
 70
     0
  9
$DIMCLRT
 70
     0
  9
$DIMTFAC
 40
1.0
  9
$DIMGAP
 40
1.524
  9
$DIMJUST
 70
     0
  9
$DIMSD1
 70
     0
  9
$DIMSD2
 70
     0
  9
$DIMTOLJ
 70
     0
  9
$DIMTZIN
 70
     1
  9
$DIMALTZ
 70
     0
  9
$DIMALTTZ
 70
     0
  9
$DIMUPT
 70
     0
  9
$DIMDEC
 70
     2
  9
$DIMTDEC
 70
     2
  9
$DIMALTU
 70
     2
  9
$DIMALTTD
 70
     3
  9
$DIMTXSTY
  7
Standard
  9
$DIMAUNIT
 70
     0
  9
$DIMADEC
 70
     0
  9
$DIMALTRND
 40
0.0
  9
$DIMAZIN
 70
     0
  9
$DIMDSEP
 70
    44
  9
$DIMATFIT
 70
     3
  9
$DIMFRAC
 70
     0
  9
$DIMLDRBLK
  1

  9
$DIMLUNIT
 70
     2
  9
$DIMLWD
 70
    -2
  9
$DIMLWE
 70
    -2
  9
$DIMTMOVE
 70
     0
  9
$LUNITS
 70
     2
  9
$LUPREC
 70
     4
  9
$SKETCHINC
 40
1.0
  9
$FILLETRAD
 40
10.0
  9
$AUNITS
 70
     0
  9
$AUPREC
 70
     0
  9
$MENU
  1
.
  9
$ELEVATION
 40
0.0
  9
$PELEVATION
 40
0.0
  9
$THICKNESS
 40
0.0
  9
$LIMCHECK
 70
     0
  9
$CHAMFERA
 40
10.0
  9
$CHAMFERB
 40
10.0
  9
$CHAMFERC
 40
20.0
  9
$CHAMFERD
 40
0.0
  9
$SKPOLY
 70
     0
  9
$TDCREATE
 40
2454307.545021157
  9
$TDUCREATE
 40
2454307.170021157
  9
$TDUPDATE
 40
2454307.545021169
  9
$TDUUPDATE
 40
2454307.170021169
  9
$TDINDWG
 40
0.0000000116
  9
$TDUSRTIMER
 40
0.0000000116
  9
$USRTIMER
 70
     1
  9
$ANGBASE
 50
0.0
  9
$ANGDIR
 70
     0
  9
$PDMODE
 70
     0
  9
$PDSIZE
 40
-1.0
  9
$PLINEWID
 40
0.0
  9
$SPLFRAME
 70
     0
  9
$SPLINETYPE
 70
     6
  9
$SPLINESEGS
 70
     8
  9
$HANDSEED
  5
31F
  9
$SURFTAB1
 70
     6
  9
$SURFTAB2
 70
     6
  9
$SURFTYPE
 70
     6
  9
$SURFU
 70
     6
  9
$SURFV
 70
     6
  9
$UCSBASE
  2

  9
$UCSNAME
  2

  9
$UCSORG
 10
0.0
 20
0.0
 30
0.0
  9
$UCSXDIR
 10
1.0
 20
0.0
 30
0.0
  9
$UCSYDIR
 10
0.0
 20
1.0
 30
0.0
  9
$UCSORTHOREF
  2

  9
$UCSORTHOVIEW
 70
     0
  9
$UCSORGTOP
 10
0.0
 20
0.0
 30
0.0
  9
$UCSORGBOTTOM
 10
0.0
 20
0.0
 30
0.0
  9
$UCSORGLEFT
 10
0.0
 20
0.0
 30
0.0
  9
$UCSORGRIGHT
 10
0.0
 20
0.0
 30
0.0
  9
$UCSORGFRONT
 10
0.0
 20
0.0
 30
0.0
  9
$UCSORGBACK
 10
0.0
 20
0.0
 30
0.0
  9
$PUCSBASE
  2

  9
$PUCSNAME
  2

  9
$PUCSORG
 10
0.0
 20
0.0
 30
0.0
  9
$PUCSXDIR
 10
1.0
 20
0.0
 30
0.0
  9
$PUCSYDIR
 10
0.0
 20
1.0
 30
0.0
  9
$PUCSORTHOREF
  2

  9
$PUCSORTHOVIEW
 70
     0
  9
$PUCSORGTOP
 10
0.0
 20
0.0
 30
0.0
  9
$PUCSORGBOTTOM
 10
0.0
 20
0.0
 30
0.0
  9
$PUCSORGLEFT
 10
0.0
 20
0.0
 30
0.0
  9
$PUCSORGRIGHT
 10
0.0
 20
0.0
 30
0.0
  9
$PUCSORGFRONT
 10
0.0
 20
0.0
 30
0.0
  9
$PUCSORGBACK
 10
0.0
 20
0.0
 30
0.0
  9
$USERI1
 70
     0
  9
$USERI2
 70
     0
  9
$USERI3
 70
     0
  9
$USERI4
 70
     0
  9
$USERI5
 70
     0
  9
$USERR1
 40
0.0
  9
$USERR2
 40
0.0
  9
$USERR3
 40
0.0
  9
$USERR4
 40
0.0
  9
$USERR5
 40
0.0
  9
$WORLDVIEW
 70
     1
  9
$SHADEDGE
 70
     3
  9
$SHADEDIF
 70
    70
  9
$TILEMODE
 70
     1
  9
$MAXACTVP
 70
    64
  9
$PINSBASE
 10
0.0
 20
0.0
 30
0.0
  9
$PLIMCHECK
 70
     0
  9
$PEXTMIN
 10
1.0000000000E+20
 20
1.0000000000E+20
 30
1.0000000000E+20
  9
$PEXTMAX
 10
-1.0000000000E+20
 20
-1.0000000000E+20
 30
-1.0000000000E+20
  9
$PLIMMIN
 10
0.0
 20
0.0
  9
$PLIMMAX
 10
420.0
 20
297.0
  9
$UNITMODE
 70
     0
  9
$VISRETAIN
 70
     1
  9
$PLINEGEN
 70
     0
  9
$PSLTSCALE
 70
     1
  9
$TREEDEPTH
 70
  3020
  9
$CMLSTYLE
  2
Standard
  9
$CMLJUST
 70
     0
  9
$CMLSCALE
 40
20.0
  9
$PROXYGRAPHICS
 70
     1
  9
$MEASUREMENT
 70
     1
  9
$CELWEIGHT
370
    -1
  9
$ENDCAPS
280
     0
  9
$JOINSTYLE
280
     0
  9
$LWDISPLAY
290
     1
  9
$INSUNITS
 70
     4
  9
$HYPERLINKBASE
  1

  9
$STYLESHEET
  1

  9
$XEDIT
290
     1
  9
$CEPSNTYPE
380
     0
  9
$PSTYLEMODE
290
     1
  9
$FINGERPRINTGUID
  2
{D790E04D-58AC-42B0-BD05-CAA27843BB2E}
  9
$VERSIONGUID
  2
{FAEB1C32-E019-11D5-929B-00C0DF256EC4}
  9
$EXTNAMES
290
     1
  9
$PSVPSCALE
 40
0.0
  9
$OLESTARTUP
290
     0
  0
ENDSEC
  0
SECTION
  2
CLASSES
  0
CLASS
  1
ACDBDICTIONARYWDFLT
  2
AcDbDictionaryWithDefault
  3
ObjectDBX Classes
 90
        0
280
     0
281
     0
  0
CLASS
  1
ACDBPLACEHOLDER
  2
AcDbPlaceHolder
  3
ObjectDBX Classes
 90
        0
280
     0
281
     0
  0
CLASS
  1
LAYOUT
  2
AcDbLayout
  3
ObjectDBX Classes
 90
        0
280
     0
281
     0
  0
ENDSEC
  0
SECTION
  2
TABLES
  0
TABLE
  2
VPORT
  5
8
330
0
100
AcDbSymbolTable
 70
     1
  0
VPORT
  5
29
330
8
100
AcDbSymbolTableRecord
100
AcDbViewportTableRecord
  2
*Active
 70
     0
 10
0.0
 20
0.0
 11
1.0
 21
1.0
 12
210.0
 22
148.5
 13
0.0
 23
0.0
 14
10.0
 24
10.0
 15
10.0
 25
10.0
 16
0.0
 26
0.0
 36
1.0
 17
0.0
 27
0.0
 37
0.0
 40
297.0
 41
1.9729729729
 42
50.0
 43
0.0
 44
0.0
 50
0.0
 51
0.0
 71
     0
 72
  2000
 73
     1
 74
     3
 75
     0
 76
     0
 77
     0
 78
     0
281
     0
 65
     1
110
0.0
120
0.0
130
0.0
111
1.0
121
0.0
131
0.0
112
0.0
122
1.0
132
0.0
 79
     0
146
0.0
  0
ENDTAB
  0
TABLE
  2
LTYPE
  5
5
330
0
100
AcDbSymbolTable
 70
     6
  0
LTYPE
  5
14
330
5
100
AcDbSymbolTableRecord
100
AcDbLinetypeTableRecord
  2
ByBlock
 70
     0
  3

 72
    65
 73
     0
 40
0.0
  0
LTYPE
  5
15
330
5
100
AcDbSymbolTableRecord
100
AcDbLinetypeTableRecord
  2
ByLayer
 70
     0
  3

 72
    65
 73
     0
 40
0.0
  0
LTYPE
  5
16
330
5
100
AcDbSymbolTableRecord
100
AcDbLinetypeTableRecord
  2
Continuous
 70
     0
  3
Solid line
 72
    65
 73
     0
 40
0.0
  0
LTYPE
  5
2A
330
5
100
AcDbSymbolTableRecord
100
AcDbLinetypeTableRecord
  2
HIDDEN
 70
     0
  3
Hidden __ __ __ __ __ __ __ __ __ __ __ __ __ __
 72
    65
 73
     2
 40
1.905
 49
1.27
 74
     0
 49
-0.635
 74
     0
  0
LTYPE
  5
2B
330
5
100
AcDbSymbolTableRecord
100
AcDbLinetypeTableRecord
  2
PHANTOM
 70
     0
  3
Phantom ______  __  __  ______  __  __  ______
 72
    65
 73
     6
 40
12.7
 49
6.35
 74
     0
 49
-1.27
 74
     0
 49
1.27
 74
     0
 49
-1.27
 74
     0
 49
1.27
 74
     0
 49
-1.27
 74
     0
  0
LTYPE
  5
2C
330
5
100
AcDbSymbolTableRecord
100
AcDbLinetypeTableRecord
  2
CENTER
 70
     0
  3
Center ____ _ ____ _ ____ _ ____ _ ____ _ ____
 72
    65
 73
     4
 40
10.16
 49
6.35
 74
     0
 49
-1.27
 74
     0
 49
1.27
 74
     0
 49
-1.27
 74
     0
  0
LTYPE
  5
2D
330
5
100
AcDbSymbolTableRecord
100
AcDbLinetypeTableRecord
  2
CENTERX2
 70
     0
  3
Center (2x) ________  __  ________  __  _____
 72
    65
 73
     4
 40
20.32
 49
12.7
 74
     0
 49
-2.54
 74
     0
 49
2.54
 74
     0
 49
-2.54
 74
     0
  0
LTYPE
  5
2E
330
5
100
AcDbSymbolTableRecord
100
AcDbLinetypeTableRecord
  2
DOT2
 70
     0
  3
Dot (.5x) ........................................
 72
    65
 73
     2
 40
0.635
 49
0.0
 74
     0
 49
-0.635
 74
     0
  0
ENDTAB
  0
TABLE
  2
LAYER
  5
2
330
0
100
AcDbSymbolTable
 70
     2
  0
LAYER
  5
10
330
2
100
AcDbSymbolTableRecord
100
AcDbLayerTableRecord
  2
0
 70
     0
 62
     7
  6
Continuous
370
    -3
390
F
  0
LAYER
  5
2F
330
2
100
AcDbSymbolTableRecord
100
AcDbLayerTableRecord
  2
SLD-0
 70
     0
 62
   179
  6
Continuous
370
     0
390
F
  0
ENDTAB
  0
TABLE
  2
STYLE
  5
3
330
0
100
AcDbSymbolTable
 70
    12
  0
STYLE
  5
11
330
3
100
AcDbSymbolTableRecord
100
AcDbTextStyleTableRecord
  2
Standard
 70
     0
 40
0.0
 41
1.0
 50
0.0
 71
     0
 42
2.5
  3
txt
  4
bigfont
  0
STYLE
  5
38
330
3
100
AcDbSymbolTableRecord
100
AcDbTextStyleTableRecord
  2
SLDTEXTSTYLE0
 70
     0
 40
0.0
 41
0.6272516078
 50
0.0
 71
     0
 42
0.2
  3
TXT
  4
bigfont
  0
STYLE
  5
42
330
3
100
AcDbSymbolTableRecord
100
AcDbTextStyleTableRecord
  2
SLDTEXTSTYLE1
 70
     0
 40
0.0
 41
0.6244081115
 50
0.0
 71
     0
 42
0.2
  3
TXT
  4
bigfont
  0
STYLE
  5
4D
330
3
100
AcDbSymbolTableRecord
100
AcDbTextStyleTableRecord
  2
SLDTEXTSTYLE2
 70
     0
 40
0.0
 41
0.6212091781
 50
0.0
 71
     0
 42
0.2
  3
TXT
  4
bigfont
  0
STYLE
  5
60
330
3
100
AcDbSymbolTableRecord
100
AcDbTextStyleTableRecord
  2
SLDTEXTSTYLE3
 70
     0
 40
0.0
 41
0.622603585
 50
0.0
 71
     0
 42
0.2
  3
TXT
  4
bigfont
  0
STYLE
  5
309
330
3
100
AcDbSymbolTableRecord
100
AcDbTextStyleTableRecord
  2
SLDTEXTSTYLE4
 70
     0
 40
0.0
 41
0.5066143101
 50
0.0
 71
     0
 42
0.2
  3
TXT
  4
bigfont
  0
STYLE
  5
30B
330
3
100
AcDbSymbolTableRecord
100
AcDbTextStyleTableRecord
  2
SLDTEXTSTYLE5
 70
     0
 40
0.0
 41
0.4789083141
 50
0.0
 71
     0
 42
0.2
  3
TXT
  4
bigfont
  0
STYLE
  5
30D
330
3
100
AcDbSymbolTableRecord
100
AcDbTextStyleTableRecord
  2
SLDTEXTSTYLE6
 70
     0
 40
0.0
 41
0.4804099909
 50
0.0
 71
     0
 42
0.2
  3
TXT
  4
bigfont
  0
STYLE
  5
30F
330
3
100
AcDbSymbolTableRecord
100
AcDbTextStyleTableRecord
  2
SLDTEXTSTYLE7
 70
     0
 40
0.0
 41
0.621527212
 50
0.0
 71
     0
 42
0.2
  3
TXT
  4
bigfont
  0
STYLE
  5
311
330
3
100
AcDbSymbolTableRecord
100
AcDbTextStyleTableRecord
  2
SLDTEXTSTYLE8
 70
     0
 40
0.0
 41
0.6255252092
 50
0.0
 71
     0
 42
0.2
  3
TXT
  4
bigfont
  0
STYLE
  5
313
330
3
100
AcDbSymbolTableRecord
100
AcDbTextStyleTableRecord
  2
SLDTEXTSTYLE9
 70
     0
 40
0.0
 41
0.6219644931
 50
0.0
 71
     0
 42
0.2
  3
TXT
  4
bigfont
  0
STYLE
  5
315
330
3
100
AcDbSymbolTableRecord
100
AcDbTextStyleTableRecord
  2
SLDTEXTSTYLE10
 70
     0
 40
0.0
 41
0.6244081224
 50
0.0
 71
     0
 42
0.2
  3
TXT
  4
bigfont
  0
ENDTAB
  0
TABLE
  2
VIEW
  5
6
330
0
100
AcDbSymbolTable
 70
     0
  0
ENDTAB
  0
TABLE
  2
UCS
  5
7
330
0
100
AcDbSymbolTable
 70
     0
  0
ENDTAB
  0
TABLE
  2
APPID
  5
9
330
0
100
AcDbSymbolTable
 70
     1
  0
APPID
  5
12
330
9
100
AcDbSymbolTableRecord
100
AcDbRegAppTableRecord
  2
ACAD
 70
     0
  0
ENDTAB
  0
TABLE
  2
DIMSTYLE
  5
A
330
0
100
AcDbSymbolTable
 70
     1
100
AcDbDimStyleTable
  0
DIMSTYLE
105
27
330
A
100
AcDbSymbolTableRecord
100
AcDbDimStyleTableRecord
  2
ISO-25
 70
     0
 41
2.5
 42
0.625
 43
3.75
 44
1.25
 73
     0
 74
     0
 77
     1
 78
     8
140
2.5
141
2.5
143
0.0393700787
147
0.625
171
     3
172
     1
271
     2
272
     2
274
     3
278
    44
283
     0
284
     8
340
11
  0
ENDTAB
  0
TABLE
  2
BLOCK_RECORD
  5
1
330
0
100
AcDbSymbolTable
 70
    10
  0
BLOCK_RECORD
  5
1F
330
1
100
AcDbSymbolTableRecord
100
AcDbBlockTableRecord
  2
*Model_Space
340
22
  0
BLOCK_RECORD
  5
1B
330
1
100
AcDbSymbolTableRecord
100
AcDbBlockTableRecord
  2
*Paper_Space
340
1E
  0
BLOCK_RECORD
  5
23
330
1
100
AcDbSymbolTableRecord
100
AcDbBlockTableRecord
  2
*Paper_Space0
340
26
  0
BLOCK_RECORD
  5
30
330
1
100
AcDbSymbolTableRecord
100
AcDbBlockTableRecord
  2
KOZU0001
340
0
102
{BLKREFS
331
317
102
}
  0
BLOCK_RECORD
  5
3A
330
1
100
AcDbSymbolTableRecord
100
AcDbBlockTableRecord
  2
KOZU0002
340
0
102
{BLKREFS
331
318
102
}
  0
BLOCK_RECORD
  5
45
330
1
100
AcDbSymbolTableRecord
100
AcDbBlockTableRecord
  2
KOZU0003
340
0
102
{BLKREFS
331
319
102
}
  0
BLOCK_RECORD
  5
4F
330
1
100
AcDbSymbolTableRecord
100
AcDbBlockTableRecord
  2
SW_NOTE_0
340
0
102
{BLKREFS
331
57
102
}
  0
BLOCK_RECORD
  5
58
330
1
100
AcDbSymbolTableRecord
100
AcDbBlockTableRecord
  2
KOZU0004
340
0
102
{BLKREFS
331
31A
102
}
  0
BLOCK_RECORD
  5
62
330
1
100
AcDbSymbolTableRecord
100
AcDbBlockTableRecord
  2
KOZU0005
340
0
102
{BLKREFS
331
31B
102
}
  0
BLOCK_RECORD
  5
6B
330
1
100
AcDbSymbolTableRecord
100
AcDbBlockTableRecord
  2
KOZU0006
340
0
102
{BLKREFS
331
31C
102
}
  0
BLOCK_RECORD
  5
74
330
1
100
AcDbSymbolTableRecord
100
AcDbBlockTableRecord
  2
KOZU0007
340
0
102
{BLKREFS
331
31D
102
}
  0
BLOCK_RECORD
  5
7D
330
1
100
AcDbSymbolTableRecord
100
AcDbBlockTableRecord
  2
KOZU0008
340
0
102
{BLKREFS
331
31E
102
}
  0
ENDTAB
  0
ENDSEC
  0
SECTION
  2
BLOCKS
  0
BLOCK
  5
20
330
1F
100
AcDbEntity
  8
0
100
AcDbBlockBegin
  2
*Model_Space
 70
     0
 71
     0
 10
0.0
 20
0.0
 30
0.0
  3
*Model_Space
  1

  0
ENDBLK
  5
21
330
1F
100
AcDbEntity
  8
0
100
AcDbBlockEnd
  0
BLOCK
  5
1C
330
1B
100
AcDbEntity
 67
     1
  8
0
100
AcDbBlockBegin
  2
*Paper_Space
 70
     0
 71
     0
 10
0.0
 20
0.0
 30
0.0
  3
*Paper_Space
  1

  0
ENDBLK
  5
1D
330
1B
100
AcDbEntity
 67
     1
  8
0
100
AcDbBlockEnd
  0
BLOCK
  5
24
330
23
100
AcDbEntity
  8
0
100
AcDbBlockBegin
  2
*Paper_Space0
 70
     0
 71
     0
 10
0.0
 20
0.0
 30
0.0
  3
*Paper_Space0
  1

  0
ENDBLK
  5
25
330
23
100
AcDbEntity
  8
0
100
AcDbBlockEnd
  0
BLOCK
  5
31
330
30
100
AcDbEntity
  8
0
100
AcDbBlockBegin
  2
KOZU0001
 70
     0
 71
     0
 10
0.0
 20
0.0
 30
0.0
  3
KOZU0001
  1

  0
LINE
  5
33
330
30
100
AcDbEntity
  8
SLD-0
  6
Continuous
 62
   179
100
AcDbLine
 10
0.0
 20
0.0
 30
0.0
 11
-8.1845522333
 21
16.7249179905
 31
0.0
  0
LINE
  5
34
330
30
100
AcDbEntity
  8
SLD-0
  6
Continuous
 62
   179
100
AcDbLine
 10
0.0
 20
0.0
 30
0.0
 11
-1.8797213405
 21
2.5625915356
 31
0.0
  0
LINE
  5
35
330
30
100
AcDbEntity
  8
SLD-0
  6
Continuous
 62
   179
100
AcDbLine
 10
0.0
 20
0.0
 30
0.0
 11
-0.8701261867
 21
3.056649819
 31
0.0
  0
LINE
  5
36
330
30
100
AcDbEntity
  8
SLD-0
  6
Continuous
 62
   179
100
AcDbLine
 10
0.0
 20
0.0
 30
0.0
 11
-8.1845522333
 21
16.7249179905
 31
0.0
  0
LINE
  5
37
330
30
100
AcDbEntity
  8
SLD-0
  6
Continuous
 62
   179
100
AcDbLine
 10
-8.1845522333
 20
16.7249179905
 30
0.0
 11
-28.6363495949
 21
16.7249179905
 31
0.0
  0
MTEXT
  5
39
330
30
100
AcDbEntity
  8
SLD-0
100
AcDbMText
 10
-26.8083496455
 20
20.1796374181
 30
0.0
 40
3.2000000477
 41
0.0
 71
     1
 72
     1
  1
４－Ｍ５
  7
SLDTEXTSTYLE0
 73
     1
 44
1.0
  0
ENDBLK
  5
32
330
30
100
AcDbEntity
  8
0
100
AcDbBlockEnd
  0
BLOCK
  5
3B
330
3A
100
AcDbEntity
  8
0
100
AcDbBlockBegin
  2
KOZU0002
 70
     0
 71
     0
 10
0.0
 20
0.0
 30
0.0
  3
KOZU0002
  1

  0
LINE
  5
3D
330
3A
100
AcDbEntity
  8
SLD-0
  6
Continuous
 62
   179
100
AcDbLine
 10
0.0
 20
0.0
 30
0.0
 11
-14.5989554047
 21
34.0027601536
 31
0.0
  0
LINE
  5
3E
330
3A
100
AcDbEntity
  8
SLD-0
  6
Continuous
 62
   179
100
AcDbLine
 10
0.0
 20
0.0
 30
0.0
 11
-1.7504751313
 21
2.6525581071
 31
0.0
  0
LINE
  5
3F
330
3A
100
AcDbEntity
  8
SLD-0
  6
Continuous
 62
   179
100
AcDbLine
 10
0.0
 20
0.0
 30
0.0
 11
-0.7176460791
 21
3.095999322
 31
0.0
  0
LINE
  5
40
330
3A
100
AcDbEntity
  8
SLD-0
  6
Continuous
 62
   179
100
AcDbLine
 10
0.0
 20
0.0
 30
0.0
 11
-14.5989554047
 21
34.0027601536
 31
0.0
  0
LINE
  5
41
330
3A
100
AcDbEntity
  8
SLD-0
  6
Continuous
 62
   179
100
AcDbLine
 10
-14.5989554047
 20
34.0027601536
 30
0.0
 11
-37.9564742666
 21
34.0027601536
 31
0.0
  0
MTEXT
  5
43
330
3A
100
AcDbEntity
  8
SLD-0
100
AcDbMText
 10
-36.1284743171
 20
37.4574795812
 30
0.0
 40
3.2000000477
 41
0.0
 71
     1
 72
     1
  1
２ｘ２－Ｍ５
  7
SLDTEXTSTYLE1
 73
     1
 44
1.0
  0
MTEXT
  5
44
330
3A
100
AcDbEntity
  8
SLD-0
100
AcDbMText
 10
-36.1284743171
 20
31.8414794976
 30
0.0
 40
3.2000000477
 41
0.0
 71
     1
 72
     1
  1
取付ネジ
  7
SLDTEXTSTYLE0
 73
     1
 44
1.0
  0
ENDBLK
  5
3C
330
3A
100
AcDbEntity
  8
0
100
AcDbBlockEnd
  0
BLOCK
  5
46
330
45
100
AcDbEntity
  8
0
100
AcDbBlockBegin
  2
KOZU0003
 70
     0
 71
     0
 10
0.0
 20
0.0
 30
0.0
  3
KOZU0003
  1

  0
LINE
  5
48
330
45
100
AcDbEntity
  8
SLD-0
  6
Continuous
 62
   179
100
AcDbLine
 10
0.0
 20
0.0
 30
0.0
 11
19.3681655981
 21
39.3416950986
 31
0.0
  0
LINE
  5
49
330
45
100
AcDbEntity
  8
SLD-0
  6
Continuous
 62
   179
100
AcDbLine
 10
0.0
 20
0.0
 30
0.0
 11
0.8773743523
 21
3.0545772118
 31
0.0
  0
LINE
  5
4A
330
45
100
AcDbEntity
  8
SLD-0
  6
Continuous
 62
   179
100
AcDbLine
 10
0.0
 20
0.0
 30
0.0
 11
1.8857947207
 21
2.5581254793
 31
0.0
  0
LINE
  5
4B
330
45
100
AcDbEntity
  8
SLD-0
  6
Continuous
 62
   179
100
AcDbLine
 10
0.0
 20
0.0
 30
0.0
 11
19.3681655981
 21
39.3416950986
 31
0.0
  0
LINE
  5
4C
330
45
100
AcDbEntity
  8
SLD-0
  6
Continuous
 62
   179
100
AcDbLine
 10
19.3681655981
 20
39.3416950986
 30
0.0
 11
72.1080640987
 21
39.3416950986
 31
0.0
  0
MTEXT
  5
4E
330
45
100
AcDbEntity
  8
SLD-0
100
AcDbMText
 10
23.1940643028
 20
42.7964145262
 30
0.0
 40
3.2000000477
 41
0.0
 71
     1
 72
     1
  1
４－Ｍ６深１２（裏面ヨリ加工）
  7
SLDTEXTSTYLE2
 73
     1
 44
1.0
  0
INSERT
  5
57
330
45
100
AcDbEntity
  8
SLD-0
 62
     7
100
AcDbBlockReference
  2
SW_NOTE_0
 10
23.1940643028
 20
32.8901393954
 30
0.0
  0
ENDBLK
  5
47
330
45
100
AcDbEntity
  8
0
100
AcDbBlockEnd
  0
BLOCK
  5
50
330
4F
100
AcDbEntity
  8
0
100
AcDbBlockBegin
  2
SW_NOTE_0
 70
     0
 71
     0
 10
0.0
 20
0.0
 30
0.0
  3
SW_NOTE_0
  1

  0
MTEXT
  5
52
330
4F
100
AcDbEntity
  8
SLD-0
100
AcDbMText
 10
0.0
 20
4.2902750472
 30
0.0
 40
3.2000000477
 41
0.0
 71
     1
 72
     1
  1
４－
  7
SLDTEXTSTYLE2
 73
     1
 44
1.0
  0
MTEXT
  5
53
330
4F
100
AcDbEntity
  8
SLD-0
100
AcDbMText
 10
10.6177777052
 20
4.2902750472
 30
0.0
 40
3.2000000477
 41
0.0
 71
     1
 72
     1
  1
%%c
  7
SLDTEXTSTYLE2
 73
     1
 44
1.0
  0
MTEXT
  5
54
330
4F
100
AcDbEntity
  8
SLD-0
100
AcDbMText
 10
15.8026665449
 20
4.2902750472
 30
0.0
 40
3.2000000477
 41
0.0
 71
     1
 72
     1
  1
５．２
  7
SLDTEXTSTYLE2
 73
     1
 44
1.0
  0
MTEXT
  5
55
330
4F
100
AcDbEntity
  8
SLD-0
100
AcDbMText
 10
28.6115556955
 20
4.2902750472
 30
0.0
 40
3.2000000477
 41
0.0
 71
     1
 72
     1
  1
%%c
  7
SLDTEXTSTYLE2
 73
     1
 44
1.0
  0
MTEXT
  5
56
330
4F
100
AcDbEntity
  8
SLD-0
100
AcDbMText
 10
33.7964445353
 20
4.2902750472
 30
0.0
 40
3.2000000477
 41
0.0
 71
     1
 72
     1
  1
９ザグリ深５．５
  7
SLDTEXTSTYLE2
 73
     1
 44
1.0
  0
ENDBLK
  5
51
330
4F
100
AcDbEntity
  8
0
100
AcDbBlockEnd
  0
BLOCK
  5
59
330
58
100
AcDbEntity
  8
0
100
AcDbBlockBegin
  2
KOZU0004
 70
     0
 71
     0
 10
0.0
 20
0.0
 30
0.0
  3
KOZU0004
  1

  0
LINE
  5
5B
330
58
100
AcDbEntity
  8
SLD-0
  6
Continuous
 62
   179
100
AcDbLine
 10
0.0
 20
0.0
 30
0.0
 11
-17.9893704774
 21
-32.6213995399
 31
0.0
  0
LINE
  5
5C
330
58
100
AcDbEntity
  8
SLD-0
  6
Continuous
 62
   179
100
AcDbLine
 10
0.0
 20
0.0
 30
0.0
 11
-1.0183797115
 21
-3.0105033565
 31
0.0
  0
LINE
  5
5D
330
58
100
AcDbEntity
  8
SLD-0
  6
Continuous
 62
   179
100
AcDbLine
 10
0.0
 20
0.0
 30
0.0
 11
-2.002639296
 21
-2.4677243661
 31
0.0
  0
LINE
  5
5E
330
58
100
AcDbEntity
  8
SLD-0
  6
Continuous
 62
   179
100
AcDbLine
 10
0.0
 20
0.0
 30
0.0
 11
-17.9893704774
 21
-32.6213995399
 31
0.0
  0
LINE
  5
5F
330
58
100
AcDbEntity
  8
SLD-0
  6
Continuous
 62
   179
100
AcDbLine
 10
-17.9893704774
 20
-32.6213995399
 30
0.0
 11
-48.6184703196
 21
-32.6213995399
 31
0.0
  0
MTEXT
  5
61
330
58
100
AcDbEntity
  8
SLD-0
100
AcDbMText
 10
-47.1776235341
 20
-29.1666801123
 30
0.0
 40
3.2000000477
 41
0.0
 71
     1
 72
     1
  1
２－Ｍ５（配管用）
  7
SLDTEXTSTYLE3
 73
     1
 44
1.0
  0
ENDBLK
  5
5A
330
58
100
AcDbEntity
  8
0
100
AcDbBlockEnd
  0
BLOCK
  5
63
330
62
100
AcDbEntity
  8
0
100
AcDbBlockBegin
  2
KOZU0005
 70
     0
 71
     0
 10
0.0
 20
0.0
 30
0.0
  3
KOZU0005
  1

  0
LINE
  5
65
330
62
100
AcDbEntity
  8
SLD-0
  6
Continuous
 62
   179
100
AcDbLine
 10
0.0
 20
0.0
 30
0.0
 11
12.4664133604
 21
-18.9888227948
 31
0.0
  0
LINE
  5
66
330
62
100
AcDbEntity
  8
SLD-0
  6
Continuous
 62
   179
100
AcDbLine
 10
0.0
 20
0.0
 30
0.0
 11
2.1864805855
 21
-2.3064107063
 31
0.0
  0
LINE
  5
67
330
62
100
AcDbEntity
  8
SLD-0
  6
Continuous
 62
   179
100
AcDbLine
 10
0.0
 20
0.0
 30
0.0
 11
1.2468762151
 21
-2.9232734051
 31
0.0
  0
LINE
  5
68
330
62
100
AcDbEntity
  8
SLD-0
  6
Continuous
 62
   179
100
AcDbLine
 10
0.0
 20
0.0
 30
0.0
 11
12.4664133604
 21
-18.9888227948
 31
0.0
  0
LINE
  5
69
330
62
100
AcDbEntity
  8
SLD-0
  6
Continuous
 62
   179
100
AcDbLine
 10
12.4664133604
 20
-18.9888227948
 30
0.0
 11
30.5886917381
 21
-18.9888227948
 31
0.0
  0
MTEXT
  5
6A
330
62
100
AcDbEntity
  8
SLD-0
100
AcDbMText
 10
16.8746918111
 20
-15.5341033672
 30
0.0
 40
3.2000000477
 41
0.0
 71
     1
 72
     1
  1
２－Ｍ５
  7
SLDTEXTSTYLE0
 73
     1
 44
1.0
  0
ENDBLK
  5
64
330
62
100
AcDbEntity
  8
0
100
AcDbBlockEnd
  0
BLOCK
  5
6C
330
6B
100
AcDbEntity
  8
0
100
AcDbBlockBegin
  2
KOZU0006
 70
     0
 71
     0
 10
0.0
 20
0.0
 30
0.0
  3
KOZU0006
  1

  0
LINE
  5
6E
330
6B
100
AcDbEntity
  8
SLD-0
  6
Continuous
 62
   179
100
AcDbLine
 10
0.0
 20
0.0
 30
0.0
 11
9.4773028835
 21
16.6536844639
 31
0.0
  0
LINE
  5
6F
330
6B
100
AcDbEntity
  8
SLD-0
  6
Continuous
 62
   179
100
AcDbLine
 10
0.0
 20
0.0
 30
0.0
 11
1.0586641933
 21
2.9965743479
 31
0.0
  0
LINE
  5
70
330
6B
100
AcDbEntity
  8
SLD-0
  6
Continuous
 62
   179
100
AcDbLine
 10
0.0
 20
0.0
 30
0.0
 11
2.0355556435
 21
2.440643546
 31
0.0
  0
LINE
  5
71
330
6B
100
AcDbEntity
  8
SLD-0
  6
Continuous
 62
   179
100
AcDbLine
 10
0.0
 20
0.0
 30
0.0
 11
9.4773028835
 21
16.6536844639
 31
0.0
  0
LINE
  5
72
330
6B
100
AcDbEntity
  8
SLD-0
  6
Continuous
 62
   179
100
AcDbLine
 10
9.4773028835
 20
16.6536844639
 30
0.0
 11
27.1568898415
 21
16.6536844639
 31
0.0
  0
MTEXT
  5
73
330
6B
100
AcDbEntity
  8
SLD-0
100
AcDbMText
 10
13.4428899145
 20
20.1084038915
 30
0.0
 40
3.2000000477
 41
0.0
 71
     1
 72
     1
  1
４－Ｍ５
  7
SLDTEXTSTYLE0
 73
     1
 44
1.0
  0
ENDBLK
  5
6D
330
6B
100
AcDbEntity
  8
0
100
AcDbBlockEnd
  0
BLOCK
  5
75
330
74
100
AcDbEntity
  8
0
100
AcDbBlockBegin
  2
KOZU0007
 70
     0
 71
     0
 10
0.0
 20
0.0
 30
0.0
  3
KOZU0007
  1

  0
LINE
  5
77
330
74
100
AcDbEntity
  8
SLD-0
  6
Continuous
 62
   179
100
AcDbLine
 10
0.0
 20
0.0
 30
0.0
 11
-10.4566294717
 21
19.6612391714
 31
0.0
  0
LINE
  5
78
330
74
100
AcDbEntity
  8
SLD-0
  6
Continuous
 62
   179
100
AcDbLine
 10
0.0
 20
0.0
 30
0.0
 11
-1.9649774237
 21
2.4978173314
 31
0.0
  0
LINE
  5
79
330
74
100
AcDbEntity
  8
SLD-0
  6
Continuous
 62
   179
100
AcDbLine
 10
0.0
 20
0.0
 30
0.0
 11
-0.9725979769
 21
3.025604216
 31
0.0
  0
LINE
  5
7A
330
74
100
AcDbEntity
  8
SLD-0
  6
Continuous
 62
   179
100
AcDbLine
 10
0.0
 20
0.0
 30
0.0
 11
-10.4566294717
 21
19.6612391714
 31
0.0
  0
LINE
  5
7B
330
74
100
AcDbEntity
  8
SLD-0
  6
Continuous
 62
   179
100
AcDbLine
 10
-10.4566294717
 20
19.6612391714
 30
0.0
 11
-28.8991131938
 21
19.6612391714
 31
0.0
  0
MTEXT
  5
7C
330
74
100
AcDbEntity
  8
SLD-0
100
AcDbMText
 10
-27.0711132444
 20
23.115958599
 30
0.0
 40
3.2000000477
 41
0.0
 71
     1
 72
     1
  1
４－Ｍ５
  7
SLDTEXTSTYLE0
 73
     1
 44
1.0
  0
ENDBLK
  5
76
330
74
100
AcDbEntity
  8
0
100
AcDbBlockEnd
  0
BLOCK
  5
7E
330
7D
100
AcDbEntity
  8
0
100
AcDbBlockBegin
  2
KOZU0008
 70
     0
 71
     0
 10
0.0
 20
0.0
 30
0.0
  3
KOZU0008
  1

  0
LINE
  5
80
330
7D
100
AcDbEntity
  8
SLD-0
  6
Continuous
 62
   179
100
AcDbLine
 10
0.0
 20
0.0
 30
0.0
 11
21.1740547914
 21
-52.3405276185
 31
0.0
  0
LINE
  5
81
330
7D
100
AcDbEntity
  8
SLD-0
  6
Continuous
 62
   179
100
AcDbLine
 10
0.0
 20
0.0
 30
0.0
 11
1.6940439387
 21
-2.6889482759
 31
0.0
  0
LINE
  5
82
330
7D
100
AcDbEntity
  8
SLD-0
  6
Continuous
 62
   179
100
AcDbLine
 10
0.0
 20
0.0
 30
0.0
 11
0.6520768484
 21
-3.1104699774
 31
0.0
  0
LINE
  5
83
330
7D
100
AcDbEntity
  8
SLD-0
  6
Continuous
 62
   179
100
AcDbLine
 10
0.0
 20
0.0
 30
0.0
 11
21.1740547914
 21
-52.3405276185
 31
0.0
  0
LINE
  5
84
330
7D
100
AcDbEntity
  8
SLD-0
  6
Continuous
 62
   179
100
AcDbLine
 10
21.1740547914
 20
-52.3405276185
 30
0.0
 11
-33.9474861235
 21
-52.3405276185
 31
0.0
  0
MTEXT
  5
85
330
7D
100
AcDbEntity
  8
SLD-0
100
AcDbMText
 10
-32.119486174
 20
-48.8858081909
 30
0.0
 40
3.2000000477
 41
0.0
 71
     1
 72
     1
  1
有接点オートスイッチ（ＳＭＣ）
  7
SLDTEXTSTYLE2
 73
     1
 44
1.0
  0
MTEXT
  5
86
330
7D
100
AcDbEntity
  8
SLD-0
100
AcDbMText
 10
-32.119486174
 20
-54.5018082746
 30
0.0
 40
3.2000000477
 41
0.0
 71
     1
 72
     1
  1
Ｄ－Ａ９３　２ヶ（オプション）
  7
SLDTEXTSTYLE2
 73
     1
 44
1.0
  0
ENDBLK
  5
7F
330
7D
100
AcDbEntity
  8
0
100
AcDbBlockEnd
  0
ENDSEC
  0
SECTION
  2
ENTITIES
  0
LINE
  5
87
330
1F
100
AcDbEntity
  8
SLD-0
  6
Continuous
 62
   179
100
AcDbLine
 10
305.2288263376
 20
48.4715485029
 30
0.0
 11
305.2288263376
 21
60.4715408735
 31
0.0
  0
LINE
  5
88
330
1F
100
AcDbEntity
  8
SLD-0
  6
Continuous
 62
   179
100
AcDbLine
 10
143.7288568552
 20
48.4715485029
 30
0.0
 11
150.4288690622
 21
48.4715485029
 31
0.0
  0
LINE
  5
89
330
1F
100
AcDbEntity
  8
SLD-0
  6
Continuous
 62
   179
100
AcDbLine
 10
143.7288568552
 20
60.4715408735
 30
0.0
 11
150.4288690622
 21
60.4715408735
 31
0.0
  0
LINE
  5
8A
330
1F
100
AcDbEntity
  8
SLD-0
  6
Continuous
 62
   179
100
AcDbLine
 10
264.6100565465
 20
66.4715355923
 30
0.0
 11
266.9194592499
 21
70.471537861
 31
0.0
  0
LINE
  5
8B
330
1F
100
AcDbEntity
  8
SLD-0
  6
CENTER
 62
   179
100
AcDbLine
 10
262.7888544138
 20
66.4715485029
 30
0.0
 11
275.668828779
 21
66.4715485029
 31
0.0
  0
LINE
  5
8C
330
1F
100
AcDbEntity
  8
SLD-0
  6
CENTER
 62
   179
100
AcDbLine
 10
25.3464578014
 20
54.4715485029
 30
0.0
 11
308.1791132029
 21
54.4715485029
 31
0.0
  0
LINE
  5
8D
330
1F
100
AcDbEntity
  8
SLD-0
  6
Continuous
 62
   179
100
AcDbLine
 10
133.7288568552
 20
41.4715485029
 30
0.0
 11
143.7288568552
 21
41.4715485029
 31
0.0
  0
LINE
  5
8E
330
1F
100
AcDbEntity
  8
SLD-0
  6
Continuous
 62
   179
100
AcDbLine
 10
133.7288568552
 20
67.4715408735
 30
0.0
 11
143.7288568552
 21
67.4715408735
 31
0.0
  0
LINE
  5
8F
330
1F
100
AcDbEntity
  8
SLD-0
  6
Continuous
 62
   179
100
AcDbLine
 10
133.7288568552
 20
67.4715408735
 30
0.0
 11
133.7288568552
 21
41.4715485029
 31
0.0
  0
LINE
  5
90
330
1F
100
AcDbEntity
  8
SLD-0
  6
Continuous
 62
   179
100
AcDbLine
 10
143.7288568552
 20
67.4715408735
 30
0.0
 11
143.7288568552
 21
41.4715485029
 31
0.0
  0
LINE
  5
91
330
1F
100
AcDbEntity
  8
SLD-0
  6
CENTER
 62
   179
100
AcDbLine
 10
240.7288568552
 20
47.511541789
 30
0.0
 11
240.7288568552
 21
36.9315475873
 31
0.0
  0
LINE
  5
92
330
1F
100
AcDbEntity
  8
SLD-0
  6
CENTER
 62
   179
100
AcDbLine
 10
155.7288568552
 20
47.511541789
 30
0.0
 11
155.7288568552
 21
36.9315475873
 31
0.0
  0
LINE
  5
93
330
1F
100
AcDbEntity
  8
SLD-0
  6
CENTER
 62
   179
100
AcDbLine
 10
150.6888788279
 20
42.4715485029
 30
0.0
 11
160.7688348826
 21
42.4715485029
 31
0.0
  0
LINE
  5
94
330
1F
100
AcDbEntity
  8
SLD-0
  6
CENTER
 62
   179
100
AcDbLine
 10
235.6888788279
 20
42.4715485029
 30
0.0
 11
245.7688348826
 21
42.4715485029
 31
0.0
  0
LINE
  5
95
330
1F
100
AcDbEntity
  8
SLD-0
  6
Continuous
 62
   179
100
AcDbLine
 10
271.5382595393
 20
62.4715351808
 30
0.0
 11
273.8476622426
 21
66.4715374496
 31
0.0
  0
LINE
  5
96
330
1F
100
AcDbEntity
  8
SLD-0
  6
Continuous
 62
   179
100
AcDbLine
 10
264.6100452238
 20
66.4715533447
 30
0.0
 11
266.9194479272
 21
62.4715510759
 31
0.0
  0
LINE
  5
97
330
1F
100
AcDbEntity
  8
SLD-0
  6
Continuous
 62
   179
100
AcDbLine
 10
266.9194696482
 20
62.4715485029
 30
0.0
 11
271.5382440622
 21
62.4715485029
 31
0.0
  0
LINE
  5
98
330
1F
100
AcDbEntity
  8
SLD-0
  6
Continuous
 62
   179
100
AcDbLine
 10
266.9194696482
 20
70.4715485029
 30
0.0
 11
271.5382440622
 21
70.4715485029
 31
0.0
  0
LINE
  5
99
330
1F
100
AcDbEntity
  8
SLD-0
  6
Continuous
 62
   179
100
AcDbLine
 10
271.5382440622
 20
70.4715485029
 30
0.0
 11
273.8476509199
 21
66.4715514874
 31
0.0
  0
LINE
  5
9A
330
1F
100
AcDbEntity
  8
SLD-0
  6
CENTER
 62
   179
100
AcDbLine
 10
269.2288568552
 20
72.9115433149
 30
0.0
 11
269.2288568552
 21
60.0315460614
 31
0.0
  0
LINE
  5
9B
330
1F
100
AcDbEntity
  8
SLD-0
  6
Continuous
 62
   179
100
AcDbLine
 10
169.2288568552
 20
59.4715485029
 30
0.0
 11
209.2288568552
 21
59.4715485029
 31
0.0
  0
LINE
  5
9C
330
1F
100
AcDbEntity
  8
SLD-0
  6
Continuous
 62
   179
100
AcDbLine
 10
159.1100423054
 20
66.4715412705
 30
0.0
 11
161.4194450088
 21
70.4715435393
 31
0.0
  0
LINE
  5
9D
330
1F
100
AcDbEntity
  8
SLD-0
  6
CENTER
 62
   179
100
AcDbLine
 10
157.2888544138
 20
66.4715485029
 30
0.0
 11
170.1688592966
 21
66.4715485029
 31
0.0
  0
LINE
  5
9E
330
1F
100
AcDbEntity
  8
SLD-0
  6
Continuous
 62
   179
100
AcDbLine
 10
161.4194696482
 20
70.4715485029
 30
0.0
 11
166.0382440622
 21
70.4715485029
 31
0.0
  0
LINE
  5
9F
330
1F
100
AcDbEntity
  8
SLD-0
  6
Continuous
 62
   179
100
AcDbLine
 10
161.4194696482
 20
62.4715485029
 30
0.0
 11
166.0382440622
 21
62.4715485029
 31
0.0
  0
LINE
  5
A0
330
1F
100
AcDbEntity
  8
SLD-0
  6
Continuous
 62
   179
100
AcDbLine
 10
169.2288568552
 20
49.4715485029
 30
0.0
 11
209.2288568552
 21
49.4715485029
 31
0.0
  0
LINE
  5
A1
330
1F
100
AcDbEntity
  8
SLD-0
  6
Continuous
 62
   179
100
AcDbLine
 10
159.1100423054
 20
66.4715412705
 30
0.0
 11
161.4194375007
 21
62.4715387905
 31
0.0
  0
LINE
  5
A2
330
1F
100
AcDbEntity
  8
SLD-0
  6
Continuous
 62
   179
100
AcDbLine
 10
166.0382440622
 20
62.4715485029
 30
0.0
 11
168.3476480015
 21
66.4715431278
 31
0.0
  0
LINE
  5
A3
330
1F
100
AcDbEntity
  8
SLD-0
  6
Continuous
 62
   179
100
AcDbLine
 10
169.2288568552
 20
59.4715485029
 30
0.0
 11
169.2288568552
 21
49.4715485029
 31
0.0
  0
LINE
  5
A4
330
1F
100
AcDbEntity
  8
SLD-0
  6
Continuous
 62
   179
100
AcDbLine
 10
287.7288263376
 20
71.9715408735
 30
0.0
 11
287.7288263376
 21
36.9715485029
 31
0.0
  0
LINE
  5
A5
330
1F
100
AcDbEntity
  8
SLD-0
  6
Continuous
 62
   179
100
AcDbLine
 10
150.7288568552
 20
71.9715408735
 30
0.0
 11
150.7288568552
 21
36.9715485029
 31
0.0
  0
LINE
  5
A6
330
1F
100
AcDbEntity
  8
SLD-0
  6
Continuous
 62
   179
100
AcDbLine
 10
150.7288568552
 20
36.9715485029
 30
0.0
 11
287.7288263376
 21
36.9715485029
 31
0.0
  0
LINE
  5
A7
330
1F
100
AcDbEntity
  8
SLD-0
  6
Continuous
 62
   179
100
AcDbLine
 10
150.7288568552
 20
71.9715408735
 30
0.0
 11
287.7288263376
 21
71.9715408735
 31
0.0
  0
LINE
  5
A8
330
1F
100
AcDbEntity
  8
SLD-0
  6
Continuous
 62
   179
100
AcDbLine
 10
209.2288568552
 20
59.4715485029
 30
0.0
 11
209.2288568552
 21
49.4715485029
 31
0.0
  0
LINE
  5
A9
330
1F
100
AcDbEntity
  8
SLD-0
  6
CENTER
 62
   179
100
AcDbLine
 10
269.2288568552
 20
72.0115494184
 30
0.0
 11
269.2288568552
 21
61.4315475873
 31
0.0
  0
LINE
  5
AA
330
1F
100
AcDbEntity
  8
SLD-0
  6
CENTER
 62
   179
100
AcDbLine
 10
163.7288568552
 20
72.0115494184
 30
0.0
 11
163.7288568552
 21
61.4315475873
 31
0.0
  0
LINE
  5
AB
330
1F
100
AcDbEntity
  8
SLD-0
  6
CENTER
 62
   179
100
AcDbLine
 10
158.6888177927
 20
66.4715485029
 30
0.0
 11
168.7688348826
 21
66.4715485029
 31
0.0
  0
LINE
  5
AC
330
1F
100
AcDbEntity
  8
SLD-0
  6
CENTER
 62
   179
100
AcDbLine
 10
264.1888177927
 20
66.4715485029
 30
0.0
 11
274.2688348826
 21
66.4715485029
 31
0.0
  0
LINE
  5
AD
330
1F
100
AcDbEntity
  8
SLD-0
  6
CENTER
 62
   179
100
AcDbLine
 10
163.7288568552
 20
72.9115433149
 30
0.0
 11
163.7288568552
 21
60.0315460614
 31
0.0
  0
LINE
  5
AE
330
1F
100
AcDbEntity
  8
SLD-0
  6
Continuous
 62
   179
100
AcDbLine
 10
150.7288568552
 20
69.9715485029
 30
0.0
 11
287.7288263376
 21
69.9715485029
 31
0.0
  0
LINE
  5
AF
330
1F
100
AcDbEntity
  8
SLD-0
  6
Continuous
 62
   179
100
AcDbLine
 10
150.7288568552
 20
38.9715485029
 30
0.0
 11
287.7288263376
 21
38.9715485029
 31
0.0
  0
LINE
  5
B0
330
1F
100
AcDbEntity
  8
SLD-0
  6
Continuous
 62
   179
100
AcDbLine
 10
133.7288568552
 20
65.4715408735
 30
0.0
 11
143.7288568552
 21
65.4715408735
 31
0.0
  0
LINE
  5
B1
330
1F
100
AcDbEntity
  8
SLD-0
  6
Continuous
 62
   179
100
AcDbLine
 10
133.7288568552
 20
43.4715485029
 30
0.0
 11
143.7288568552
 21
43.4715485029
 31
0.0
  0
LINE
  5
B2
330
1F
100
AcDbEntity
  8
SLD-0
  6
Continuous
 62
   179
100
AcDbLine
 10
166.0382440622
 20
70.4715485029
 30
0.0
 11
168.3476480015
 21
66.4715431278
 31
0.0
  0
LINE
  5
B3
330
1F
100
AcDbEntity
  8
SLD-0
  6
Continuous
 62
   179
100
AcDbLine
 10
287.7288263376
 20
60.4715408735
 30
0.0
 11
305.2288263376
 21
60.4715408735
 31
0.0
  0
LINE
  5
B4
330
1F
100
AcDbEntity
  8
SLD-0
  6
Continuous
 62
   179
100
AcDbLine
 10
305.2288263376
 20
48.4715485029
 30
0.0
 11
287.7288263376
 21
48.4715485029
 31
0.0
  0
LINE
  5
B5
330
1F
100
AcDbEntity
  8
SLD-0
  6
CENTER
 62
   179
100
AcDbLine
 10
82.5365045603
 20
106.9315552167
 30
0.0
 11
82.5365045603
 21
117.0115570478
 31
0.0
  0
LINE
  5
B6
330
1F
100
AcDbEntity
  8
SLD-0
  6
CENTER
 62
   179
100
AcDbLine
 10
66.5365045603
 20
106.9315552167
 30
0.0
 11
66.5365045603
 21
117.0115570478
 31
0.0
  0
LINE
  5
B7
330
1F
100
AcDbEntity
  8
SLD-0
  6
CENTER
 62
   179
100
AcDbLine
 10
66.5365045603
 20
181.0115570478
 30
0.0
 11
66.5365045603
 21
170.9315552167
 31
0.0
  0
LINE
  5
B8
330
1F
100
AcDbEntity
  8
SLD-0
  6
CENTER
 62
   179
100
AcDbLine
 10
82.5365045603
 20
181.0115570478
 30
0.0
 11
82.5365045603
 21
170.9315552167
 31
0.0
  0
LINE
  5
B9
330
1F
100
AcDbEntity
  8
SLD-0
  6
CENTER
 62
   179
100
AcDbLine
 10
77.4965265329
 20
175.9715637616
 30
0.0
 11
87.5764825876
 21
175.9715637616
 31
0.0
  0
LINE
  5
BA
330
1F
100
AcDbEntity
  8
SLD-0
  6
CENTER
 62
   179
100
AcDbLine
 10
71.5764825876
 20
111.9715485029
 30
0.0
 11
61.4965265329
 21
111.9715485029
 31
0.0
  0
LINE
  5
BB
330
1F
100
AcDbEntity
  8
SLD-0
  6
CENTER
 62
   179
100
AcDbLine
 10
77.4965265329
 20
111.9715485029
 30
0.0
 11
87.5764825876
 21
111.9715485029
 31
0.0
  0
LINE
  5
BC
330
1F
100
AcDbEntity
  8
SLD-0
  6
CENTER
 62
   179
100
AcDbLine
 10
71.5764825876
 20
175.9715637616
 30
0.0
 11
61.4965265329
 21
175.9715637616
 31
0.0
  0
LINE
  5
BD
330
1F
100
AcDbEntity
  8
SLD-0
  6
Continuous
 62
   179
100
AcDbLine
 10
92.0365045603
 20
162.8074774053
 30
0.0
 11
92.0365045603
 21
151.9715637616
 31
0.0
  0
LINE
  5
BE
330
1F
100
AcDbEntity
  8
SLD-0
  6
Continuous
 62
   179
100
AcDbLine
 10
90.5365045603
 20
146.6242652811
 30
0.0
 11
90.5365045603
 21
141.3188690595
 31
0.0
  0
LINE
  5
BF
330
1F
100
AcDbEntity
  8
SLD-0
  6
Continuous
 62
   179
100
AcDbLine
 10
63.5365047067
 20
180.9715637616
 30
0.0
 11
85.5365045603
 21
180.9715637616
 31
0.0
  0
LINE
  5
C0
330
1F
100
AcDbEntity
  8
SLD-0
  6
Continuous
 62
   179
100
AcDbLine
 10
63.5365047067
 20
106.9715485029
 30
0.0
 11
85.5365045603
 21
106.9715485029
 31
0.0
  0
LINE
  5
C1
330
1F
100
AcDbEntity
  8
SLD-0
  6
Continuous
 62
   179
100
AcDbLine
 10
61.5365045603
 20
178.9715637616
 30
0.0
 11
61.5365045603
 21
108.9715485029
 31
0.0
  0
LINE
  5
C2
330
1F
100
AcDbEntity
  8
SLD-0
  6
Continuous
 62
   179
100
AcDbLine
 10
87.5365045603
 20
178.9715636152
 30
0.0
 11
87.5365045603
 21
108.9715486493
 31
0.0
  0
LINE
  5
C3
330
1F
100
AcDbEntity
  8
SLD-0
  6
CENTER
 62
   179
100
AcDbLine
 10
86.0764825876
 20
116.9715485029
 30
0.0
 11
62.9965265329
 21
116.9715485029
 31
0.0
  0
LINE
  5
C4
330
1F
100
AcDbEntity
  8
SLD-0
  6
CENTER
 62
   179
100
AcDbLine
 10
86.0764825876
 20
170.9715637616
 30
0.0
 11
62.9965265329
 21
170.9715637616
 31
0.0
  0
LINE
  5
C5
330
1F
100
AcDbEntity
  8
SLD-0
  6
CENTER
 62
   179
100
AcDbLine
 10
87.0764825876
 20
143.9715637616
 30
0.0
 11
61.9965265329
 21
143.9715637616
 31
0.0
  0
LINE
  5
C6
330
1F
100
AcDbEntity
  8
SLD-0
  6
CENTER
 62
   179
100
AcDbLine
 10
74.5365045603
 20
182.5115570478
 30
0.0
 11
74.5365045603
 21
105.4315552167
 31
0.0
  0
LINE
  5
C7
330
1F
100
AcDbEntity
  8
SLD-0
  6
Continuous
 62
   179
100
AcDbLine
 10
59.0365004717
 20
182.9715637616
 30
0.0
 11
90.0365086489
 21
182.9715637616
 31
0.0
  0
LINE
  5
C8
330
1F
100
AcDbEntity
  8
SLD-0
  6
Continuous
 62
   179
100
AcDbLine
 10
59.0365045603
 20
104.9715485029
 30
0.0
 11
90.0365045603
 21
104.9715485029
 31
0.0
  0
LINE
  5
C9
330
1F
100
AcDbEntity
  8
SLD-0
  6
CENTER
 62
   179
100
AcDbLine
 10
74.5365045603
 20
105.4315704755
 30
0.0
 11
74.5365045603
 21
182.5115723066
 31
0.0
  0
LINE
  5
CA
330
1F
100
AcDbEntity
  8
SLD-0
  6
Continuous
 62
   179
100
AcDbLine
 10
85.5365045603
 20
180.9715637616
 30
0.0
 11
87.5365045603
 21
178.9715636152
 31
0.0
  0
LINE
  5
CB
330
1F
100
AcDbEntity
  8
SLD-0
  6
Continuous
 62
   179
100
AcDbLine
 10
61.5365045603
 20
178.9715637616
 30
0.0
 11
63.5365047067
 21
180.9715637616
 31
0.0
  0
LINE
  5
CC
330
1F
100
AcDbEntity
  8
SLD-0
  6
Continuous
 62
   179
100
AcDbLine
 10
61.5365045603
 20
108.9715485029
 30
0.0
 11
63.5365047067
 21
106.9715485029
 31
0.0
  0
LINE
  5
CD
330
1F
100
AcDbEntity
  8
SLD-0
  6
Continuous
 62
   179
100
AcDbLine
 10
85.5365045603
 20
106.9715485029
 30
0.0
 11
87.5365045603
 21
108.9715486493
 31
0.0
  0
LINE
  5
CE
330
1F
100
AcDbEntity
  8
SLD-0
  6
Continuous
 62
   179
100
AcDbLine
 10
57.0365045603
 20
175.5074774053
 30
0.0
 11
59.0365045603
 21
182.9715790204
 31
0.0
  0
LINE
  5
CF
330
1F
100
AcDbEntity
  8
SLD-0
  6
Continuous
 62
   179
100
AcDbLine
 10
57.0365045603
 20
164.7074774053
 30
0.0
 11
57.0365045603
 21
165.8074774053
 31
0.0
  0
LINE
  5
D0
330
1F
100
AcDbEntity
  8
SLD-0
  6
Continuous
 62
   179
100
AcDbLine
 10
57.0365045603
 20
173.7074774053
 30
0.0
 11
57.0365045603
 21
175.5074774053
 31
0.0
  0
LINE
  5
D1
330
1F
100
AcDbEntity
  8
SLD-0
  6
Continuous
 62
   179
100
AcDbLine
 10
57.0365045603
 20
167.7074774053
 30
0.0
 11
57.0365045603
 21
168.8074774053
 31
0.0
  0
LINE
  5
D2
330
1F
100
AcDbEntity
  8
SLD-0
  6
Continuous
 62
   179
100
AcDbLine
 10
57.5365045603
 20
163.2074774053
 30
0.0
 11
57.5365045603
 21
164.3074774053
 31
0.0
  0
LINE
  5
D3
330
1F
100
AcDbEntity
  8
SLD-0
  6
Continuous
 62
   179
100
AcDbLine
 10
57.5365045603
 20
166.2074774053
 30
0.0
 11
57.5365045603
 21
167.3074774053
 31
0.0
  0
LINE
  5
D4
330
1F
100
AcDbEntity
  8
SLD-0
  6
Continuous
 62
   179
100
AcDbLine
 10
57.5365045603
 20
169.2074774053
 30
0.0
 11
57.5365045603
 21
173.3074774053
 31
0.0
  0
LINE
  5
D5
330
1F
100
AcDbEntity
  8
SLD-0
  6
Continuous
 62
   179
100
AcDbLine
 10
57.2365045603
 20
163.0074774053
 30
0.0
 11
57.3365045603
 21
163.0074774053
 31
0.0
  0
LINE
  5
D6
330
1F
100
AcDbEntity
  8
SLD-0
  6
Continuous
 62
   179
100
AcDbLine
 10
57.2365045603
 20
167.5074774053
 30
0.0
 11
57.3365045603
 21
167.5074774053
 31
0.0
  0
LINE
  5
D7
330
1F
100
AcDbEntity
  8
SLD-0
  6
Continuous
 62
   179
100
AcDbLine
 10
57.2365045603
 20
164.5074774053
 30
0.0
 11
57.3365045603
 21
164.5074774053
 31
0.0
  0
LINE
  5
D8
330
1F
100
AcDbEntity
  8
SLD-0
  6
Continuous
 62
   179
100
AcDbLine
 10
57.2365045603
 20
166.0074774053
 30
0.0
 11
57.3365045603
 21
166.0074774053
 31
0.0
  0
LINE
  5
D9
330
1F
100
AcDbEntity
  8
SLD-0
  6
Continuous
 62
   179
100
AcDbLine
 10
57.2365045603
 20
169.0074774053
 30
0.0
 11
57.3365045603
 21
169.0074774053
 31
0.0
  0
LINE
  5
DA
330
1F
100
AcDbEntity
  8
SLD-0
  6
Continuous
 62
   179
100
AcDbLine
 10
57.2365045603
 20
173.5074774053
 30
0.0
 11
57.3365045603
 21
173.5074774053
 31
0.0
  0
LINE
  5
DB
330
1F
100
AcDbEntity
  8
SLD-0
  6
Continuous
 62
   179
100
AcDbLine
 10
91.8365045603
 20
173.5074774053
 30
0.0
 11
91.7365045603
 21
173.5074774053
 31
0.0
  0
LINE
  5
DC
330
1F
100
AcDbEntity
  8
SLD-0
  6
Continuous
 62
   179
100
AcDbLine
 10
91.8365045603
 20
172.0074774053
 30
0.0
 11
91.7365045603
 21
172.0074774053
 31
0.0
  0
LINE
  5
DD
330
1F
100
AcDbEntity
  8
SLD-0
  6
Continuous
 62
   179
100
AcDbLine
 10
91.8365045603
 20
170.5074774053
 30
0.0
 11
91.7365045603
 21
170.5074774053
 31
0.0
  0
LINE
  5
DE
330
1F
100
AcDbEntity
  8
SLD-0
  6
Continuous
 62
   179
100
AcDbLine
 10
91.8365045603
 20
169.0074774053
 30
0.0
 11
91.7365045603
 21
169.0074774053
 31
0.0
  0
LINE
  5
DF
330
1F
100
AcDbEntity
  8
SLD-0
  6
Continuous
 62
   179
100
AcDbLine
 10
91.5365045603
 20
172.2074774053
 30
0.0
 11
91.5365045603
 21
173.3074774053
 31
0.0
  0
LINE
  5
E0
330
1F
100
AcDbEntity
  8
SLD-0
  6
Continuous
 62
   179
100
AcDbLine
 10
91.8365045603
 20
166.0074774053
 30
0.0
 11
91.7365045603
 21
166.0074774053
 31
0.0
  0
LINE
  5
E1
330
1F
100
AcDbEntity
  8
SLD-0
  6
Continuous
 62
   179
100
AcDbLine
 10
91.8365045603
 20
164.5074774053
 30
0.0
 11
91.7365045603
 21
164.5074774053
 31
0.0
  0
LINE
  5
E2
330
1F
100
AcDbEntity
  8
SLD-0
  6
Continuous
 62
   179
100
AcDbLine
 10
91.8365045603
 20
167.5074774053
 30
0.0
 11
91.7365045603
 21
167.5074774053
 31
0.0
  0
LINE
  5
E3
330
1F
100
AcDbEntity
  8
SLD-0
  6
Continuous
 62
   179
100
AcDbLine
 10
91.8365045603
 20
163.0074774053
 30
0.0
 11
91.7365045603
 21
163.0074774053
 31
0.0
  0
LINE
  5
E4
330
1F
100
AcDbEntity
  8
SLD-0
  6
Continuous
 62
   179
100
AcDbLine
 10
91.5365045603
 20
169.2074774053
 30
0.0
 11
91.5365045603
 21
170.3074774053
 31
0.0
  0
LINE
  5
E5
330
1F
100
AcDbEntity
  8
SLD-0
  6
Continuous
 62
   179
100
AcDbLine
 10
91.5365045603
 20
166.2074774053
 30
0.0
 11
91.5365045603
 21
167.3074774053
 31
0.0
  0
LINE
  5
E6
330
1F
100
AcDbEntity
  8
SLD-0
  6
Continuous
 62
   179
100
AcDbLine
 10
91.5365045603
 20
163.2074774053
 30
0.0
 11
91.5365045603
 21
164.3074774053
 31
0.0
  0
LINE
  5
E7
330
1F
100
AcDbEntity
  8
SLD-0
  6
Continuous
 62
   179
100
AcDbLine
 10
92.0365045603
 20
170.7074774053
 30
0.0
 11
92.0365045603
 21
171.8074774053
 31
0.0
  0
LINE
  5
E8
330
1F
100
AcDbEntity
  8
SLD-0
  6
Continuous
 62
   179
100
AcDbLine
 10
92.0365045603
 20
167.7074774053
 30
0.0
 11
92.0365045603
 21
168.8074774053
 31
0.0
  0
LINE
  5
E9
330
1F
100
AcDbEntity
  8
SLD-0
  6
Continuous
 62
   179
100
AcDbLine
 10
92.0365045603
 20
173.7074774053
 30
0.0
 11
92.0365045603
 21
175.5074774053
 31
0.0
  0
LINE
  5
EA
330
1F
100
AcDbEntity
  8
SLD-0
  6
Continuous
 62
   179
100
AcDbLine
 10
92.0365045603
 20
164.7074774053
 30
0.0
 11
92.0365045603
 21
165.8074774053
 31
0.0
  0
LINE
  5
EB
330
1F
100
AcDbEntity
  8
SLD-0
  6
Continuous
 62
   179
100
AcDbLine
 10
92.0365045603
 20
175.5074774053
 30
0.0
 11
90.0365045603
 21
182.9715790204
 31
0.0
  0
LINE
  5
EC
330
1F
100
AcDbEntity
  8
SLD-0
  6
Continuous
 62
   179
100
AcDbLine
 10
57.0365045603
 20
112.435650118
 30
0.0
 11
59.0365045603
 21
104.9715485029
 31
0.0
  0
LINE
  5
ED
330
1F
100
AcDbEntity
  8
SLD-0
  6
Continuous
 62
   179
100
AcDbLine
 10
57.0365045603
 20
123.235650118
 30
0.0
 11
57.0365045603
 21
122.135650118
 31
0.0
  0
LINE
  5
EE
330
1F
100
AcDbEntity
  8
SLD-0
  6
Continuous
 62
   179
100
AcDbLine
 10
57.0365045603
 20
114.235650118
 30
0.0
 11
57.0365045603
 21
112.435650118
 31
0.0
  0
LINE
  5
EF
330
1F
100
AcDbEntity
  8
SLD-0
  6
Continuous
 62
   179
100
AcDbLine
 10
57.0365045603
 20
120.235650118
 30
0.0
 11
57.0365045603
 21
119.135650118
 31
0.0
  0
LINE
  5
F0
330
1F
100
AcDbEntity
  8
SLD-0
  6
Continuous
 62
   179
100
AcDbLine
 10
57.5365045603
 20
124.735650118
 30
0.0
 11
57.5365045603
 21
123.635650118
 31
0.0
  0
LINE
  5
F1
330
1F
100
AcDbEntity
  8
SLD-0
  6
Continuous
 62
   179
100
AcDbLine
 10
57.5365045603
 20
121.735650118
 30
0.0
 11
57.5365045603
 21
120.635650118
 31
0.0
  0
LINE
  5
F2
330
1F
100
AcDbEntity
  8
SLD-0
  6
Continuous
 62
   179
100
AcDbLine
 10
57.5365045603
 20
118.735650118
 30
0.0
 11
57.5365045603
 21
114.635650118
 31
0.0
  0
LINE
  5
F3
330
1F
100
AcDbEntity
  8
SLD-0
  6
Continuous
 62
   179
100
AcDbLine
 10
57.2365045603
 20
124.935650118
 30
0.0
 11
57.3365045603
 21
124.935650118
 31
0.0
  0
LINE
  5
F4
330
1F
100
AcDbEntity
  8
SLD-0
  6
Continuous
 62
   179
100
AcDbLine
 10
57.2365045603
 20
120.435650118
 30
0.0
 11
57.3365045603
 21
120.435650118
 31
0.0
  0
LINE
  5
F5
330
1F
100
AcDbEntity
  8
SLD-0
  6
Continuous
 62
   179
100
AcDbLine
 10
57.2365045603
 20
123.435650118
 30
0.0
 11
57.3365045603
 21
123.435650118
 31
0.0
  0
LINE
  5
F6
330
1F
100
AcDbEntity
  8
SLD-0
  6
Continuous
 62
   179
100
AcDbLine
 10
57.2365045603
 20
121.935650118
 30
0.0
 11
57.3365045603
 21
121.935650118
 31
0.0
  0
LINE
  5
F7
330
1F
100
AcDbEntity
  8
SLD-0
  6
Continuous
 62
   179
100
AcDbLine
 10
57.2365045603
 20
118.935650118
 30
0.0
 11
57.3365045603
 21
118.935650118
 31
0.0
  0
LINE
  5
F8
330
1F
100
AcDbEntity
  8
SLD-0
  6
Continuous
 62
   179
100
AcDbLine
 10
57.2365045603
 20
114.435650118
 30
0.0
 11
57.3365045603
 21
114.435650118
 31
0.0
  0
LINE
  5
F9
330
1F
100
AcDbEntity
  8
SLD-0
  6
Continuous
 62
   179
100
AcDbLine
 10
91.8365045603
 20
114.435650118
 30
0.0
 11
91.7365045603
 21
114.435650118
 31
0.0
  0
LINE
  5
FA
330
1F
100
AcDbEntity
  8
SLD-0
  6
Continuous
 62
   179
100
AcDbLine
 10
91.8365045603
 20
115.935650118
 30
0.0
 11
91.7365045603
 21
115.935650118
 31
0.0
  0
LINE
  5
FB
330
1F
100
AcDbEntity
  8
SLD-0
  6
Continuous
 62
   179
100
AcDbLine
 10
91.8365045603
 20
117.435650118
 30
0.0
 11
91.7365045603
 21
117.435650118
 31
0.0
  0
LINE
  5
FC
330
1F
100
AcDbEntity
  8
SLD-0
  6
Continuous
 62
   179
100
AcDbLine
 10
91.8365045603
 20
118.935650118
 30
0.0
 11
91.7365045603
 21
118.935650118
 31
0.0
  0
LINE
  5
FD
330
1F
100
AcDbEntity
  8
SLD-0
  6
Continuous
 62
   179
100
AcDbLine
 10
91.5365045603
 20
115.735650118
 30
0.0
 11
91.5365045603
 21
114.635650118
 31
0.0
  0
LINE
  5
FE
330
1F
100
AcDbEntity
  8
SLD-0
  6
Continuous
 62
   179
100
AcDbLine
 10
91.8365045603
 20
121.935650118
 30
0.0
 11
91.7365045603
 21
121.935650118
 31
0.0
  0
LINE
  5
FF
330
1F
100
AcDbEntity
  8
SLD-0
  6
Continuous
 62
   179
100
AcDbLine
 10
91.8365045603
 20
123.435650118
 30
0.0
 11
91.7365045603
 21
123.435650118
 31
0.0
  0
LINE
  5
100
330
1F
100
AcDbEntity
  8
SLD-0
  6
Continuous
 62
   179
100
AcDbLine
 10
91.8365045603
 20
120.435650118
 30
0.0
 11
91.7365045603
 21
120.435650118
 31
0.0
  0
LINE
  5
101
330
1F
100
AcDbEntity
  8
SLD-0
  6
Continuous
 62
   179
100
AcDbLine
 10
91.8365045603
 20
124.935650118
 30
0.0
 11
91.7365045603
 21
124.935650118
 31
0.0
  0
LINE
  5
102
330
1F
100
AcDbEntity
  8
SLD-0
  6
Continuous
 62
   179
100
AcDbLine
 10
91.5365045603
 20
118.735650118
 30
0.0
 11
91.5365045603
 21
117.635650118
 31
0.0
  0
LINE
  5
103
330
1F
100
AcDbEntity
  8
SLD-0
  6
Continuous
 62
   179
100
AcDbLine
 10
91.5365045603
 20
121.735650118
 30
0.0
 11
91.5365045603
 21
120.635650118
 31
0.0
  0
LINE
  5
104
330
1F
100
AcDbEntity
  8
SLD-0
  6
Continuous
 62
   179
100
AcDbLine
 10
91.5365045603
 20
124.735650118
 30
0.0
 11
91.5365045603
 21
123.635650118
 31
0.0
  0
LINE
  5
105
330
1F
100
AcDbEntity
  8
SLD-0
  6
Continuous
 62
   179
100
AcDbLine
 10
92.0365045603
 20
117.235650118
 30
0.0
 11
92.0365045603
 21
116.135650118
 31
0.0
  0
LINE
  5
106
330
1F
100
AcDbEntity
  8
SLD-0
  6
Continuous
 62
   179
100
AcDbLine
 10
92.0365045603
 20
120.235650118
 30
0.0
 11
92.0365045603
 21
119.135650118
 31
0.0
  0
LINE
  5
107
330
1F
100
AcDbEntity
  8
SLD-0
  6
Continuous
 62
   179
100
AcDbLine
 10
92.0365045603
 20
114.235650118
 30
0.0
 11
92.0365045603
 21
112.435650118
 31
0.0
  0
LINE
  5
108
330
1F
100
AcDbEntity
  8
SLD-0
  6
Continuous
 62
   179
100
AcDbLine
 10
92.0365045603
 20
123.235650118
 30
0.0
 11
92.0365045603
 21
122.135650118
 31
0.0
  0
LINE
  5
109
330
1F
100
AcDbEntity
  8
SLD-0
  6
Continuous
 62
   179
100
AcDbLine
 10
92.0365045603
 20
112.435650118
 30
0.0
 11
90.0365045603
 21
104.9715485029
 31
0.0
  0
LINE
  5
10A
330
1F
100
AcDbEntity
  8
SLD-0
  6
Continuous
 62
   179
100
AcDbLine
 10
57.0365045603
 20
162.8074774053
 30
0.0
 11
57.0365045603
 21
151.9715637616
 31
0.0
  0
LINE
  5
10B
330
1F
100
AcDbEntity
  8
SLD-0
  6
Continuous
 62
   179
100
AcDbLine
 10
58.8364923533
 20
138.0215668134
 30
0.0
 11
60.0257013376
 21
138.0215668134
 31
0.0
  0
LINE
  5
10C
330
1F
100
AcDbEntity
  8
SLD-0
  6
Continuous
 62
   179
100
AcDbLine
 10
58.5365045603
 20
146.6242584638
 30
0.0
 11
58.5365045603
 21
141.3242706708
 31
0.0
  0
LINE
  5
10D
330
1F
100
AcDbEntity
  8
SLD-0
  6
Continuous
 62
   179
100
AcDbLine
 10
58.8364923533
 20
141.0215620723
 30
0.0
 11
60.0257013377
 21
141.0215620723
 31
0.0
  0
LINE
  5
10E
330
1F
100
AcDbEntity
  8
SLD-0
  6
Continuous
 62
   179
100
AcDbLine
 10
58.5365045603
 20
150.9715637616
 30
0.0
 11
58.5365045603
 21
150.218862956
 31
0.0
  0
LINE
  5
10F
330
1F
100
AcDbEntity
  8
SLD-0
  6
Continuous
 62
   179
100
AcDbLine
 10
90.5365045603
 20
150.9715637616
 30
0.0
 11
90.5365045603
 21
150.2188561386
 31
0.0
  0
LINE
  5
110
330
1F
100
AcDbEntity
  8
SLD-0
  6
Continuous
 62
   179
100
AcDbLine
 10
90.5365045603
 20
137.7242645673
 30
0.0
 11
90.5365045603
 21
136.9715637616
 31
0.0
  0
LINE
  5
111
330
1F
100
AcDbEntity
  8
SLD-0
  6
Continuous
 62
   179
100
AcDbLine
 10
92.0365045603
 20
135.9715637616
 30
0.0
 11
91.5365045603
 21
135.9715637616
 31
0.0
  0
LINE
  5
112
330
1F
100
AcDbEntity
  8
SLD-0
  6
Continuous
 62
   179
100
AcDbLine
 10
57.0365045603
 20
135.9715637616
 30
0.0
 11
57.5365045603
 21
135.9715637616
 31
0.0
  0
LINE
  5
113
330
1F
100
AcDbEntity
  8
SLD-0
  6
Continuous
 62
   179
100
AcDbLine
 10
90.2365167673
 20
141.0215620723
 30
0.0
 11
89.047307783
 21
141.0215620723
 31
0.0
  0
LINE
  5
114
330
1F
100
AcDbEntity
  8
SLD-0
  6
Continuous
 62
   179
100
AcDbLine
 10
90.2365167673
 20
138.0215668134
 30
0.0
 11
89.0473077829
 21
138.0215668134
 31
0.0
  0
LINE
  5
115
330
1F
100
AcDbEntity
  8
SLD-0
  6
Continuous
 62
   179
100
AcDbLine
 10
92.0365045603
 20
151.9715637616
 30
0.0
 11
91.5365045603
 21
151.9715637616
 31
0.0
  0
LINE
  5
116
330
1F
100
AcDbEntity
  8
SLD-0
  6
Continuous
 62
   179
100
AcDbLine
 10
90.2365167673
 20
149.9215559688
 30
0.0
 11
89.0473077829
 21
149.9215559688
 31
0.0
  0
LINE
  5
117
330
1F
100
AcDbEntity
  8
SLD-0
  6
Continuous
 62
   179
100
AcDbLine
 10
90.2365167673
 20
146.9215607099
 30
0.0
 11
89.0473077829
 21
146.9215607099
 31
0.0
  0
LINE
  5
118
330
1F
100
AcDbEntity
  8
SLD-0
  6
Continuous
 62
   179
100
AcDbLine
 10
58.5365045603
 20
137.7242645673
 30
0.0
 11
58.5365045603
 21
136.9715637616
 31
0.0
  0
LINE
  5
119
330
1F
100
AcDbEntity
  8
SLD-0
  6
Continuous
 62
   179
100
AcDbLine
 10
57.0365045603
 20
151.9715637616
 30
0.0
 11
57.5365045603
 21
151.9715637616
 31
0.0
  0
LINE
  5
11A
330
1F
100
AcDbEntity
  8
SLD-0
  6
Continuous
 62
   179
100
AcDbLine
 10
58.8364923533
 20
149.921551976
 30
0.0
 11
60.0257013376
 21
149.921551976
 31
0.0
  0
LINE
  5
11B
330
1F
100
AcDbEntity
  8
SLD-0
  6
Continuous
 62
   179
100
AcDbLine
 10
58.8364923533
 20
146.9215607099
 30
0.0
 11
60.0257013376
 21
146.9215607099
 31
0.0
  0
LINE
  5
11C
330
1F
100
AcDbEntity
  8
SLD-0
  6
Continuous
 62
   179
100
AcDbLine
 10
57.0365045603
 20
135.9715637616
 30
0.0
 11
57.0365045603
 21
125.135650118
 31
0.0
  0
LINE
  5
11D
330
1F
100
AcDbEntity
  8
SLD-0
  6
Continuous
 62
   179
100
AcDbLine
 10
92.0365045603
 20
135.9715637616
 30
0.0
 11
92.0365045603
 21
125.135650118
 31
0.0
  0
LINE
  5
11E
330
1F
100
AcDbEntity
  8
SLD-0
  6
CENTER
 62
   179
100
AcDbLine
 10
232.7288263376
 20
123.9715637616
 30
0.0
 11
232.7288263376
 21
135.9715637616
 31
0.0
  0
LINE
  5
11F
330
1F
100
AcDbEntity
  8
SLD-0
  6
CENTER
 62
   179
100
AcDbLine
 10
271.4058282908
 20
129.9715485029
 30
0.0
 11
285.0518243845
 21
129.9715485029
 31
0.0
  0
LINE
  5
120
330
1F
100
AcDbEntity
  8
SLD-0
  6
CENTER
 62
   179
100
AcDbLine
 10
226.2288263376
 20
129.9715637616
 30
0.0
 11
240.3151910837
 21
129.9715637616
 31
0.0
  0
LINE
  5
121
330
1F
100
AcDbEntity
  8
SLD-0
  6
Continuous
 62
   179
100
AcDbLine
 10
287.7288263376
 20
122.9715485029
 30
0.0
 11
305.2288263376
 21
122.9715485029
 31
0.0
  0
LINE
  5
122
330
1F
100
AcDbEntity
  8
SLD-0
  6
Continuous
 62
   179
100
AcDbLine
 10
287.7288263376
 20
176.9715637616
 30
0.0
 11
305.2288263376
 21
176.9715637616
 31
0.0
  0
LINE
  5
123
330
1F
100
AcDbEntity
  8
SLD-0
  6
Continuous
 62
   179
100
AcDbLine
 10
287.7288263376
 20
182.9715637616
 30
0.0
 11
287.7288263376
 21
104.9715485029
 31
0.0
  0
LINE
  5
124
330
1F
100
AcDbEntity
  8
SLD-0
  6
CENTER
 62
   179
100
AcDbLine
 10
124.5365045603
 20
143.9715637616
 30
0.0
 11
289.2288263376
 21
143.9715637616
 31
0.0
  0
LINE
  5
125
330
1F
100
AcDbEntity
  8
SLD-0
  6
Continuous
 62
   179
100
AcDbLine
 10
150.7288263376
 20
182.9715637616
 30
0.0
 11
287.7288263376
 21
182.9715637616
 31
0.0
  0
LINE
  5
126
330
1F
100
AcDbEntity
  8
SLD-0
  6
Continuous
 62
   179
100
AcDbLine
 10
150.7288263376
 20
104.9715485029
 30
0.0
 11
287.7288263376
 21
104.9715485029
 31
0.0
  0
LINE
  5
127
330
1F
100
AcDbEntity
  8
SLD-0
  6
Continuous
 62
   179
100
AcDbLine
 10
287.7288263376
 20
164.9715637616
 30
0.0
 11
305.2288263376
 21
164.9715637616
 31
0.0
  0
LINE
  5
128
330
1F
100
AcDbEntity
  8
SLD-0
  6
Continuous
 62
   179
100
AcDbLine
 10
287.7288263376
 20
110.9715485029
 30
0.0
 11
305.2288263376
 21
110.9715485029
 31
0.0
  0
LINE
  5
129
330
1F
100
AcDbEntity
  8
SLD-0
  6
CENTER
 62
   179
100
AcDbLine
 10
278.2288263376
 20
135.0715851239
 30
0.0
 11
278.2288263376
 21
127.9045471601
 31
0.0
  0
LINE
  5
12A
330
1F
100
AcDbEntity
  8
SLD-0
  6
CENTER
 62
   179
100
AcDbLine
 10
226.2288263376
 20
157.9715637616
 30
0.0
 11
240.3151910837
 21
157.9715637616
 31
0.0
  0
LINE
  5
12B
330
1F
100
AcDbEntity
  8
SLD-0
  6
CENTER
 62
   179
100
AcDbLine
 10
172.7288385447
 20
163.0115570478
 30
0.0
 11
172.7288385447
 21
152.9315552167
 31
0.0
  0
LINE
  5
12C
330
1F
100
AcDbEntity
  8
SLD-0
  6
CENTER
 62
   179
100
AcDbLine
 10
167.6888605173
 20
157.9715637616
 30
0.0
 11
177.7688470896
 21
157.9715637616
 31
0.0
  0
LINE
  5
12D
330
1F
100
AcDbEntity
  8
SLD-0
  6
Continuous
 62
   179
100
AcDbLine
 10
150.7288385447
 20
151.9715637616
 30
0.0
 11
287.7288263376
 21
151.9715637616
 31
0.0
  0
LINE
  5
12E
330
1F
100
AcDbEntity
  8
SLD-0
  6
Continuous
 62
   179
100
AcDbLine
 10
150.7288385447
 20
149.9215607099
 30
0.0
 11
287.7288263376
 21
149.9215607099
 31
0.0
  0
LINE
  5
12F
330
1F
100
AcDbEntity
  8
SLD-0
  6
Continuous
 62
   179
100
AcDbLine
 10
150.7288385447
 20
146.9215607099
 30
0.0
 11
287.7288263376
 21
146.9215607099
 31
0.0
  0
LINE
  5
130
330
1F
100
AcDbEntity
  8
SLD-0
  6
CENTER
 62
   179
100
AcDbLine
 10
172.7288385447
 20
123.9715637616
 30
0.0
 11
172.7288385447
 21
135.9715637616
 31
0.0
  0
LINE
  5
131
330
1F
100
AcDbEntity
  8
SLD-0
  6
CENTER
 62
   179
100
AcDbLine
 10
166.2288385447
 20
129.9715637616
 30
0.0
 11
178.2288385447
 21
129.9715637616
 31
0.0
  0
LINE
  5
132
330
1F
100
AcDbEntity
  8
SLD-0
  6
Continuous
 62
   179
100
AcDbLine
 10
150.7288385447
 20
164.5074774053
 30
0.0
 11
287.7288263376
 21
164.5074774053
 31
0.0
  0
LINE
  5
133
330
1F
100
AcDbEntity
  8
SLD-0
  6
Continuous
 62
   179
100
AcDbLine
 10
150.7288385447
 20
182.9715637616
 30
0.0
 11
150.7288385447
 21
104.9715485029
 31
0.0
  0
LINE
  5
134
330
1F
100
AcDbEntity
  8
SLD-0
  6
Continuous
 62
   179
100
AcDbLine
 10
150.7288385447
 20
173.5074774053
 30
0.0
 11
287.7288263376
 21
173.5074774053
 31
0.0
  0
LINE
  5
135
330
1F
100
AcDbEntity
  8
SLD-0
  6
Continuous
 62
   179
100
AcDbLine
 10
143.7288568552
 20
122.9715485029
 30
0.0
 11
150.7288385447
 21
122.9715485029
 31
0.0
  0
LINE
  5
136
330
1F
100
AcDbEntity
  8
SLD-0
  6
Continuous
 62
   179
100
AcDbLine
 10
143.7288568552
 20
176.9715637616
 30
0.0
 11
150.7288385447
 21
176.9715637616
 31
0.0
  0
LINE
  5
137
330
1F
100
AcDbEntity
  8
SLD-0
  6
Continuous
 62
   179
100
AcDbLine
 10
143.7288568552
 20
164.9715637616
 30
0.0
 11
150.7288385447
 21
164.9715637616
 31
0.0
  0
LINE
  5
138
330
1F
100
AcDbEntity
  8
SLD-0
  6
Continuous
 62
   179
100
AcDbLine
 10
150.7288385447
 20
172.0074774053
 30
0.0
 11
287.7288263376
 21
172.0074774053
 31
0.0
  0
LINE
  5
139
330
1F
100
AcDbEntity
  8
SLD-0
  6
Continuous
 62
   179
100
AcDbLine
 10
150.7288385447
 20
163.0074774053
 30
0.0
 11
287.7288263376
 21
163.0074774053
 31
0.0
  0
LINE
  5
13A
330
1F
100
AcDbEntity
  8
SLD-0
  6
Continuous
 62
   179
100
AcDbLine
 10
133.7288568552
 20
180.9715637616
 30
0.0
 11
143.7288568552
 21
180.9715637616
 31
0.0
  0
LINE
  5
13B
330
1F
100
AcDbEntity
  8
SLD-0
  6
Continuous
 62
   179
100
AcDbLine
 10
133.7288568552
 20
106.9715485029
 30
0.0
 11
143.7288568552
 21
106.9715485029
 31
0.0
  0
LINE
  5
13C
330
1F
100
AcDbEntity
  8
SLD-0
  6
Continuous
 62
   179
100
AcDbLine
 10
143.7288568552
 20
110.9715485029
 30
0.0
 11
150.7288385447
 21
110.9715485029
 31
0.0
  0
LINE
  5
13D
330
1F
100
AcDbEntity
  8
SLD-0
  6
Continuous
 62
   179
100
AcDbLine
 10
150.7288385447
 20
175.5074774053
 30
0.0
 11
287.7288263376
 21
175.5074774053
 31
0.0
  0
LINE
  5
13E
330
1F
100
AcDbEntity
  8
SLD-0
  6
CENTER
 62
   179
100
AcDbLine
 10
133.6888788279
 20
160.9715637616
 30
0.0
 11
143.7688654001
 21
160.9715637616
 31
0.0
  0
LINE
  5
13F
330
1F
100
AcDbEntity
  8
SLD-0
  6
Continuous
 62
   179
100
AcDbLine
 10
150.7288385447
 20
148.9715637616
 30
0.0
 11
143.7288568552
 21
148.9715637616
 31
0.0
  0
LINE
  5
140
330
1F
100
AcDbEntity
  8
SLD-0
  6
Continuous
 62
   179
100
AcDbLine
 10
150.7288385447
 20
138.9715637616
 30
0.0
 11
143.7288568552
 21
138.9715637616
 31
0.0
  0
LINE
  5
141
330
1F
100
AcDbEntity
  8
SLD-0
  6
Continuous
 62
   179
100
AcDbLine
 10
150.7288385447
 20
140.9715637616
 30
0.0
 11
143.7288568552
 21
140.9715637616
 31
0.0
  0
LINE
  5
142
330
1F
100
AcDbEntity
  8
SLD-0
  6
Continuous
 62
   179
100
AcDbLine
 10
150.7288385447
 20
146.9715637616
 30
0.0
 11
143.7288568552
 21
146.9715637616
 31
0.0
  0
LINE
  5
143
330
1F
100
AcDbEntity
  8
SLD-0
  6
Continuous
 62
   179
100
AcDbLine
 10
150.7288385447
 20
146.3561858901
 30
0.0
 11
143.7288315305
 21
140.9715650195
 31
0.0
  0
LINE
  5
144
330
1F
100
AcDbEntity
  8
SLD-0
  6
Continuous
 62
   179
100
AcDbLine
 10
143.7288339135
 20
146.971568832
 30
0.0
 11
150.7288385447
 21
141.5869501236
 31
0.0
  0
LINE
  5
145
330
1F
100
AcDbEntity
  8
SLD-0
  6
Continuous
 62
   179
100
AcDbLine
 10
143.7288568552
 20
180.9715637616
 30
0.0
 11
143.7288568552
 21
106.9715485029
 31
0.0
  0
LINE
  5
146
330
1F
100
AcDbEntity
  8
SLD-0
  6
Continuous
 62
   179
100
AcDbLine
 10
209.8288446482
 20
134.4715637616
 30
0.0
 11
209.6788812693
 21
134.4715637616
 31
0.0
  0
LINE
  5
147
330
1F
100
AcDbEntity
  8
SLD-0
  6
CENTER
 62
   179
100
AcDbLine
 10
138.7288568552
 20
166.0115570478
 30
0.0
 11
138.7288568552
 21
155.9315552167
 31
0.0
  0
LINE
  5
148
330
1F
100
AcDbEntity
  8
SLD-0
  6
CENTER
 62
   179
100
AcDbLine
 10
138.7288568552
 20
121.9315704755
 30
0.0
 11
138.7288568552
 21
132.0115723066
 31
0.0
  0
LINE
  5
149
330
1F
100
AcDbEntity
  8
SLD-0
  6
CENTER
 62
   179
100
AcDbLine
 10
133.6888788279
 20
126.9715637616
 30
0.0
 11
143.7688654001
 21
126.9715637616
 31
0.0
  0
LINE
  5
14A
330
1F
100
AcDbEntity
  8
SLD-0
  6
CENTER
 62
   179
100
AcDbLine
 10
232.7288263376
 20
163.9715637616
 30
0.0
 11
232.7288263376
 21
151.9715637616
 31
0.0
  0
LINE
  5
14B
330
1F
100
AcDbEntity
  8
SLD-0
  6
Continuous
 62
   179
100
AcDbLine
 10
171.7288385447
 20
161.9715637616
 30
0.0
 11
171.7288385447
 21
162.3715637616
 31
0.0
  0
LINE
  5
14C
330
1F
100
AcDbEntity
  8
SLD-0
  6
Continuous
 62
   179
100
AcDbLine
 10
150.7288385447
 20
117.435650118
 30
0.0
 11
287.7288263376
 21
117.435650118
 31
0.0
  0
LINE
  5
14D
330
1F
100
AcDbEntity
  8
SLD-0
  6
Continuous
 62
   179
100
AcDbLine
 10
150.7288385447
 20
120.435650118
 30
0.0
 11
287.7288263376
 21
120.435650118
 31
0.0
  0
LINE
  5
14E
330
1F
100
AcDbEntity
  8
SLD-0
  6
Continuous
 62
   179
100
AcDbLine
 10
150.7288385447
 20
121.935650118
 30
0.0
 11
287.7288263376
 21
121.935650118
 31
0.0
  0
LINE
  5
14F
330
1F
100
AcDbEntity
  8
SLD-0
  6
Continuous
 62
   179
100
AcDbLine
 10
150.7288385447
 20
118.935650118
 30
0.0
 11
287.7288263376
 21
118.935650118
 31
0.0
  0
LINE
  5
150
330
1F
100
AcDbEntity
  8
SLD-0
  6
Continuous
 62
   179
100
AcDbLine
 10
150.7288385447
 20
141.0215668134
 30
0.0
 11
287.7288263376
 21
141.0215668134
 31
0.0
  0
LINE
  5
151
330
1F
100
AcDbEntity
  8
SLD-0
  6
Continuous
 62
   179
100
AcDbLine
 10
150.7288385447
 20
123.435650118
 30
0.0
 11
287.7288263376
 21
123.435650118
 31
0.0
  0
LINE
  5
152
330
1F
100
AcDbEntity
  8
SLD-0
  6
Continuous
 62
   179
100
AcDbLine
 10
150.7288385447
 20
135.9715637616
 30
0.0
 11
287.7288263376
 21
135.9715637616
 31
0.0
  0
LINE
  5
153
330
1F
100
AcDbEntity
  8
SLD-0
  6
Continuous
 62
   179
100
AcDbLine
 10
150.7288385447
 20
115.935650118
 30
0.0
 11
287.7288263376
 21
115.935650118
 31
0.0
  0
LINE
  5
154
330
1F
100
AcDbEntity
  8
SLD-0
  6
Continuous
 62
   179
100
AcDbLine
 10
150.7288385447
 20
138.0215668134
 30
0.0
 11
287.7288263376
 21
138.0215668134
 31
0.0
  0
LINE
  5
155
330
1F
100
AcDbEntity
  8
SLD-0
  6
Continuous
 62
   179
100
AcDbLine
 10
150.7288385447
 20
114.435650118
 30
0.0
 11
287.7288263376
 21
114.435650118
 31
0.0
  0
LINE
  5
156
330
1F
100
AcDbEntity
  8
SLD-0
  6
Continuous
 62
   179
100
AcDbLine
 10
150.7288385447
 20
169.0074774053
 30
0.0
 11
287.7288263376
 21
169.0074774053
 31
0.0
  0
LINE
  5
157
330
1F
100
AcDbEntity
  8
SLD-0
  6
Continuous
 62
   179
100
AcDbLine
 10
150.7288385447
 20
167.5074774053
 30
0.0
 11
287.7288263376
 21
167.5074774053
 31
0.0
  0
LINE
  5
158
330
1F
100
AcDbEntity
  8
SLD-0
  6
Continuous
 62
   179
100
AcDbLine
 10
150.7288385447
 20
166.0074774053
 30
0.0
 11
287.7288263376
 21
166.0074774053
 31
0.0
  0
LINE
  5
159
330
1F
100
AcDbEntity
  8
SLD-0
  6
Continuous
 62
   179
100
AcDbLine
 10
150.7288385447
 20
170.5074774053
 30
0.0
 11
287.7288263376
 21
170.5074774053
 31
0.0
  0
LINE
  5
15A
330
1F
100
AcDbEntity
  8
SLD-0
  6
Continuous
 62
   179
100
AcDbLine
 10
150.7288385447
 20
112.435650118
 30
0.0
 11
287.7288263376
 21
112.435650118
 31
0.0
  0
LINE
  5
15B
330
1F
100
AcDbEntity
  8
SLD-0
  6
Continuous
 62
   179
100
AcDbLine
 10
150.7288385447
 20
124.935650118
 30
0.0
 11
287.7288263376
 21
124.935650118
 31
0.0
  0
LINE
  5
15C
330
1F
100
AcDbEntity
  8
SLD-0
  6
Continuous
 62
   179
100
AcDbLine
 10
305.2288263376
 20
176.9715637616
 30
0.0
 11
305.2288263376
 21
164.9715637616
 31
0.0
  0
LINE
  5
15D
330
1F
100
AcDbEntity
  8
SLD-0
  6
Continuous
 62
   179
100
AcDbLine
 10
305.2288263376
 20
110.9715485029
 30
0.0
 11
305.2288263376
 21
122.9715485029
 31
0.0
  0
LINE
  5
15E
330
1F
100
AcDbEntity
  8
SLD-0
  6
Continuous
 62
   179
100
AcDbLine
 10
133.7288568552
 20
180.9715637616
 30
0.0
 11
133.7288568552
 21
106.9715485029
 31
0.0
  0
LINE
  5
15F
330
1F
100
AcDbEntity
  8
SLD-0
  6
Continuous
 62
   179
100
AcDbLine
 10
74.5365045917
 20
119.280949577
 30
0.0
 11
76.5365045558
 21
118.1262490594
 31
0.0
  0
LINE
  5
160
330
1F
100
AcDbEntity
  8
SLD-0
  6
Continuous
 62
   179
100
AcDbLine
 10
76.5365045558
 20
118.1262490594
 30
0.0
 11
76.5365045423
 21
115.8168479697
 31
0.0
  0
LINE
  5
161
330
1F
100
AcDbEntity
  8
SLD-0
  6
Continuous
 62
   179
100
AcDbLine
 10
76.5365045423
 20
115.8168479697
 30
0.0
 11
74.5365045782
 21
114.6621474209
 31
0.0
  0
LINE
  5
162
330
1F
100
AcDbEntity
  8
SLD-0
  6
Continuous
 62
   179
100
AcDbLine
 10
74.5365045782
 20
114.6621474209
 30
0.0
 11
72.5365045603
 21
115.8168479697
 31
0.0
  0
LINE
  5
163
330
1F
100
AcDbEntity
  8
SLD-0
  6
Continuous
 62
   179
100
AcDbLine
 10
72.5365045603
 20
118.1262490205
 30
0.0
 11
72.5365045603
 21
115.8168479697
 31
0.0
  0
LINE
  5
164
330
1F
100
AcDbEntity
  8
SLD-0
  6
Continuous
 62
   179
100
AcDbLine
 10
74.5365045917
 20
119.280949577
 30
0.0
 11
72.5365045603
 21
118.1262490205
 31
0.0
  0
LINE
  5
165
330
1F
100
AcDbEntity
  8
SLD-0
  6
Continuous
 62
   179
100
AcDbLine
 10
74.5365045917
 20
173.2809648358
 30
0.0
 11
76.5365045558
 21
172.1262643182
 31
0.0
  0
LINE
  5
166
330
1F
100
AcDbEntity
  8
SLD-0
  6
Continuous
 62
   179
100
AcDbLine
 10
76.5365045558
 20
172.1262643182
 30
0.0
 11
76.5365045423
 21
169.8168632284
 31
0.0
  0
LINE
  5
167
330
1F
100
AcDbEntity
  8
SLD-0
  6
Continuous
 62
   179
100
AcDbLine
 10
76.5365045423
 20
169.8168632284
 30
0.0
 11
74.5365045782
 21
168.6621626797
 31
0.0
  0
LINE
  5
168
330
1F
100
AcDbEntity
  8
SLD-0
  6
Continuous
 62
   179
100
AcDbLine
 10
74.5365045782
 20
168.6621626797
 30
0.0
 11
72.5365045603
 21
169.8168632284
 31
0.0
  0
LINE
  5
169
330
1F
100
AcDbEntity
  8
SLD-0
  6
Continuous
 62
   179
100
AcDbLine
 10
72.5365045603
 20
172.1262642793
 30
0.0
 11
72.5365045603
 21
169.8168632284
 31
0.0
  0
LINE
  5
16A
330
1F
100
AcDbEntity
  8
SLD-0
  6
Continuous
 62
   179
100
AcDbLine
 10
74.5365045917
 20
173.2809648358
 30
0.0
 11
72.5365045603
 21
172.1262642793
 31
0.0
  0
LINE
  5
16B
330
1F
100
AcDbEntity
  8
SLD-0
  6
Continuous
 62
   179
100
AcDbLine
 10
74.5365045334
 20
146.2809648125
 30
0.0
 11
72.5365045693
 21
145.1262642948
 31
0.0
  0
LINE
  5
16C
330
1F
100
AcDbEntity
  8
SLD-0
  6
Continuous
 62
   179
100
AcDbLine
 10
72.5365045693
 20
145.1262642948
 30
0.0
 11
72.5365045693
 21
142.816863244
 31
0.0
  0
LINE
  5
16D
330
1F
100
AcDbEntity
  8
SLD-0
  6
Continuous
 62
   179
100
AcDbLine
 10
74.5365045334
 20
141.6621626952
 30
0.0
 11
72.5365045693
 21
142.816863244
 31
0.0
  0
LINE
  5
16E
330
1F
100
AcDbEntity
  8
SLD-0
  6
Continuous
 62
   179
100
AcDbLine
 10
76.5365045513
 20
142.816863244
 30
0.0
 11
74.5365045334
 21
141.6621626952
 31
0.0
  0
LINE
  5
16F
330
1F
100
AcDbEntity
  8
SLD-0
  6
Continuous
 62
   179
100
AcDbLine
 10
76.5365045648
 20
145.126264256
 30
0.0
 11
76.5365045513
 21
142.816863244
 31
0.0
  0
LINE
  5
170
330
1F
100
AcDbEntity
  8
SLD-0
  6
Continuous
 62
   179
100
AcDbLine
 10
74.5365045334
 20
146.2809648125
 30
0.0
 11
76.5365045648
 21
145.126264256
 31
0.0
  0
LINE
  5
171
330
1F
100
AcDbEntity
  8
SLD-0
  6
PHANTOM
 62
   179
100
AcDbLine
 10
33.7288568552
 20
43.4715561322
 30
0.0
 11
43.7288568552
 21
43.4715561322
 31
0.0
  0
LINE
  5
172
330
1F
100
AcDbEntity
  8
SLD-0
  6
PHANTOM
 62
   179
100
AcDbLine
 10
33.7288568552
 20
65.4715485029
 30
0.0
 11
43.7288568552
 21
65.4715485029
 31
0.0
  0
LINE
  5
173
330
1F
100
AcDbEntity
  8
SLD-0
  6
PHANTOM
 62
   179
100
AcDbLine
 10
43.7288568552
 20
67.4715408735
 30
0.0
 11
43.7288568552
 21
41.4715561322
 31
0.0
  0
LINE
  5
174
330
1F
100
AcDbEntity
  8
SLD-0
  6
PHANTOM
 62
   179
100
AcDbLine
 10
33.7288568552
 20
67.4715408735
 30
0.0
 11
33.7288568552
 21
41.4715561322
 31
0.0
  0
LINE
  5
175
330
1F
100
AcDbEntity
  8
SLD-0
  6
PHANTOM
 62
   179
100
AcDbLine
 10
33.7288568552
 20
67.4715408735
 30
0.0
 11
43.7288568552
 21
67.4715408735
 31
0.0
  0
LINE
  5
176
330
1F
100
AcDbEntity
  8
SLD-0
  6
PHANTOM
 62
   179
100
AcDbLine
 10
33.7288568552
 20
41.4715561322
 30
0.0
 11
43.7288568552
 21
41.4715561322
 31
0.0
  0
LINE
  5
177
330
1F
100
AcDbEntity
  8
SLD-0
  6
PHANTOM
 62
   179
100
AcDbLine
 10
43.7288568552
 20
48.4715561322
 30
0.0
 11
131.489032467
 21
48.4715561322
 31
0.0
  0
LINE
  5
178
330
1F
100
AcDbEntity
  8
SLD-0
  6
PHANTOM
 62
   179
100
AcDbLine
 10
43.7288568552
 20
60.4715485029
 30
0.0
 11
131.489032467
 21
60.4715485029
 31
0.0
  0
LINE
  5
179
330
1F
100
AcDbEntity
  8
SLD-0
  6
Continuous
 62
   179
100
AcDbLine
 10
368.2863953605
 20
138.0215668134
 30
0.0
 11
367.0971863761
 21
138.0215668134
 31
0.0
  0
LINE
  5
17A
330
1F
100
AcDbEntity
  8
SLD-0
  6
CENTER
 62
   179
100
AcDbLine
 10
365.5863831535
 20
143.7754120282
 30
0.0
 11
365.5863831535
 21
135.9215607099
 31
0.0
  0
LINE
  5
17B
330
1F
100
AcDbEntity
  8
SLD-0
  6
Continuous
 62
   179
100
AcDbLine
 10
368.5863831535
 20
146.6242584638
 30
0.0
 11
368.5863831535
 21
141.3242706708
 31
0.0
  0
LINE
  5
17C
330
1F
100
AcDbEntity
  8
SLD-0
  6
Continuous
 62
   179
100
AcDbLine
 10
368.2863953605
 20
141.0215721816
 30
0.0
 11
367.0971863761
 21
141.0215721816
 31
0.0
  0
LINE
  5
17D
330
1F
100
AcDbEntity
  8
SLD-0
  6
Continuous
 62
   179
100
AcDbLine
 10
368.5863831535
 20
150.9715637616
 30
0.0
 11
368.5863831535
 21
150.218862956
 31
0.0
  0
LINE
  5
17E
330
1F
100
AcDbEntity
  8
SLD-0
  6
Continuous
 62
   179
100
AcDbLine
 10
336.5863831535
 20
146.6242584638
 30
0.0
 11
336.5863831535
 21
141.3188690595
 31
0.0
  0
LINE
  5
17F
330
1F
100
AcDbEntity
  8
SLD-0
  6
Continuous
 62
   179
100
AcDbLine
 10
336.5863831535
 20
137.7242645673
 30
0.0
 11
336.5863831535
 21
136.9715637616
 31
0.0
  0
LINE
  5
180
330
1F
100
AcDbEntity
  8
SLD-0
  6
Continuous
 62
   179
100
AcDbLine
 10
335.0863831535
 20
135.9715637616
 30
0.0
 11
335.5863831535
 21
135.9715637616
 31
0.0
  0
LINE
  5
181
330
1F
100
AcDbEntity
  8
SLD-0
  6
Continuous
 62
   179
100
AcDbLine
 10
336.5863831535
 20
150.9715637616
 30
0.0
 11
336.5863831535
 21
150.218862956
 31
0.0
  0
LINE
  5
182
330
1F
100
AcDbEntity
  8
SLD-0
  6
Continuous
 62
   179
100
AcDbLine
 10
370.0863831535
 20
135.9715637616
 30
0.0
 11
369.5863831535
 21
135.9715637616
 31
0.0
  0
LINE
  5
183
330
1F
100
AcDbEntity
  8
SLD-0
  6
Continuous
 62
   179
100
AcDbLine
 10
336.8863709464
 20
141.0215721816
 30
0.0
 11
338.0755799308
 21
141.0215721816
 31
0.0
  0
LINE
  5
184
330
1F
100
AcDbEntity
  8
SLD-0
  6
Continuous
 62
   179
100
AcDbLine
 10
336.5863831535
 20
146.6242584638
 30
0.0
 11
336.5863831535
 21
141.3242706708
 31
0.0
  0
LINE
  5
185
330
1F
100
AcDbEntity
  8
SLD-0
  6
CENTER
 62
   179
100
AcDbLine
 10
339.5863831535
 20
143.7754120282
 30
0.0
 11
339.5863831535
 21
135.9215607099
 31
0.0
  0
LINE
  5
186
330
1F
100
AcDbEntity
  8
SLD-0
  6
Continuous
 62
   179
100
AcDbLine
 10
336.8863709464
 20
138.0215668134
 30
0.0
 11
338.0755799308
 21
138.0215668134
 31
0.0
  0
LINE
  5
187
330
1F
100
AcDbEntity
  8
SLD-0
  6
Continuous
 62
   179
100
AcDbLine
 10
335.0863831535
 20
151.9715637616
 30
0.0
 11
335.5863831535
 21
151.9715637616
 31
0.0
  0
LINE
  5
188
330
1F
100
AcDbEntity
  8
SLD-0
  6
Continuous
 62
   179
100
AcDbLine
 10
336.8863709464
 20
149.921551976
 30
0.0
 11
338.0755799308
 21
149.921551976
 31
0.0
  0
LINE
  5
189
330
1F
100
AcDbEntity
  8
SLD-0
  6
CENTER
 62
   179
100
AcDbLine
 10
339.5863831535
 20
144.167715495
 30
0.0
 11
339.5863831535
 21
152.0215668134
 31
0.0
  0
LINE
  5
18A
330
1F
100
AcDbEntity
  8
SLD-0
  6
CENTER
 62
   179
100
AcDbLine
 10
335.0863831535
 20
148.4215607099
 30
0.0
 11
343.186389257
 21
148.4215607099
 31
0.0
  0
LINE
  5
18B
330
1F
100
AcDbEntity
  8
SLD-0
  6
Continuous
 62
   179
100
AcDbLine
 10
336.8863709464
 20
146.9215607099
 30
0.0
 11
338.0755799308
 21
146.9215607099
 31
0.0
  0
LINE
  5
18C
330
1F
100
AcDbEntity
  8
SLD-0
  6
CENTER
 62
   179
100
AcDbLine
 10
335.0863831535
 20
139.5215668134
 30
0.0
 11
343.186389257
 21
139.5215668134
 31
0.0
  0
LINE
  5
18D
330
1F
100
AcDbEntity
  8
SLD-0
  6
Continuous
 62
   179
100
AcDbLine
 10
368.5863831535
 20
146.6242584638
 30
0.0
 11
368.5863831535
 21
141.3188690595
 31
0.0
  0
LINE
  5
18E
330
1F
100
AcDbEntity
  8
SLD-0
  6
Continuous
 62
   179
100
AcDbLine
 10
335.0863831535
 20
135.9715637616
 30
0.0
 11
335.0863831535
 21
125.135650118
 31
0.0
  0
LINE
  5
18F
330
1F
100
AcDbEntity
  8
SLD-0
  6
CENTER
 62
   179
100
AcDbLine
 10
362.5863831535
 20
106.4715637616
 30
0.0
 11
362.5863831535
 21
113.4715637616
 31
0.0
  0
LINE
  5
190
330
1F
100
AcDbEntity
  8
SLD-0
  6
CENTER
 62
   179
100
AcDbLine
 10
366.0863831535
 20
177.9715637616
 30
0.0
 11
359.0863831535
 21
177.9715637616
 31
0.0
  0
LINE
  5
191
330
1F
100
AcDbEntity
  8
SLD-0
  6
CENTER
 62
   179
100
AcDbLine
 10
342.5863831535
 20
181.4715637616
 30
0.0
 11
342.5863831535
 21
174.4715637616
 31
0.0
  0
LINE
  5
192
330
1F
100
AcDbEntity
  8
SLD-0
  6
CENTER
 62
   179
100
AcDbLine
 10
362.5863831535
 20
181.4715637616
 30
0.0
 11
362.5863831535
 21
174.4715637616
 31
0.0
  0
LINE
  5
193
330
1F
100
AcDbEntity
  8
SLD-0
  6
CENTER
 62
   179
100
AcDbLine
 10
339.0863831535
 20
177.9715637616
 30
0.0
 11
346.0863831535
 21
177.9715637616
 31
0.0
  0
LINE
  5
194
330
1F
100
AcDbEntity
  8
SLD-0
  6
CENTER
 62
   179
100
AcDbLine
 10
352.5863831535
 20
156.5115570478
 30
0.0
 11
352.5863831535
 21
131.4315552167
 31
0.0
  0
LINE
  5
195
330
1F
100
AcDbEntity
  8
SLD-0
  6
CENTER
 62
   179
100
AcDbLine
 10
341.0463746085
 20
116.9715485029
 30
0.0
 11
364.1263611808
 21
116.9715485029
 31
0.0
  0
LINE
  5
196
330
1F
100
AcDbEntity
  8
SLD-0
  6
CENTER
 62
   179
100
AcDbLine
 10
352.5863831535
 20
105.4315552167
 30
0.0
 11
352.5863831535
 21
128.5115570478
 31
0.0
  0
LINE
  5
197
330
1F
100
AcDbEntity
  8
SLD-0
  6
CENTER
 62
   179
100
AcDbLine
 10
341.0463746085
 20
170.9715637616
 30
0.0
 11
364.1263611808
 21
170.9715637616
 31
0.0
  0
LINE
  5
198
330
1F
100
AcDbEntity
  8
SLD-0
  6
CENTER
 62
   179
100
AcDbLine
 10
340.0463746085
 20
143.9715637616
 30
0.0
 11
365.1263611808
 21
143.9715637616
 31
0.0
  0
LINE
  5
199
330
1F
100
AcDbEntity
  8
SLD-0
  6
CENTER
 62
   179
100
AcDbLine
 10
352.5863831535
 20
182.5115570478
 30
0.0
 11
352.5863831535
 21
159.4315552167
 31
0.0
  0
LINE
  5
19A
330
1F
100
AcDbEntity
  8
SLD-0
  6
CENTER
 62
   179
100
AcDbLine
 10
366.0863831535
 20
109.9715637616
 30
0.0
 11
359.0863831535
 21
109.9715637616
 31
0.0
  0
LINE
  5
19B
330
1F
100
AcDbEntity
  8
SLD-0
  6
Continuous
 62
   179
100
AcDbLine
 10
368.5863831535
 20
137.7242645673
 30
0.0
 11
368.5863831535
 21
136.9715637616
 31
0.0
  0
LINE
  5
19C
330
1F
100
AcDbEntity
  8
SLD-0
  6
Continuous
 62
   179
100
AcDbLine
 10
337.8537101414
 20
104.9715485029
 30
0.0
 11
367.3190561655
 21
104.9715485029
 31
0.0
  0
LINE
  5
19D
330
1F
100
AcDbEntity
  8
SLD-0
  6
Continuous
 62
   179
100
AcDbLine
 10
337.8537060528
 20
182.9715637616
 30
0.0
 11
367.3190602541
 21
182.9715637616
 31
0.0
  0
LINE
  5
19E
330
1F
100
AcDbEntity
  8
SLD-0
  6
Continuous
 62
   179
100
AcDbLine
 10
335.0863831534
 20
112.435650118
 30
0.0
 11
336.8877843151
 21
105.7127294578
 31
0.0
  0
LINE
  5
19F
330
1F
100
AcDbEntity
  8
SLD-0
  6
Continuous
 62
   179
100
AcDbLine
 10
370.0863831535
 20
123.235650118
 30
0.0
 11
370.0863831535
 21
122.135650118
 31
0.0
  0
LINE
  5
1A0
330
1F
100
AcDbEntity
  8
SLD-0
  6
Continuous
 62
   179
100
AcDbLine
 10
369.5863831535
 20
124.735650118
 30
0.0
 11
369.5863831535
 21
123.635650118
 31
0.0
  0
LINE
  5
1A1
330
1F
100
AcDbEntity
  8
SLD-0
  6
Continuous
 62
   179
100
AcDbLine
 10
369.8863831535
 20
120.435650118
 30
0.0
 11
369.7863831535
 21
120.435650118
 31
0.0
  0
LINE
  5
1A2
330
1F
100
AcDbEntity
  8
SLD-0
  6
Continuous
 62
   179
100
AcDbLine
 10
369.8863831535
 20
124.935650118
 30
0.0
 11
369.7863831535
 21
124.935650118
 31
0.0
  0
LINE
  5
1A3
330
1F
100
AcDbEntity
  8
SLD-0
  6
Continuous
 62
   179
100
AcDbLine
 10
369.8863831535
 20
118.935650118
 30
0.0
 11
369.7863831535
 21
118.935650118
 31
0.0
  0
LINE
  5
1A4
330
1F
100
AcDbEntity
  8
SLD-0
  6
Continuous
 62
   179
100
AcDbLine
 10
369.8863831535
 20
114.435650118
 30
0.0
 11
369.7863831535
 21
114.435650118
 31
0.0
  0
LINE
  5
1A5
330
1F
100
AcDbEntity
  8
SLD-0
  6
Continuous
 62
   179
100
AcDbLine
 10
369.5863831535
 20
121.735650118
 30
0.0
 11
369.5863831535
 21
120.635650118
 31
0.0
  0
LINE
  5
1A6
330
1F
100
AcDbEntity
  8
SLD-0
  6
Continuous
 62
   179
100
AcDbLine
 10
369.5863831535
 20
115.735650118
 30
0.0
 11
369.5863831535
 21
114.635650118
 31
0.0
  0
LINE
  5
1A7
330
1F
100
AcDbEntity
  8
SLD-0
  6
Continuous
 62
   179
100
AcDbLine
 10
369.5863831535
 20
118.735650118
 30
0.0
 11
369.5863831535
 21
117.635650118
 31
0.0
  0
LINE
  5
1A8
330
1F
100
AcDbEntity
  8
SLD-0
  6
Continuous
 62
   179
100
AcDbLine
 10
370.0863831535
 20
175.5074774053
 30
0.0
 11
368.2849860803
 21
182.2303828067
 31
0.0
  0
LINE
  5
1A9
330
1F
100
AcDbEntity
  8
SLD-0
  6
Continuous
 62
   179
100
AcDbLine
 10
370.0863831535
 20
151.9715637616
 30
0.0
 11
370.0863831535
 21
162.8074774053
 31
0.0
  0
LINE
  5
1AA
330
1F
100
AcDbEntity
  8
SLD-0
  6
Continuous
 62
   179
100
AcDbLine
 10
369.8863831535
 20
170.5074774053
 30
0.0
 11
369.7863831535
 21
170.5074774053
 31
0.0
  0
LINE
  5
1AB
330
1F
100
AcDbEntity
  8
SLD-0
  6
Continuous
 62
   179
100
AcDbLine
 10
369.8863831535
 20
164.5074774053
 30
0.0
 11
369.7863831535
 21
164.5074774053
 31
0.0
  0
LINE
  5
1AC
330
1F
100
AcDbEntity
  8
SLD-0
  6
Continuous
 62
   179
100
AcDbLine
 10
369.8863831535
 20
172.0074774053
 30
0.0
 11
369.7863831535
 21
172.0074774053
 31
0.0
  0
LINE
  5
1AD
330
1F
100
AcDbEntity
  8
SLD-0
  6
Continuous
 62
   179
100
AcDbLine
 10
369.8863831535
 20
166.0074774053
 30
0.0
 11
369.7863831535
 21
166.0074774053
 31
0.0
  0
LINE
  5
1AE
330
1F
100
AcDbEntity
  8
SLD-0
  6
Continuous
 62
   179
100
AcDbLine
 10
369.5863831535
 20
169.2074774053
 30
0.0
 11
369.5863831535
 21
170.3074774053
 31
0.0
  0
LINE
  5
1AF
330
1F
100
AcDbEntity
  8
SLD-0
  6
Continuous
 62
   179
100
AcDbLine
 10
369.5863831535
 20
172.2074774053
 30
0.0
 11
369.5863831535
 21
173.3074774053
 31
0.0
  0
LINE
  5
1B0
330
1F
100
AcDbEntity
  8
SLD-0
  6
Continuous
 62
   179
100
AcDbLine
 10
369.8863831535
 20
121.935650118
 30
0.0
 11
369.7863831535
 21
121.935650118
 31
0.0
  0
LINE
  5
1B1
330
1F
100
AcDbEntity
  8
SLD-0
  6
Continuous
 62
   179
100
AcDbLine
 10
369.5863831535
 20
166.2074774053
 30
0.0
 11
369.5863831535
 21
167.3074774053
 31
0.0
  0
LINE
  5
1B2
330
1F
100
AcDbEntity
  8
SLD-0
  6
Continuous
 62
   179
100
AcDbLine
 10
369.8863831535
 20
115.935650118
 30
0.0
 11
369.7863831535
 21
115.935650118
 31
0.0
  0
LINE
  5
1B3
330
1F
100
AcDbEntity
  8
SLD-0
  6
Continuous
 62
   179
100
AcDbLine
 10
370.0863831534
 20
112.435650118
 30
0.0
 11
368.2849819918
 21
105.7127294578
 31
0.0
  0
LINE
  5
1B4
330
1F
100
AcDbEntity
  8
SLD-0
  6
Continuous
 62
   179
100
AcDbLine
 10
369.8863831535
 20
173.5074774053
 30
0.0
 11
369.7863831535
 21
173.5074774053
 31
0.0
  0
LINE
  5
1B5
330
1F
100
AcDbEntity
  8
SLD-0
  6
Continuous
 62
   179
100
AcDbLine
 10
369.8863831535
 20
123.435650118
 30
0.0
 11
369.7863831535
 21
123.435650118
 31
0.0
  0
LINE
  5
1B6
330
1F
100
AcDbEntity
  8
SLD-0
  6
Continuous
 62
   179
100
AcDbLine
 10
369.8863831535
 20
169.0074774053
 30
0.0
 11
369.7863831535
 21
169.0074774053
 31
0.0
  0
LINE
  5
1B7
330
1F
100
AcDbEntity
  8
SLD-0
  6
Continuous
 62
   179
100
AcDbLine
 10
369.8863831535
 20
163.0074774053
 30
0.0
 11
369.7863831535
 21
163.0074774053
 31
0.0
  0
LINE
  5
1B8
330
1F
100
AcDbEntity
  8
SLD-0
  6
Continuous
 62
   179
100
AcDbLine
 10
369.8863831535
 20
117.435650118
 30
0.0
 11
369.7863831535
 21
117.435650118
 31
0.0
  0
LINE
  5
1B9
330
1F
100
AcDbEntity
  8
SLD-0
  6
Continuous
 62
   179
100
AcDbLine
 10
369.8863831535
 20
167.5074774053
 30
0.0
 11
369.7863831535
 21
167.5074774053
 31
0.0
  0
LINE
  5
1BA
330
1F
100
AcDbEntity
  8
SLD-0
  6
Continuous
 62
   179
100
AcDbLine
 10
369.5863831535
 20
163.2074774053
 30
0.0
 11
369.5863831535
 21
164.3074774053
 31
0.0
  0
LINE
  5
1BB
330
1F
100
AcDbEntity
  8
SLD-0
  6
Continuous
 62
   179
100
AcDbLine
 10
370.0863831535
 20
135.9715637616
 30
0.0
 11
370.0863831535
 21
125.135650118
 31
0.0
  0
LINE
  5
1BC
330
1F
100
AcDbEntity
  8
SLD-0
  6
CENTER
 62
   179
100
AcDbLine
 10
337.5463831535
 20
109.9715637616
 30
0.0
 11
347.6263831535
 21
109.9715637616
 31
0.0
  0
LINE
  5
1BD
330
1F
100
AcDbEntity
  8
SLD-0
  6
CENTER
 62
   179
100
AcDbLine
 10
342.5863831535
 20
115.0115637616
 30
0.0
 11
342.5863831535
 21
104.9315637616
 31
0.0
  0
LINE
  5
1BE
330
1F
100
AcDbEntity
  8
SLD-0
  6
Continuous
 62
   179
100
AcDbLine
 10
335.2863831535
 20
173.5074774053
 30
0.0
 11
335.3863831535
 21
173.5074774053
 31
0.0
  0
LINE
  5
1BF
330
1F
100
AcDbEntity
  8
SLD-0
  6
Continuous
 62
   179
100
AcDbLine
 10
335.2863831535
 20
172.0074774053
 30
0.0
 11
335.3863831535
 21
172.0074774053
 31
0.0
  0
LINE
  5
1C0
330
1F
100
AcDbEntity
  8
SLD-0
  6
Continuous
 62
   179
100
AcDbLine
 10
335.2863831535
 20
170.5074774053
 30
0.0
 11
335.3863831535
 21
170.5074774053
 31
0.0
  0
LINE
  5
1C1
330
1F
100
AcDbEntity
  8
SLD-0
  6
Continuous
 62
   179
100
AcDbLine
 10
335.2863831535
 20
169.0074774053
 30
0.0
 11
335.3863831535
 21
169.0074774053
 31
0.0
  0
LINE
  5
1C2
330
1F
100
AcDbEntity
  8
SLD-0
  6
Continuous
 62
   179
100
AcDbLine
 10
335.5863831535
 20
172.2074774053
 30
0.0
 11
335.5863831535
 21
173.3074774053
 31
0.0
  0
LINE
  5
1C3
330
1F
100
AcDbEntity
  8
SLD-0
  6
Continuous
 62
   179
100
AcDbLine
 10
335.2863831535
 20
166.0074774053
 30
0.0
 11
335.3863831535
 21
166.0074774053
 31
0.0
  0
LINE
  5
1C4
330
1F
100
AcDbEntity
  8
SLD-0
  6
Continuous
 62
   179
100
AcDbLine
 10
335.2863831535
 20
164.5074774053
 30
0.0
 11
335.3863831535
 21
164.5074774053
 31
0.0
  0
LINE
  5
1C5
330
1F
100
AcDbEntity
  8
SLD-0
  6
Continuous
 62
   179
100
AcDbLine
 10
335.2863831535
 20
167.5074774053
 30
0.0
 11
335.3863831535
 21
167.5074774053
 31
0.0
  0
LINE
  5
1C6
330
1F
100
AcDbEntity
  8
SLD-0
  6
Continuous
 62
   179
100
AcDbLine
 10
335.2863831535
 20
163.0074774053
 30
0.0
 11
335.3863831535
 21
163.0074774053
 31
0.0
  0
LINE
  5
1C7
330
1F
100
AcDbEntity
  8
SLD-0
  6
Continuous
 62
   179
100
AcDbLine
 10
335.5863831535
 20
169.2074774053
 30
0.0
 11
335.5863831535
 21
170.3074774053
 31
0.0
  0
LINE
  5
1C8
330
1F
100
AcDbEntity
  8
SLD-0
  6
Continuous
 62
   179
100
AcDbLine
 10
335.5863831535
 20
166.2074774053
 30
0.0
 11
335.5863831535
 21
167.3074774053
 31
0.0
  0
LINE
  5
1C9
330
1F
100
AcDbEntity
  8
SLD-0
  6
Continuous
 62
   179
100
AcDbLine
 10
335.5863831535
 20
163.2074774053
 30
0.0
 11
335.5863831535
 21
164.3074774053
 31
0.0
  0
LINE
  5
1CA
330
1F
100
AcDbEntity
  8
SLD-0
  6
Continuous
 62
   179
100
AcDbLine
 10
335.0863831535
 20
170.7074774053
 30
0.0
 11
335.0863831535
 21
171.8074774053
 31
0.0
  0
LINE
  5
1CB
330
1F
100
AcDbEntity
  8
SLD-0
  6
Continuous
 62
   179
100
AcDbLine
 10
335.0863831535
 20
167.7074774053
 30
0.0
 11
335.0863831535
 21
168.8074774053
 31
0.0
  0
LINE
  5
1CC
330
1F
100
AcDbEntity
  8
SLD-0
  6
Continuous
 62
   179
100
AcDbLine
 10
335.0863831535
 20
173.7074774053
 30
0.0
 11
335.0863831535
 21
175.5074774053
 31
0.0
  0
LINE
  5
1CD
330
1F
100
AcDbEntity
  8
SLD-0
  6
Continuous
 62
   179
100
AcDbLine
 10
335.0863831535
 20
123.235650118
 30
0.0
 11
335.0863831535
 21
122.135650118
 31
0.0
  0
LINE
  5
1CE
330
1F
100
AcDbEntity
  8
SLD-0
  6
Continuous
 62
   179
100
AcDbLine
 10
335.0863831535
 20
164.7074774053
 30
0.0
 11
335.0863831535
 21
165.8074774053
 31
0.0
  0
LINE
  5
1CF
330
1F
100
AcDbEntity
  8
SLD-0
  6
Continuous
 62
   179
100
AcDbLine
 10
335.0863831535
 20
114.235650118
 30
0.0
 11
335.0863831534
 21
112.435650118
 31
0.0
  0
LINE
  5
1D0
330
1F
100
AcDbEntity
  8
SLD-0
  6
Continuous
 62
   179
100
AcDbLine
 10
335.0863831535
 20
117.235650118
 30
0.0
 11
335.0863831535
 21
116.135650118
 31
0.0
  0
LINE
  5
1D1
330
1F
100
AcDbEntity
  8
SLD-0
  6
Continuous
 62
   179
100
AcDbLine
 10
335.0863831535
 20
120.235650118
 30
0.0
 11
335.0863831535
 21
119.135650118
 31
0.0
  0
LINE
  5
1D2
330
1F
100
AcDbEntity
  8
SLD-0
  6
Continuous
 62
   179
100
AcDbLine
 10
335.5863831535
 20
124.735650118
 30
0.0
 11
335.5863831535
 21
123.635650118
 31
0.0
  0
LINE
  5
1D3
330
1F
100
AcDbEntity
  8
SLD-0
  6
Continuous
 62
   179
100
AcDbLine
 10
335.5863831535
 20
121.735650118
 30
0.0
 11
335.5863831535
 21
120.635650118
 31
0.0
  0
LINE
  5
1D4
330
1F
100
AcDbEntity
  8
SLD-0
  6
Continuous
 62
   179
100
AcDbLine
 10
335.5863831535
 20
118.735650118
 30
0.0
 11
335.5863831535
 21
117.635650118
 31
0.0
  0
LINE
  5
1D5
330
1F
100
AcDbEntity
  8
SLD-0
  6
Continuous
 62
   179
100
AcDbLine
 10
335.5863831535
 20
115.735650118
 30
0.0
 11
335.5863831535
 21
114.635650118
 31
0.0
  0
LINE
  5
1D6
330
1F
100
AcDbEntity
  8
SLD-0
  6
Continuous
 62
   179
100
AcDbLine
 10
335.2863831535
 20
124.935650118
 30
0.0
 11
335.3863831535
 21
124.935650118
 31
0.0
  0
LINE
  5
1D7
330
1F
100
AcDbEntity
  8
SLD-0
  6
Continuous
 62
   179
100
AcDbLine
 10
335.2863831535
 20
120.435650118
 30
0.0
 11
335.3863831535
 21
120.435650118
 31
0.0
  0
LINE
  5
1D8
330
1F
100
AcDbEntity
  8
SLD-0
  6
Continuous
 62
   179
100
AcDbLine
 10
335.2863831535
 20
123.435650118
 30
0.0
 11
335.3863831535
 21
123.435650118
 31
0.0
  0
LINE
  5
1D9
330
1F
100
AcDbEntity
  8
SLD-0
  6
Continuous
 62
   179
100
AcDbLine
 10
335.2863831535
 20
121.935650118
 30
0.0
 11
335.3863831535
 21
121.935650118
 31
0.0
  0
LINE
  5
1DA
330
1F
100
AcDbEntity
  8
SLD-0
  6
Continuous
 62
   179
100
AcDbLine
 10
335.2863831535
 20
118.935650118
 30
0.0
 11
335.3863831535
 21
118.935650118
 31
0.0
  0
LINE
  5
1DB
330
1F
100
AcDbEntity
  8
SLD-0
  6
Continuous
 62
   179
100
AcDbLine
 10
335.2863831535
 20
114.435650118
 30
0.0
 11
335.3863831535
 21
114.435650118
 31
0.0
  0
LINE
  5
1DC
330
1F
100
AcDbEntity
  8
SLD-0
  6
Continuous
 62
   179
100
AcDbLine
 10
335.2863831535
 20
117.435650118
 30
0.0
 11
335.3863831535
 21
117.435650118
 31
0.0
  0
LINE
  5
1DD
330
1F
100
AcDbEntity
  8
SLD-0
  6
Continuous
 62
   179
100
AcDbLine
 10
335.2863831535
 20
115.935650118
 30
0.0
 11
335.3863831535
 21
115.935650118
 31
0.0
  0
LINE
  5
1DE
330
1F
100
AcDbEntity
  8
SLD-0
  6
Continuous
 62
   179
100
AcDbLine
 10
335.0863831535
 20
151.9715637616
 30
0.0
 11
335.0863831535
 21
162.8074774053
 31
0.0
  0
LINE
  5
1DF
330
1F
100
AcDbEntity
  8
SLD-0
  6
Continuous
 62
   179
100
AcDbLine
 10
335.0863831535
 20
175.5074774053
 30
0.0
 11
336.8877802266
 21
182.2303828067
 31
0.0
  0
LINE
  5
1E0
330
1F
100
AcDbEntity
  8
SLD-0
  6
Continuous
 62
   179
100
AcDbLine
 10
370.0863831535
 20
151.9715637616
 30
0.0
 11
369.5863831535
 21
151.9715637616
 31
0.0
  0
LINE
  5
1E1
330
1F
100
AcDbEntity
  8
SLD-0
  6
Continuous
 62
   179
100
AcDbLine
 10
368.2863953605
 20
149.921551976
 30
0.0
 11
367.0971863761
 21
149.921551976
 31
0.0
  0
LINE
  5
1E2
330
1F
100
AcDbEntity
  8
SLD-0
  6
CENTER
 62
   179
100
AcDbLine
 10
365.5863831535
 20
144.167715495
 30
0.0
 11
365.5863831535
 21
152.0215668134
 31
0.0
  0
LINE
  5
1E3
330
1F
100
AcDbEntity
  8
SLD-0
  6
CENTER
 62
   179
100
AcDbLine
 10
370.0863831535
 20
148.4215607099
 30
0.0
 11
361.9863770499
 21
148.4215607099
 31
0.0
  0
LINE
  5
1E4
330
1F
100
AcDbEntity
  8
SLD-0
  6
Continuous
 62
   179
100
AcDbLine
 10
368.2863953605
 20
146.9215607099
 30
0.0
 11
367.0971863761
 21
146.9215607099
 31
0.0
  0
LINE
  5
1E5
330
1F
100
AcDbEntity
  8
SLD-0
  6
CENTER
 62
   179
100
AcDbLine
 10
370.0863831535
 20
139.5215668134
 30
0.0
 11
361.9863770499
 21
139.5215668134
 31
0.0
  0
LINE
  5
1E6
330
1F
100
AcDbEntity
  8
SLD-0
  6
Continuous
 62
   179
100
AcDbLine
 10
370.0863831535
 20
164.7074774053
 30
0.0
 11
370.0863831535
 21
165.8074774053
 31
0.0
  0
LINE
  5
1E7
330
1F
100
AcDbEntity
  8
SLD-0
  6
Continuous
 62
   179
100
AcDbLine
 10
370.0863831535
 20
173.7074774053
 30
0.0
 11
370.0863831535
 21
175.5074774053
 31
0.0
  0
LINE
  5
1E8
330
1F
100
AcDbEntity
  8
SLD-0
  6
Continuous
 62
   179
100
AcDbLine
 10
370.0863831535
 20
167.7074774053
 30
0.0
 11
370.0863831535
 21
168.8074774053
 31
0.0
  0
LINE
  5
1E9
330
1F
100
AcDbEntity
  8
SLD-0
  6
Continuous
 62
   179
100
AcDbLine
 10
370.0863831535
 20
170.7074774053
 30
0.0
 11
370.0863831535
 21
171.8074774053
 31
0.0
  0
LINE
  5
1EA
330
1F
100
AcDbEntity
  8
SLD-0
  6
Continuous
 62
   179
100
AcDbLine
 10
370.0863831535
 20
117.235650118
 30
0.0
 11
370.0863831535
 21
116.135650118
 31
0.0
  0
LINE
  5
1EB
330
1F
100
AcDbEntity
  8
SLD-0
  6
Continuous
 62
   179
100
AcDbLine
 10
370.0863831535
 20
120.235650118
 30
0.0
 11
370.0863831535
 21
119.135650118
 31
0.0
  0
LINE
  5
1EC
330
1F
100
AcDbEntity
  8
SLD-0
  6
Continuous
 62
   179
100
AcDbLine
 10
370.0863831535
 20
114.235650118
 30
0.0
 11
370.0863831534
 21
112.435650118
 31
0.0
  0
LINE
  5
1ED
330
1F
100
AcDbEntity
  8
SLD-0
  6
CENTER
 62
   179
100
AcDbLine
 10
365.5638613558
 20
143.9715637616
 30
0.0
 11
339.2288263376
 21
143.9715637616
 31
0.0
  0
LINE
  5
1EE
330
1F
100
AcDbEntity
  8
SLD-0
  6
CENTER
 62
   179
100
AcDbLine
 10
352.5863831535
 20
132.0383198639
 30
0.0
 11
352.5863831535
 21
157.0376214964
 31
0.0
  0
LINE
  5
1EF
330
1F
100
AcDbEntity
  8
SLD-0
  6
Continuous
 62
   179
100
AcDbLine
 10
349.6806246996
 20
134.403044137
 30
0.0
 11
350.186560081
 21
136.3576656159
 31
0.0
  0
LINE
  5
1F0
330
1F
100
AcDbEntity
  8
SLD-0
  6
Continuous
 62
   179
100
AcDbLine
 10
355.4921416073
 20
134.403044137
 30
0.0
 11
354.9862062259
 21
136.3576656159
 31
0.0
  0
LINE
  5
1F1
330
1F
100
AcDbEntity
  8
SLD-0
  6
Continuous
 62
   179
100
AcDbLine
 10
143.7288568552
 20
246.4715637616
 30
0.0
 11
150.4288385447
 21
246.4715637616
 31
0.0
  0
LINE
  5
1F2
330
1F
100
AcDbEntity
  8
SLD-0
  6
Continuous
 62
   179
100
AcDbLine
 10
143.7288568552
 20
234.4715637616
 30
0.0
 11
150.4288385447
 21
234.4715637616
 31
0.0
  0
LINE
  5
1F3
330
1F
100
AcDbEntity
  8
SLD-0
  6
Continuous
 62
   179
100
AcDbLine
 10
287.7288263376
 20
246.4715637616
 30
0.0
 11
305.2288263376
 21
246.4715637616
 31
0.0
  0
LINE
  5
1F4
330
1F
100
AcDbEntity
  8
SLD-0
  6
CENTER
 62
   179
100
AcDbLine
 10
133.7288568552
 20
240.4715637616
 30
0.0
 11
297.9382684763
 21
240.4715637616
 31
0.0
  0
LINE
  5
1F5
330
1F
100
AcDbEntity
  8
SLD-0
  6
Continuous
 62
   179
100
AcDbLine
 10
133.7288568552
 20
253.4715637616
 30
0.0
 11
143.7288568552
 21
253.4715637616
 31
0.0
  0
LINE
  5
1F6
330
1F
100
AcDbEntity
  8
SLD-0
  6
Continuous
 62
   179
100
AcDbLine
 10
133.7288568552
 20
227.4715637616
 30
0.0
 11
143.7288568552
 21
227.4715637616
 31
0.0
  0
LINE
  5
1F7
330
1F
100
AcDbEntity
  8
SLD-0
  6
Continuous
 62
   179
100
AcDbLine
 10
133.7288568552
 20
227.4715637616
 30
0.0
 11
133.7288568552
 21
253.4715637616
 31
0.0
  0
LINE
  5
1F8
330
1F
100
AcDbEntity
  8
SLD-0
  6
Continuous
 62
   179
100
AcDbLine
 10
143.7288568552
 20
227.4715637616
 30
0.0
 11
143.7288568552
 21
253.4715637616
 31
0.0
  0
LINE
  5
1F9
330
1F
100
AcDbEntity
  8
SLD-0
  6
CENTER
 62
   179
100
AcDbLine
 10
240.7288263376
 20
222.9315857343
 30
0.0
 11
240.7288263376
 21
233.5115723066
 31
0.0
  0
LINE
  5
1FA
330
1F
100
AcDbEntity
  8
SLD-0
  6
CENTER
 62
   179
100
AcDbLine
 10
155.7288263376
 20
222.9315857343
 30
0.0
 11
155.7288263376
 21
233.5115723066
 31
0.0
  0
LINE
  5
1FB
330
1F
100
AcDbEntity
  8
SLD-0
  6
CENTER
 62
   179
100
AcDbLine
 10
235.6888483103
 20
228.4715637616
 30
0.0
 11
245.7688348826
 21
228.4715637616
 31
0.0
  0
LINE
  5
1FC
330
1F
100
AcDbEntity
  8
SLD-0
  6
CENTER
 62
   179
100
AcDbLine
 10
150.6888483103
 20
228.4715637616
 30
0.0
 11
160.7688348826
 21
228.4715637616
 31
0.0
  0
LINE
  5
1FD
330
1F
100
AcDbEntity
  8
SLD-0
  6
CENTER
 62
   179
100
AcDbLine
 10
240.7288263376
 20
247.4315857343
 30
0.0
 11
240.7288263376
 21
258.0115723066
 31
0.0
  0
LINE
  5
1FE
330
1F
100
AcDbEntity
  8
SLD-0
  6
CENTER
 62
   179
100
AcDbLine
 10
155.7288263376
 20
247.4315857343
 30
0.0
 11
155.7288263376
 21
258.0115723066
 31
0.0
  0
LINE
  5
1FF
330
1F
100
AcDbEntity
  8
SLD-0
  6
CENTER
 62
   179
100
AcDbLine
 10
150.6888483103
 20
252.4715637616
 30
0.0
 11
160.7688348826
 21
252.4715637616
 31
0.0
  0
LINE
  5
200
330
1F
100
AcDbEntity
  8
SLD-0
  6
CENTER
 62
   179
100
AcDbLine
 10
235.6888483103
 20
252.4715637616
 30
0.0
 11
245.7688348826
 21
252.4715637616
 31
0.0
  0
LINE
  5
201
330
1F
100
AcDbEntity
  8
SLD-0
  6
Continuous
 62
   179
100
AcDbLine
 10
287.7288263376
 20
222.9715637616
 30
0.0
 11
287.7288263376
 21
257.9715942792
 31
0.0
  0
LINE
  5
202
330
1F
100
AcDbEntity
  8
SLD-0
  6
Continuous
 62
   179
100
AcDbLine
 10
150.7288263376
 20
222.9715637616
 30
0.0
 11
150.7288263376
 21
257.9715942792
 31
0.0
  0
LINE
  5
203
330
1F
100
AcDbEntity
  8
SLD-0
  6
Continuous
 62
   179
100
AcDbLine
 10
150.7288263376
 20
257.9715942792
 30
0.0
 11
287.7288263376
 21
257.9715942792
 31
0.0
  0
LINE
  5
204
330
1F
100
AcDbEntity
  8
SLD-0
  6
Continuous
 62
   179
100
AcDbLine
 10
150.7288263376
 20
222.9715637616
 30
0.0
 11
287.7288263376
 21
222.9715637616
 31
0.0
  0
LINE
  5
205
330
1F
100
AcDbEntity
  8
SLD-0
  6
HIDDEN
 62
   179
100
AcDbLine
 10
287.7288263376
 20
227.9715637616
 30
0.0
 11
287.7288263376
 21
232.9715637616
 31
0.0
  0
LINE
  5
206
330
1F
100
AcDbEntity
  8
SLD-0
  6
Continuous
 62
   179
100
AcDbLine
 10
150.7288263376
 20
255.9715942792
 30
0.0
 11
287.7288263376
 21
255.9715942792
 31
0.0
  0
LINE
  5
207
330
1F
100
AcDbEntity
  8
SLD-0
  6
Continuous
 62
   179
100
AcDbLine
 10
150.7288263376
 20
224.9715637616
 30
0.0
 11
287.7288263376
 21
224.9715637616
 31
0.0
  0
LINE
  5
208
330
1F
100
AcDbEntity
  8
SLD-0
  6
Continuous
 62
   179
100
AcDbLine
 10
133.7288568552
 20
251.4715637616
 30
0.0
 11
143.7288568552
 21
251.4715637616
 31
0.0
  0
LINE
  5
209
330
1F
100
AcDbEntity
  8
SLD-0
  6
Continuous
 62
   179
100
AcDbLine
 10
133.7288568552
 20
229.4715637616
 30
0.0
 11
143.7288568552
 21
229.4715637616
 31
0.0
  0
LINE
  5
20A
330
1F
100
AcDbEntity
  8
SLD-0
  6
Continuous
 62
   179
100
AcDbLine
 10
305.2288263376
 20
234.4715637616
 30
0.0
 11
287.7288263376
 21
234.4715637616
 31
0.0
  0
LINE
  5
20B
330
1F
100
AcDbEntity
  8
SLD-0
  6
Continuous
 62
   179
100
AcDbLine
 10
305.2288263376
 20
246.4715637616
 30
0.0
 11
305.2288263376
 21
234.4715637616
 31
0.0
  0
LINE
  5
20C
330
1F
100
AcDbEntity
  8
SLD-0
  6
Continuous
 62
   179
100
AcDbLine
 10
402.875
 20
285.0
 30
0.0
 11
402.875
 21
12.0
 31
0.0
  0
LINE
  5
20D
330
1F
100
AcDbEntity
  8
SLD-0
  6
Continuous
 62
   179
100
AcDbLine
 10
17.075
 20
12.0
 30
0.0
 11
402.875
 21
12.0
 31
0.0
  0
LINE
  5
20E
330
1F
100
AcDbEntity
  8
SLD-0
  6
Continuous
 62
   179
100
AcDbLine
 10
17.075
 20
285.0
 30
0.0
 11
17.075
 21
12.0
 31
0.0
  0
LINE
  5
20F
330
1F
100
AcDbEntity
  8
SLD-0
  6
Continuous
 62
   179
100
AcDbLine
 10
17.075
 20
285.0
 30
0.0
 11
402.875
 21
285.0
 31
0.0
  0
LINE
  5
210
330
1F
100
AcDbEntity
  8
SLD-0
  6
CENTER
 62
   179
100
AcDbLine
 10
138.160650445
 20
116.9715485029
 30
0.0
 11
307.9555289535
 21
116.9715485029
 31
0.0
  0
LINE
  5
211
330
1F
100
AcDbEntity
  8
SLD-0
  6
CENTER
 62
   179
100
AcDbLine
 10
138.160650445
 20
170.9715485029
 30
0.0
 11
307.9555289535
 21
170.9715485029
 31
0.0
  0
LINE
  5
212
330
1F
100
AcDbEntity
  8
SLD-0
  6
Continuous
 62
   179
100
AcDbLine
 10
334.375
 20
50.7
 30
0.0
 11
334.375
 21
12.0
 31
0.0
  0
LINE
  5
213
330
1F
100
AcDbEntity
  8
SLD-0
  6
Continuous
 62
   179
100
AcDbLine
 10
334.375
 20
24.7
 30
0.0
 11
402.875
 21
24.7
 31
0.0
  0
LINE
  5
214
330
1F
100
AcDbEntity
  8
SLD-0
  6
Continuous
 62
   179
100
AcDbLine
 10
334.375
 20
37.2
 30
0.0
 11
402.875
 21
37.2
 31
0.0
  0
LINE
  5
215
330
1F
100
AcDbEntity
  8
SLD-0
  6
Continuous
 62
   179
100
AcDbLine
 10
334.375
 20
50.7
 30
0.0
 11
402.875
 21
50.7
 31
0.0
  0
LINE
  5
216
330
1F
100
AcDbEntity
  8
SLD-0
  6
Continuous
 62
   179
100
AcDbLine
 10
17.275
 20
12.2
 30
0.0
 11
402.675
 21
12.2
 31
0.0
  0
LINE
  5
217
330
1F
100
AcDbEntity
  8
SLD-0
  6
Continuous
 62
   179
100
AcDbLine
 10
402.675
 20
284.8
 30
0.0
 11
402.675
 21
12.2
 31
0.0
  0
LINE
  5
218
330
1F
100
AcDbEntity
  8
SLD-0
  6
Continuous
 62
   179
100
AcDbLine
 10
17.275
 20
284.8
 30
0.0
 11
402.675
 21
284.8
 31
0.0
  0
LINE
  5
219
330
1F
100
AcDbEntity
  8
SLD-0
  6
Continuous
 62
   179
100
AcDbLine
 10
17.275
 20
284.8
 30
0.0
 11
17.275
 21
12.2
 31
0.0
  0
LINE
  5
21A
330
1F
100
AcDbEntity
  8
SLD-0
  6
CENTER
 62
   179
100
AcDbLine
 10
163.7288385447
 20
135.0115485029
 30
0.0
 11
163.7288385447
 21
124.9315485029
 31
0.0
  0
LINE
  5
21B
330
1F
100
AcDbEntity
  8
SLD-0
  6
CENTER
 62
   179
100
AcDbLine
 10
158.6888385447
 20
129.9715485029
 30
0.0
 11
168.7688385447
 21
129.9715485029
 31
0.0
  0
CIRCLE
  5
21C
330
1F
100
AcDbEntity
  8
SLD-0
  6
Continuous
 62
   179
100
AcDbCircle
 10
240.7288568552
 20
42.4715485029
 30
0.0
 40
2.5
  0
CIRCLE
  5
21D
330
1F
100
AcDbEntity
  8
SLD-0
  6
Continuous
 62
   179
100
AcDbCircle
 10
240.7288568552
 20
42.4715485029
 30
0.0
 40
2.0
  0
CIRCLE
  5
21E
330
1F
100
AcDbEntity
  8
SLD-0
  6
Continuous
 62
   179
100
AcDbCircle
 10
155.7288568552
 20
42.4715485029
 30
0.0
 40
2.5
  0
CIRCLE
  5
21F
330
1F
100
AcDbEntity
  8
SLD-0
  6
Continuous
 62
   179
100
AcDbCircle
 10
155.7288568552
 20
42.4715485029
 30
0.0
 40
2.0
  0
CIRCLE
  5
220
330
1F
100
AcDbEntity
  8
SLD-0
  6
Continuous
 62
   179
100
AcDbCircle
 10
269.2288568552
 20
66.4715485029
 30
0.0
 40
3.900000095367432
  0
CIRCLE
  5
221
330
1F
100
AcDbEntity
  8
SLD-0
  6
Continuous
 62
   179
100
AcDbCircle
 10
163.7288568552
 20
66.4715485029
 30
0.0
 40
3.900000095367432
  0
CIRCLE
  5
222
330
1F
100
AcDbEntity
  8
SLD-0
  6
Continuous
 62
   179
100
AcDbCircle
 10
82.5365045603
 20
111.9715485029
 30
0.0
 40
2.5
  0
CIRCLE
  5
223
330
1F
100
AcDbEntity
  8
SLD-0
  6
Continuous
 62
   179
100
AcDbCircle
 10
82.5365045603
 20
111.9715485029
 30
0.0
 40
2.0
  0
CIRCLE
  5
224
330
1F
100
AcDbEntity
  8
SLD-0
  6
Continuous
 62
   179
100
AcDbCircle
 10
66.5365045603
 20
111.9715485029
 30
0.0
 40
2.5
  0
CIRCLE
  5
225
330
1F
100
AcDbEntity
  8
SLD-0
  6
Continuous
 62
   179
100
AcDbCircle
 10
66.5365045603
 20
111.9715485029
 30
0.0
 40
2.0
  0
CIRCLE
  5
226
330
1F
100
AcDbEntity
  8
SLD-0
  6
Continuous
 62
   179
100
AcDbCircle
 10
66.5365045603
 20
175.9715637616
 30
0.0
 40
2.5
  0
CIRCLE
  5
227
330
1F
100
AcDbEntity
  8
SLD-0
  6
Continuous
 62
   179
100
AcDbCircle
 10
66.5365045603
 20
175.9715637616
 30
0.0
 40
2.0
  0
CIRCLE
  5
228
330
1F
100
AcDbEntity
  8
SLD-0
  6
Continuous
 62
   179
100
AcDbCircle
 10
82.5365045603
 20
175.9715637616
 30
0.0
 40
2.5
  0
CIRCLE
  5
229
330
1F
100
AcDbEntity
  8
SLD-0
  6
Continuous
 62
   179
100
AcDbCircle
 10
82.5365045603
 20
175.9715637616
 30
0.0
 40
2.0
  0
ARC
  5
22A
330
1F
100
AcDbEntity
  8
SLD-0
  6
Continuous
 62
   179
100
AcDbCircle
 10
57.2365045603
 20
167.7074774053
 30
0.0
 40
0.200000000000216
100
AcDbArc
 50
180.0
 51
270.0
  0
ARC
  5
22B
330
1F
100
AcDbEntity
  8
SLD-0
  6
Continuous
 62
   179
100
AcDbCircle
 10
57.3365045603
 20
164.3074774053
 30
0.0
 40
0.1999999999999034
100
AcDbArc
 50
0.0
 51
90.0
  0
ARC
  5
22C
330
1F
100
AcDbEntity
  8
SLD-0
  6
Continuous
 62
   179
100
AcDbCircle
 10
57.2365045603
 20
162.8074774053
 30
0.0
 40
0.200000000000216
100
AcDbArc
 50
90.0
 51
180.0
  0
ARC
  5
22D
330
1F
100
AcDbEntity
  8
SLD-0
  6
Continuous
 62
   179
100
AcDbCircle
 10
57.2365045603
 20
168.8074774053
 30
0.0
 40
0.200000000000216
100
AcDbArc
 50
90.0
 51
180.0
  0
ARC
  5
22E
330
1F
100
AcDbEntity
  8
SLD-0
  6
Continuous
 62
   179
100
AcDbCircle
 10
57.3365045603
 20
163.2074774053
 30
0.0
 40
0.2000000000001023
100
AcDbArc
 50
270.0
 51
0.0
  0
ARC
  5
22F
330
1F
100
AcDbEntity
  8
SLD-0
  6
Continuous
 62
   179
100
AcDbCircle
 10
57.3365045603
 20
166.2074774053
 30
0.0
 40
0.2000000000001023
100
AcDbArc
 50
270.0
 51
0.0
  0
ARC
  5
230
330
1F
100
AcDbEntity
  8
SLD-0
  6
Continuous
 62
   179
100
AcDbCircle
 10
57.3365045603
 20
173.3074774053
 30
0.0
 40
0.1999999999999034
100
AcDbArc
 50
0.0
 51
90.0
  0
ARC
  5
231
330
1F
100
AcDbEntity
  8
SLD-0
  6
Continuous
 62
   179
100
AcDbCircle
 10
57.3365045603
 20
167.3074774053
 30
0.0
 40
0.1999999999999034
100
AcDbArc
 50
0.0
 51
90.0
  0
ARC
  5
232
330
1F
100
AcDbEntity
  8
SLD-0
  6
Continuous
 62
   179
100
AcDbCircle
 10
57.2365045603
 20
173.7074774053
 30
0.0
 40
0.200000000000216
100
AcDbArc
 50
180.0
 51
270.0
  0
ARC
  5
233
330
1F
100
AcDbEntity
  8
SLD-0
  6
Continuous
 62
   179
100
AcDbCircle
 10
57.3365045603
 20
169.2074774053
 30
0.0
 40
0.2000000000001307
100
AcDbArc
 50
270.0
 51
0.0
  0
ARC
  5
234
330
1F
100
AcDbEntity
  8
SLD-0
  6
Continuous
 62
   179
100
AcDbCircle
 10
57.2365045603
 20
164.7074774053
 30
0.0
 40
0.200000000000216
100
AcDbArc
 50
180.0
 51
270.0
  0
ARC
  5
235
330
1F
100
AcDbEntity
  8
SLD-0
  6
Continuous
 62
   179
100
AcDbCircle
 10
57.2365045603
 20
165.8074774053
 30
0.0
 40
0.200000000000216
100
AcDbArc
 50
90.0
 51
180.0
  0
ARC
  5
236
330
1F
100
AcDbEntity
  8
SLD-0
  6
Continuous
 62
   179
100
AcDbCircle
 10
91.8365045603
 20
165.8074774053
 30
0.0
 40
0.1999999999999034
100
AcDbArc
 50
0.0
 51
90.0
  0
ARC
  5
237
330
1F
100
AcDbEntity
  8
SLD-0
  6
Continuous
 62
   179
100
AcDbCircle
 10
91.8365045603
 20
171.8074774053
 30
0.0
 40
0.1999999999999034
100
AcDbArc
 50
0.0
 51
90.0
  0
ARC
  5
238
330
1F
100
AcDbEntity
  8
SLD-0
  6
Continuous
 62
   179
100
AcDbCircle
 10
91.8365045603
 20
164.7074774053
 30
0.0
 40
0.2000000000001023
100
AcDbArc
 50
270.0
 51
0.0
  0
ARC
  5
239
330
1F
100
AcDbEntity
  8
SLD-0
  6
Continuous
 62
   179
100
AcDbCircle
 10
91.7365045603
 20
169.2074774053
 30
0.0
 40
0.200000000000216
100
AcDbArc
 50
180.0
 51
270.0
  0
ARC
  5
23A
330
1F
100
AcDbEntity
  8
SLD-0
  6
Continuous
 62
   179
100
AcDbCircle
 10
91.8365045603
 20
173.7074774053
 30
0.0
 40
0.2000000000001023
100
AcDbArc
 50
270.0
 51
0.0
  0
ARC
  5
23B
330
1F
100
AcDbEntity
  8
SLD-0
  6
Continuous
 62
   179
100
AcDbCircle
 10
91.7365045603
 20
172.2074774053
 30
0.0
 40
0.200000000000216
100
AcDbArc
 50
180.0
 51
270.0
  0
ARC
  5
23C
330
1F
100
AcDbEntity
  8
SLD-0
  6
Continuous
 62
   179
100
AcDbCircle
 10
91.7365045603
 20
167.3074774053
 30
0.0
 40
0.200000000000216
100
AcDbArc
 50
90.0
 51
180.0
  0
ARC
  5
23D
330
1F
100
AcDbEntity
  8
SLD-0
  6
Continuous
 62
   179
100
AcDbCircle
 10
91.7365045603
 20
173.3074774053
 30
0.0
 40
0.200000000000216
100
AcDbArc
 50
90.0
 51
180.0
  0
ARC
  5
23E
330
1F
100
AcDbEntity
  8
SLD-0
  6
Continuous
 62
   179
100
AcDbCircle
 10
91.7365045603
 20
170.3074774053
 30
0.0
 40
0.200000000000216
100
AcDbArc
 50
90.0
 51
180.0
  0
ARC
  5
23F
330
1F
100
AcDbEntity
  8
SLD-0
  6
Continuous
 62
   179
100
AcDbCircle
 10
91.7365045603
 20
166.2074774053
 30
0.0
 40
0.200000000000216
100
AcDbArc
 50
180.0
 51
270.0
  0
ARC
  5
240
330
1F
100
AcDbEntity
  8
SLD-0
  6
Continuous
 62
   179
100
AcDbCircle
 10
91.8365045603
 20
170.7074774053
 30
0.0
 40
0.2000000000001307
100
AcDbArc
 50
270.0
 51
0.0
  0
ARC
  5
241
330
1F
100
AcDbEntity
  8
SLD-0
  6
Continuous
 62
   179
100
AcDbCircle
 10
91.7365045603
 20
163.2074774053
 30
0.0
 40
0.200000000000216
100
AcDbArc
 50
180.0
 51
270.0
  0
ARC
  5
242
330
1F
100
AcDbEntity
  8
SLD-0
  6
Continuous
 62
   179
100
AcDbCircle
 10
91.8365045603
 20
168.8074774053
 30
0.0
 40
0.1999999999999034
100
AcDbArc
 50
0.0
 51
90.0
  0
ARC
  5
243
330
1F
100
AcDbEntity
  8
SLD-0
  6
Continuous
 62
   179
100
AcDbCircle
 10
91.8365045603
 20
162.8074774053
 30
0.0
 40
0.1999999999999034
100
AcDbArc
 50
0.0
 51
90.0
  0
ARC
  5
244
330
1F
100
AcDbEntity
  8
SLD-0
  6
Continuous
 62
   179
100
AcDbCircle
 10
91.7365045603
 20
164.3074774053
 30
0.0
 40
0.200000000000216
100
AcDbArc
 50
90.0
 51
180.0
  0
ARC
  5
245
330
1F
100
AcDbEntity
  8
SLD-0
  6
Continuous
 62
   179
100
AcDbCircle
 10
91.8365045603
 20
167.7074774053
 30
0.0
 40
0.2000000000001023
100
AcDbArc
 50
270.0
 51
0.0
  0
ARC
  5
246
330
1F
100
AcDbEntity
  8
SLD-0
  6
Continuous
 62
   179
100
AcDbCircle
 10
61.5365029705
 20
148.4215563429
 30
0.0
 40
2.049999952316284
100
AcDbArc
 50
90.0
 51
130.007762257
  0
ARC
  5
247
330
1F
100
AcDbEntity
  8
SLD-0
  6
Continuous
 62
   179
100
AcDbCircle
 10
61.5365029705
 20
139.5215664392
 30
0.0
 40
2.049999952316296
100
AcDbArc
 50
90.0
 51
130.0077588419
  0
ARC
  5
248
330
1F
100
AcDbEntity
  8
SLD-0
  6
Continuous
 62
   179
100
AcDbCircle
 10
57.2365045603
 20
120.235650118
 30
0.0
 40
0.200000000000216
100
AcDbArc
 50
90.0
 51
180.0
  0
ARC
  5
249
330
1F
100
AcDbEntity
  8
SLD-0
  6
Continuous
 62
   179
100
AcDbCircle
 10
57.3365045603
 20
123.635650118
 30
0.0
 40
0.1999999999998039
100
AcDbArc
 50
270.0
 51
0.0
  0
ARC
  5
24A
330
1F
100
AcDbEntity
  8
SLD-0
  6
Continuous
 62
   179
100
AcDbCircle
 10
57.2365045603
 20
125.135650118
 30
0.0
 40
0.200000000000216
100
AcDbArc
 50
180.0
 51
270.0
  0
ARC
  5
24B
330
1F
100
AcDbEntity
  8
SLD-0
  6
Continuous
 62
   179
100
AcDbCircle
 10
57.2365045603
 20
119.135650118
 30
0.0
 40
0.200000000000216
100
AcDbArc
 50
180.0
 51
270.0
  0
ARC
  5
24C
330
1F
100
AcDbEntity
  8
SLD-0
  6
Continuous
 62
   179
100
AcDbCircle
 10
57.3365045603
 20
124.735650118
 30
0.0
 40
0.2000000000001023
100
AcDbArc
 50
0.0
 51
90.0
  0
ARC
  5
24D
330
1F
100
AcDbEntity
  8
SLD-0
  6
Continuous
 62
   179
100
AcDbCircle
 10
57.3365045603
 20
121.735650118
 30
0.0
 40
0.2000000000001023
100
AcDbArc
 50
0.0
 51
90.0
  0
ARC
  5
24E
330
1F
100
AcDbEntity
  8
SLD-0
  6
Continuous
 62
   179
100
AcDbCircle
 10
57.3365045603
 20
114.635650118
 30
0.0
 40
0.1999999999998039
100
AcDbArc
 50
270.0
 51
0.0
  0
ARC
  5
24F
330
1F
100
AcDbEntity
  8
SLD-0
  6
Continuous
 62
   179
100
AcDbCircle
 10
57.3365045603
 20
120.635650118
 30
0.0
 40
0.1999999999998039
100
AcDbArc
 50
270.0
 51
0.0
  0
ARC
  5
250
330
1F
100
AcDbEntity
  8
SLD-0
  6
Continuous
 62
   179
100
AcDbCircle
 10
57.2365045603
 20
114.235650118
 30
0.0
 40
0.200000000000216
100
AcDbArc
 50
90.0
 51
180.0
  0
ARC
  5
251
330
1F
100
AcDbEntity
  8
SLD-0
  6
Continuous
 62
   179
100
AcDbCircle
 10
57.3365045603
 20
118.735650118
 30
0.0
 40
0.2000000000001023
100
AcDbArc
 50
0.0
 51
90.0
  0
ARC
  5
252
330
1F
100
AcDbEntity
  8
SLD-0
  6
Continuous
 62
   179
100
AcDbCircle
 10
57.2365045603
 20
123.235650118
 30
0.0
 40
0.200000000000216
100
AcDbArc
 50
90.0
 51
180.0
  0
ARC
  5
253
330
1F
100
AcDbEntity
  8
SLD-0
  6
Continuous
 62
   179
100
AcDbCircle
 10
57.2365045603
 20
122.135650118
 30
0.0
 40
0.200000000000216
100
AcDbArc
 50
180.0
 51
270.0
  0
ARC
  5
254
330
1F
100
AcDbEntity
  8
SLD-0
  6
Continuous
 62
   179
100
AcDbCircle
 10
91.8365045603
 20
122.135650118
 30
0.0
 40
0.1999999999998039
100
AcDbArc
 50
270.0
 51
0.0
  0
ARC
  5
255
330
1F
100
AcDbEntity
  8
SLD-0
  6
Continuous
 62
   179
100
AcDbCircle
 10
91.8365045603
 20
116.135650118
 30
0.0
 40
0.1999999999998039
100
AcDbArc
 50
270.0
 51
0.0
  0
ARC
  5
256
330
1F
100
AcDbEntity
  8
SLD-0
  6
Continuous
 62
   179
100
AcDbCircle
 10
91.8365045603
 20
123.235650118
 30
0.0
 40
0.2000000000001023
100
AcDbArc
 50
0.0
 51
90.0
  0
ARC
  5
257
330
1F
100
AcDbEntity
  8
SLD-0
  6
Continuous
 62
   179
100
AcDbCircle
 10
91.7365045603
 20
118.735650118
 30
0.0
 40
0.200000000000216
100
AcDbArc
 50
90.0
 51
180.0
  0
ARC
  5
258
330
1F
100
AcDbEntity
  8
SLD-0
  6
Continuous
 62
   179
100
AcDbCircle
 10
91.8365045603
 20
114.235650118
 30
0.0
 40
0.2000000000001023
100
AcDbArc
 50
0.0
 51
90.0
  0
ARC
  5
259
330
1F
100
AcDbEntity
  8
SLD-0
  6
Continuous
 62
   179
100
AcDbCircle
 10
91.7365045603
 20
115.735650118
 30
0.0
 40
0.200000000000216
100
AcDbArc
 50
90.0
 51
180.0
  0
ARC
  5
25A
330
1F
100
AcDbEntity
  8
SLD-0
  6
Continuous
 62
   179
100
AcDbCircle
 10
91.7365045603
 20
120.635650118
 30
0.0
 40
0.200000000000216
100
AcDbArc
 50
180.0
 51
270.0
  0
ARC
  5
25B
330
1F
100
AcDbEntity
  8
SLD-0
  6
Continuous
 62
   179
100
AcDbCircle
 10
91.7365045603
 20
114.635650118
 30
0.0
 40
0.200000000000216
100
AcDbArc
 50
180.0
 51
270.0
  0
ARC
  5
25C
330
1F
100
AcDbEntity
  8
SLD-0
  6
Continuous
 62
   179
100
AcDbCircle
 10
91.7365045603
 20
117.635650118
 30
0.0
 40
0.200000000000216
100
AcDbArc
 50
180.0
 51
270.0
  0
ARC
  5
25D
330
1F
100
AcDbEntity
  8
SLD-0
  6
Continuous
 62
   179
100
AcDbCircle
 10
91.7365045603
 20
121.735650118
 30
0.0
 40
0.200000000000216
100
AcDbArc
 50
90.0
 51
180.0
  0
ARC
  5
25E
330
1F
100
AcDbEntity
  8
SLD-0
  6
Continuous
 62
   179
100
AcDbCircle
 10
91.8365045603
 20
117.235650118
 30
0.0
 40
0.2000000000001023
100
AcDbArc
 50
0.0
 51
90.0
  0
ARC
  5
25F
330
1F
100
AcDbEntity
  8
SLD-0
  6
Continuous
 62
   179
100
AcDbCircle
 10
91.7365045603
 20
124.735650118
 30
0.0
 40
0.200000000000216
100
AcDbArc
 50
90.0
 51
180.0
  0
ARC
  5
260
330
1F
100
AcDbEntity
  8
SLD-0
  6
Continuous
 62
   179
100
AcDbCircle
 10
91.8365045603
 20
119.135650118
 30
0.0
 40
0.1999999999997897
100
AcDbArc
 50
270.0
 51
0.0
  0
ARC
  5
261
330
1F
100
AcDbEntity
  8
SLD-0
  6
Continuous
 62
   179
100
AcDbCircle
 10
91.8365045603
 20
125.135650118
 30
0.0
 40
0.1999999999998181
100
AcDbArc
 50
270.0
 51
0.0
  0
ARC
  5
262
330
1F
100
AcDbEntity
  8
SLD-0
  6
Continuous
 62
   179
100
AcDbCircle
 10
91.7365045603
 20
123.635650118
 30
0.0
 40
0.200000000000216
100
AcDbArc
 50
180.0
 51
270.0
  0
ARC
  5
263
330
1F
100
AcDbEntity
  8
SLD-0
  6
Continuous
 62
   179
100
AcDbCircle
 10
91.8365045603
 20
120.235650118
 30
0.0
 40
0.2000000000001023
100
AcDbArc
 50
0.0
 51
90.0
  0
ARC
  5
264
330
1F
100
AcDbEntity
  8
SLD-0
  6
Continuous
 62
   179
100
AcDbCircle
 10
58.8364923533
 20
146.621559178
 30
0.0
 40
0.3000015318393142
100
AcDbArc
 50
90.0
 51
180.0
  0
ARC
  5
265
330
1F
100
AcDbEntity
  8
SLD-0
  6
Continuous
 62
   179
100
AcDbCircle
 10
58.8364923533
 20
137.7215652816
 30
0.0
 40
0.3000015318393497
100
AcDbArc
 50
90.0
 51
180.0
  0
ARC
  5
266
330
1F
100
AcDbEntity
  8
SLD-0
  6
Continuous
 62
   179
100
AcDbCircle
 10
57.5365045603
 20
150.9715637616
 30
0.0
 40
1.0
100
AcDbArc
 50
0.0
 51
90.0
  0
ARC
  5
267
330
1F
100
AcDbEntity
  8
SLD-0
  6
Continuous
 62
   179
100
AcDbCircle
 10
91.5365045603
 20
136.9715637616
 30
0.0
 40
1.0
100
AcDbArc
 50
180.0
 51
270.0
  0
ARC
  5
268
330
1F
100
AcDbEntity
  8
SLD-0
  6
Continuous
 62
   179
100
AcDbCircle
 10
91.5365045603
 20
150.9715637616
 30
0.0
 40
1.0
100
AcDbArc
 50
90.0
 51
180.0
  0
ARC
  5
269
330
1F
100
AcDbEntity
  8
SLD-0
  6
Continuous
 62
   179
100
AcDbCircle
 10
57.5365045603
 20
136.9715637616
 30
0.0
 40
1.0
100
AcDbArc
 50
270.0
 51
0.0
  0
ARC
  5
26A
330
1F
100
AcDbEntity
  8
SLD-0
  6
Continuous
 62
   179
100
AcDbCircle
 10
90.2365167673
 20
137.7215652816
 30
0.0
 40
0.3000015318393707
100
AcDbArc
 50
0.0
 51
90.0
  0
ARC
  5
26B
330
1F
100
AcDbEntity
  8
SLD-0
  6
Continuous
 62
   179
100
AcDbCircle
 10
90.2365167673
 20
146.621559178
 30
0.0
 40
0.3000015318393293
100
AcDbArc
 50
360.0
 51
90.0
  0
ARC
  5
26C
330
1F
100
AcDbEntity
  8
SLD-0
  6
Continuous
 62
   179
100
AcDbCircle
 10
87.5365061501
 20
139.5215624465
 30
0.0
 40
2.049999952316284
100
AcDbArc
 50
270.0
 51
310.0077604357
  0
ARC
  5
26D
330
1F
100
AcDbEntity
  8
SLD-0
  6
Continuous
 62
   179
100
AcDbCircle
 10
89.0473077829
 20
137.7215612888
 30
0.0
 40
0.3000055246142032
100
AcDbArc
 50
90.0
 51
130.0086116572
  0
ARC
  5
26E
330
1F
100
AcDbEntity
  8
SLD-0
  6
Continuous
 62
   179
100
AcDbCircle
 10
89.047307783
 20
141.3215636041
 30
0.0
 40
0.3000015318393707
100
AcDbArc
 50
229.9922445732
 51
270.0
  0
ARC
  5
26F
330
1F
100
AcDbEntity
  8
SLD-0
  6
Continuous
 62
   179
100
AcDbCircle
 10
87.5365061501
 20
139.5215624465
 30
0.0
 40
2.050003945077036
100
AcDbArc
 50
49.9921142594
 51
90.0
  0
ARC
  5
270
330
1F
100
AcDbEntity
  8
SLD-0
  6
Continuous
 62
   179
100
AcDbCircle
 10
90.2365167673
 20
141.3215636041
 30
0.0
 40
0.3000015318393707
100
AcDbArc
 50
270.0
 51
0.0
  0
ARC
  5
271
330
1F
100
AcDbEntity
  8
SLD-0
  6
Continuous
 62
   179
100
AcDbCircle
 10
87.5365061501
 20
148.4215603357
 30
0.0
 40
2.049999952316284
100
AcDbArc
 50
49.9922395643
 51
90.0
  0
ARC
  5
272
330
1F
100
AcDbEntity
  8
SLD-0
  6
Continuous
 62
   179
100
AcDbCircle
 10
89.0473077829
 20
146.621559178
 30
0.0
 40
0.300001531839316
100
AcDbArc
 50
90.0
 51
130.0077554268
  0
ARC
  5
273
330
1F
100
AcDbEntity
  8
SLD-0
  6
Continuous
 62
   179
100
AcDbCircle
 10
89.0473077829
 20
150.2215614934
 30
0.0
 40
0.3000055246143865
100
AcDbArc
 50
229.9913883428
 51
270.0
  0
ARC
  5
274
330
1F
100
AcDbEntity
  8
SLD-0
  6
Continuous
 62
   179
100
AcDbCircle
 10
87.5365061501
 20
148.4215603357
 30
0.0
 40
2.05000394507703
100
AcDbArc
 50
270.0
 51
310.0078857406
  0
ARC
  5
275
330
1F
100
AcDbEntity
  8
SLD-0
  6
Continuous
 62
   179
100
AcDbCircle
 10
60.0257013377
 20
141.3215675969
 30
0.0
 40
0.3000055246146189
100
AcDbArc
 50
270.0
 51
310.0086225483
  0
ARC
  5
276
330
1F
100
AcDbEntity
  8
SLD-0
  6
Continuous
 62
   179
100
AcDbCircle
 10
60.0257013376
 20
137.7215652816
 30
0.0
 40
0.3000015318393707
100
AcDbArc
 50
49.9922395642
 51
90.0
  0
ARC
  5
277
330
1F
100
AcDbEntity
  8
SLD-0
  6
Continuous
 62
   179
100
AcDbCircle
 10
90.2365167673
 20
150.2215575006
 30
0.0
 40
0.3000015318394594
100
AcDbArc
 50
270.0
 51
360.0
  0
ARC
  5
278
330
1F
100
AcDbEntity
  8
SLD-0
  6
Continuous
 62
   179
100
AcDbCircle
 10
61.5365029705
 20
139.5215664392
 30
0.0
 40
2.050003945076997
100
AcDbArc
 50
229.9921149924
 51
270.0
  0
ARC
  5
279
330
1F
100
AcDbEntity
  8
SLD-0
  6
Continuous
 62
   179
100
AcDbCircle
 10
58.8364923533
 20
141.3215636041
 30
0.0
 40
0.3000015318393707
100
AcDbArc
 50
180.0
 51
270.0
  0
ARC
  5
27A
330
1F
100
AcDbEntity
  8
SLD-0
  6
Continuous
 62
   179
100
AcDbCircle
 10
61.5365029705
 20
148.4215563429
 30
0.0
 40
2.049999952316318
100
AcDbArc
 50
229.9922482157
 51
270.0
  0
ARC
  5
27B
330
1F
100
AcDbEntity
  8
SLD-0
  6
Continuous
 62
   179
100
AcDbCircle
 10
60.0257013376
 20
146.6215551853
 30
0.0
 40
0.3000055246165015
100
AcDbArc
 50
49.9913292263
 51
90.0
  0
ARC
  5
27C
330
1F
100
AcDbEntity
  8
SLD-0
  6
Continuous
 62
   179
100
AcDbCircle
 10
60.0257013376
 20
150.2215575006
 30
0.0
 40
0.3000055246139084
100
AcDbArc
 50
270.0
 51
310.0085992124
  0
ARC
  5
27D
330
1F
100
AcDbEntity
  8
SLD-0
  6
Continuous
 62
   179
100
AcDbCircle
 10
58.8364923533
 20
150.2215535079
 30
0.0
 40
0.3000015318394563
100
AcDbArc
 50
180.0
 51
270.0
  0
CIRCLE
  5
27E
330
1F
100
AcDbEntity
  8
SLD-0
  6
Continuous
 62
   179
100
AcDbCircle
 10
232.7288263376
 20
129.9715485029
 30
0.0
 40
2.549999952316284
  0
CIRCLE
  5
27F
330
1F
100
AcDbEntity
  8
SLD-0
  6
Continuous
 62
   179
100
AcDbCircle
 10
278.2288263376
 20
129.9715485029
 30
0.0
 40
2.5
  0
CIRCLE
  5
280
330
1F
100
AcDbEntity
  8
SLD-0
  6
Continuous
 62
   179
100
AcDbCircle
 10
232.7288263376
 20
129.9715485029
 30
0.0
 40
4.5
  0
CIRCLE
  5
281
330
1F
100
AcDbEntity
  8
SLD-0
  6
Continuous
 62
   179
100
AcDbCircle
 10
278.2288263376
 20
129.9715485029
 30
0.0
 40
2.066999912261963
  0
CIRCLE
  5
282
330
1F
100
AcDbEntity
  8
SLD-0
  6
Continuous
 62
   179
100
AcDbCircle
 10
232.7288263376
 20
157.9715790204
 30
0.0
 40
2.549999952316284
  0
CIRCLE
  5
283
330
1F
100
AcDbEntity
  8
SLD-0
  6
Continuous
 62
   179
100
AcDbCircle
 10
163.7288385447
 20
129.9715485029
 30
0.0
 40
2.500000000000028
  0
CIRCLE
  5
284
330
1F
100
AcDbEntity
  8
SLD-0
  6
Continuous
 62
   179
100
AcDbCircle
 10
163.7288385447
 20
129.9715485029
 30
0.0
 40
2.066999912261991
  0
CIRCLE
  5
285
330
1F
100
AcDbEntity
  8
SLD-0
  6
Continuous
 62
   179
100
AcDbCircle
 10
172.7288385447
 20
129.9715485029
 30
0.0
 40
2.549999999999983
  0
CIRCLE
  5
286
330
1F
100
AcDbEntity
  8
SLD-0
  6
Continuous
 62
   179
100
AcDbCircle
 10
172.7288385447
 20
129.9715485029
 30
0.0
 40
4.5
  0
CIRCLE
  5
287
330
1F
100
AcDbEntity
  8
SLD-0
  6
Continuous
 62
   179
100
AcDbCircle
 10
138.7288568552
 20
160.9715637616
 30
0.0
 40
2.5
  0
CIRCLE
  5
288
330
1F
100
AcDbEntity
  8
SLD-0
  6
Continuous
 62
   179
100
AcDbCircle
 10
138.7288568552
 20
160.9715637616
 30
0.0
 40
2.0
  0
CIRCLE
  5
289
330
1F
100
AcDbEntity
  8
SLD-0
  6
Continuous
 62
   179
100
AcDbCircle
 10
138.7288568552
 20
126.9715637616
 30
0.0
 40
2.0
  0
CIRCLE
  5
28A
330
1F
100
AcDbEntity
  8
SLD-0
  6
Continuous
 62
   179
100
AcDbCircle
 10
138.7288568552
 20
126.9715637616
 30
0.0
 40
2.5
  0
CIRCLE
  5
28B
330
1F
100
AcDbEntity
  8
SLD-0
  6
Continuous
 62
   179
100
AcDbCircle
 10
232.7288263376
 20
157.9715790204
 30
0.0
 40
4.5
  0
CIRCLE
  5
28C
330
1F
100
AcDbEntity
  8
SLD-0
  6
Continuous
 62
   179
100
AcDbCircle
 10
172.7288385447
 20
157.9715790204
 30
0.0
 40
4.5
  0
CIRCLE
  5
28D
330
1F
100
AcDbEntity
  8
SLD-0
  6
Continuous
 62
   179
100
AcDbCircle
 10
172.7288385447
 20
157.9715790204
 30
0.0
 40
2.549999999999983
  0
CIRCLE
  5
28E
330
1F
100
AcDbEntity
  8
SLD-0
  6
Continuous
 62
   179
100
AcDbCircle
 10
74.5365045603
 20
116.9715485029
 30
0.0
 40
5.0
  0
CIRCLE
  5
28F
330
1F
100
AcDbEntity
  8
SLD-0
  6
Continuous
 62
   179
100
AcDbCircle
 10
74.5365045603
 20
116.9715485029
 30
0.0
 40
4.400000000000006
  0
CIRCLE
  5
290
330
1F
100
AcDbEntity
  8
SLD-0
  6
Continuous
 62
   179
100
AcDbCircle
 10
74.5365045603
 20
170.9715637616
 30
0.0
 40
5.0
  0
CIRCLE
  5
291
330
1F
100
AcDbEntity
  8
SLD-0
  6
Continuous
 62
   179
100
AcDbCircle
 10
74.5365045603
 20
170.9715637616
 30
0.0
 40
4.400000000000006
  0
CIRCLE
  5
292
330
1F
100
AcDbEntity
  8
SLD-0
  6
Continuous
 62
   179
100
AcDbCircle
 10
74.5365045603
 20
143.9715637616
 30
0.0
 40
4.25
  0
ARC
  5
293
330
1F
100
AcDbEntity
  8
SLD-0
  6
Continuous
 62
   179
100
AcDbCircle
 10
368.2863953605
 20
146.621559178
 30
0.0
 40
0.3000015318393142
100
AcDbArc
 50
360.0
 51
90.0
  0
ARC
  5
294
330
1F
100
AcDbEntity
  8
SLD-0
  6
Continuous
 62
   179
100
AcDbCircle
 10
368.2863953605
 20
137.7215652816
 30
0.0
 40
0.300001531839371
100
AcDbArc
 50
0.0
 51
90.0
  0
ARC
  5
295
330
1F
100
AcDbEntity
  8
SLD-0
  6
Continuous
 62
   179
100
AcDbCircle
 10
369.5863831535
 20
150.9715637616
 30
0.0
 40
1.0
100
AcDbArc
 50
90.0
 51
180.0
  0
ARC
  5
296
330
1F
100
AcDbEntity
  8
SLD-0
  6
Continuous
 62
   179
100
AcDbCircle
 10
335.5863831535
 20
136.9715637616
 30
0.0
 40
1.0
100
AcDbArc
 50
270.0
 51
0.0
  0
ARC
  5
297
330
1F
100
AcDbEntity
  8
SLD-0
  6
Continuous
 62
   179
100
AcDbCircle
 10
335.5863831535
 20
150.9715637616
 30
0.0
 40
1.0
100
AcDbArc
 50
0.0
 51
90.0
  0
ARC
  5
298
330
1F
100
AcDbEntity
  8
SLD-0
  6
Continuous
 62
   179
100
AcDbCircle
 10
369.5863831535
 20
136.9715637616
 30
0.0
 40
1.0
100
AcDbArc
 50
180.0
 51
270.0
  0
ARC
  5
299
330
1F
100
AcDbEntity
  8
SLD-0
  6
Continuous
 62
   179
100
AcDbCircle
 10
336.8863709464
 20
137.7215652816
 30
0.0
 40
0.3000015318393742
100
AcDbArc
 50
90.0
 51
180.0
  0
ARC
  5
29A
330
1F
100
AcDbEntity
  8
SLD-0
  6
Continuous
 62
   179
100
AcDbCircle
 10
336.8863709464
 20
146.621559178
 30
0.0
 40
0.3000015318393151
100
AcDbArc
 50
90.0
 51
180.0
  0
ARC
  5
29B
330
1F
100
AcDbEntity
  8
SLD-0
  6
Continuous
 62
   179
100
AcDbCircle
 10
338.0755799308
 20
137.7215652816
 30
0.0
 40
0.3000015318393592
100
AcDbArc
 50
49.9922411581
 51
90.0
  0
ARC
  5
29C
330
1F
100
AcDbEntity
  8
SLD-0
  6
Continuous
 62
   179
100
AcDbCircle
 10
338.0755799308
 20
141.3215737135
 30
0.0
 40
0.3000015318393743
100
AcDbArc
 50
270.0
 51
310.0077554268
  0
ARC
  5
29D
330
1F
100
AcDbEntity
  8
SLD-0
  6
Continuous
 62
   179
100
AcDbCircle
 10
339.5863841306
 20
139.5215694975
 30
0.0
 40
2.050007937837781
100
AcDbArc
 50
229.9921147592
 51
130.0078857406
  0
ARC
  5
29E
330
1F
100
AcDbEntity
  8
SLD-0
  6
Continuous
 62
   179
100
AcDbCircle
 10
336.8863709464
 20
141.3215737135
 30
0.0
 40
0.300001531839431
100
AcDbArc
 50
180.0
 51
270.0
  0
ARC
  5
29F
330
1F
100
AcDbEntity
  8
SLD-0
  6
Continuous
 62
   179
100
AcDbCircle
 10
339.5863815636
 20
148.4215563429
 30
0.0
 40
2.049999952316295
100
AcDbArc
 50
229.9922395643
 51
130.0077604357
  0
ARC
  5
2A0
330
1F
100
AcDbEntity
  8
SLD-0
  6
Continuous
 62
   179
100
AcDbCircle
 10
338.0755799308
 20
146.6215551853
 30
0.0
 40
0.3000055246141218
100
AcDbArc
 50
49.9913883428
 51
90.0
  0
ARC
  5
2A1
330
1F
100
AcDbEntity
  8
SLD-0
  6
Continuous
 62
   179
100
AcDbCircle
 10
338.0755799308
 20
150.2215575006
 30
0.0
 40
0.3000055246144265
100
AcDbArc
 50
270.0
 51
310.0086116572
  0
ARC
  5
2A2
330
1F
100
AcDbEntity
  8
SLD-0
  6
Continuous
 62
   179
100
AcDbCircle
 10
367.0971863761
 20
141.3215737135
 30
0.0
 40
0.3000015318393621
100
AcDbArc
 50
229.9922395643
 51
270.0
  0
CIRCLE
  5
2A3
330
1F
100
AcDbEntity
  8
SLD-0
  6
Continuous
 62
   179
100
AcDbCircle
 10
362.5863831535
 20
177.9715637616
 30
0.0
 40
2.066999912261963
  0
CIRCLE
  5
2A4
330
1F
100
AcDbEntity
  8
SLD-0
  6
Continuous
 62
   179
100
AcDbCircle
 10
362.5863831535
 20
177.9715637616
 30
0.0
 40
2.5
  0
CIRCLE
  5
2A5
330
1F
100
AcDbEntity
  8
SLD-0
  6
Continuous
 62
   179
100
AcDbCircle
 10
342.5863831535
 20
109.9715637616
 30
0.0
 40
2.066999912261963
  0
CIRCLE
  5
2A6
330
1F
100
AcDbEntity
  8
SLD-0
  6
Continuous
 62
   179
100
AcDbCircle
 10
342.5863831535
 20
177.9715637616
 30
0.0
 40
2.5
  0
CIRCLE
  5
2A7
330
1F
100
AcDbEntity
  8
SLD-0
  6
Continuous
 62
   179
100
AcDbCircle
 10
352.5863831535
 20
143.9715637616
 30
0.0
 40
10.0
  0
CIRCLE
  5
2A8
330
1F
100
AcDbEntity
  8
SLD-0
  6
Continuous
 62
   179
100
AcDbCircle
 10
362.5863831535
 20
109.9715637616
 30
0.0
 40
2.5
  0
CIRCLE
  5
2A9
330
1F
100
AcDbEntity
  8
SLD-0
  6
Continuous
 62
   179
100
AcDbCircle
 10
352.5863831535
 20
116.9715485029
 30
0.0
 40
7.0
  0
CIRCLE
  5
2AA
330
1F
100
AcDbEntity
  8
SLD-0
  6
Continuous
 62
   179
100
AcDbCircle
 10
362.5863831535
 20
109.9715637616
 30
0.0
 40
2.066999912261963
  0
CIRCLE
  5
2AB
330
1F
100
AcDbEntity
  8
SLD-0
  6
Continuous
 62
   179
100
AcDbCircle
 10
352.5863831535
 20
170.9715637616
 30
0.0
 40
7.0
  0
CIRCLE
  5
2AC
330
1F
100
AcDbEntity
  8
SLD-0
  6
Continuous
 62
   179
100
AcDbCircle
 10
342.5863831535
 20
109.9715637616
 30
0.0
 40
2.5
  0
CIRCLE
  5
2AD
330
1F
100
AcDbEntity
  8
SLD-0
  6
Continuous
 62
   179
100
AcDbCircle
 10
342.5863831535
 20
177.9715637616
 30
0.0
 40
2.066999912261963
  0
ARC
  5
2AE
330
1F
100
AcDbEntity
  8
SLD-0
  6
Continuous
 62
   179
100
AcDbCircle
 10
369.7863831535
 20
124.735650118
 30
0.0
 40
0.2000000000001023
100
AcDbArc
 50
90.0
 51
180.0
  0
ARC
  5
2AF
330
1F
100
AcDbEntity
  8
SLD-0
  6
Continuous
 62
   179
100
AcDbCircle
 10
369.8863831535
 20
116.135650118
 30
0.0
 40
0.2000000000001023
100
AcDbArc
 50
270.0
 51
0.0
  0
ARC
  5
2B0
330
1F
100
AcDbEntity
  8
SLD-0
  6
Continuous
 62
   179
100
AcDbCircle
 10
369.7863831535
 20
121.735650118
 30
0.0
 40
0.2000000000001023
100
AcDbArc
 50
90.0
 51
180.0
  0
ARC
  5
2B1
330
1F
100
AcDbEntity
  8
SLD-0
  6
Continuous
 62
   179
100
AcDbCircle
 10
369.7863831535
 20
120.635650118
 30
0.0
 40
0.1999999999998039
100
AcDbArc
 50
180.0
 51
270.0
  0
ARC
  5
2B2
330
1F
100
AcDbEntity
  8
SLD-0
  6
Continuous
 62
   179
100
AcDbCircle
 10
369.8863831535
 20
117.235650118
 30
0.0
 40
0.2000000000001023
100
AcDbArc
 50
0.0
 51
90.0
  0
ARC
  5
2B3
330
1F
100
AcDbEntity
  8
SLD-0
  6
Continuous
 62
   179
100
AcDbCircle
 10
369.7863831535
 20
115.735650118
 30
0.0
 40
0.2000000000001023
100
AcDbArc
 50
90.0
 51
180.0
  0
ARC
  5
2B4
330
1F
100
AcDbEntity
  8
SLD-0
  6
Continuous
 62
   179
100
AcDbCircle
 10
369.7863831535
 20
117.635650118
 30
0.0
 40
0.1999999999997897
100
AcDbArc
 50
180.0
 51
270.0
  0
ARC
  5
2B5
330
1F
100
AcDbEntity
  8
SLD-0
  6
Continuous
 62
   179
100
AcDbCircle
 10
369.8863831535
 20
122.135650118
 30
0.0
 40
0.2000000000001023
100
AcDbArc
 50
270.0
 51
0.0
  0
ARC
  5
2B6
330
1F
100
AcDbEntity
  8
SLD-0
  6
Continuous
 62
   179
100
AcDbCircle
 10
369.8863831535
 20
164.7074774053
 30
0.0
 40
0.2000000000001023
100
AcDbArc
 50
270.0
 51
0.0
  0
ARC
  5
2B7
330
1F
100
AcDbEntity
  8
SLD-0
  6
Continuous
 62
   179
100
AcDbCircle
 10
369.7863831535
 20
118.735650118
 30
0.0
 40
0.2000000000001023
100
AcDbArc
 50
90.0
 51
180.0
  0
ARC
  5
2B8
330
1F
100
AcDbEntity
  8
SLD-0
  6
Continuous
 62
   179
100
AcDbCircle
 10
369.8863831535
 20
114.235650118
 30
0.0
 40
0.2000000000001023
100
AcDbArc
 50
0.0
 51
90.0
  0
ARC
  5
2B9
330
1F
100
AcDbEntity
  8
SLD-0
  6
Continuous
 62
   179
100
AcDbCircle
 10
369.7863831535
 20
173.3074774053
 30
0.0
 40
0.1999999999999034
100
AcDbArc
 50
90.0
 51
180.0
  0
ARC
  5
2BA
330
1F
100
AcDbEntity
  8
SLD-0
  6
Continuous
 62
   179
100
AcDbCircle
 10
369.8863831535
 20
173.7074774053
 30
0.0
 40
0.2000000000001023
100
AcDbArc
 50
270.0
 51
0.0
  0
ARC
  5
2BB
330
1F
100
AcDbEntity
  8
SLD-0
  6
Continuous
 62
   179
100
AcDbCircle
 10
369.7863831535
 20
114.635650118
 30
0.0
 40
0.1999999999998039
100
AcDbArc
 50
180.0
 51
270.0
  0
ARC
  5
2BC
330
1F
100
AcDbEntity
  8
SLD-0
  6
Continuous
 62
   179
100
AcDbCircle
 10
369.7863831535
 20
169.2074774053
 30
0.0
 40
0.2000000000001307
100
AcDbArc
 50
180.0
 51
270.0
  0
ARC
  5
2BD
330
1F
100
AcDbEntity
  8
SLD-0
  6
Continuous
 62
   179
100
AcDbCircle
 10
369.8863831535
 20
165.8074774053
 30
0.0
 40
0.2000000000001023
100
AcDbArc
 50
0.0
 51
90.0
  0
ARC
  5
2BE
330
1F
100
AcDbEntity
  8
SLD-0
  6
Continuous
 62
   179
100
AcDbCircle
 10
369.7863831535
 20
170.3074774053
 30
0.0
 40
0.1999999999999034
100
AcDbArc
 50
90.0
 51
180.0
  0
ARC
  5
2BF
330
1F
100
AcDbEntity
  8
SLD-0
  6
Continuous
 62
   179
100
AcDbCircle
 10
369.7863831535
 20
172.2074774053
 30
0.0
 40
0.2000000000001023
100
AcDbArc
 50
180.0
 51
270.0
  0
ARC
  5
2C0
330
1F
100
AcDbEntity
  8
SLD-0
  6
Continuous
 62
   179
100
AcDbCircle
 10
369.8863831535
 20
170.7074774053
 30
0.0
 40
0.2000000000001307
100
AcDbArc
 50
270.0
 51
0.0
  0
ARC
  5
2C1
330
1F
100
AcDbEntity
  8
SLD-0
  6
Continuous
 62
   179
100
AcDbCircle
 10
369.7863831535
 20
167.3074774053
 30
0.0
 40
0.1999999999999034
100
AcDbArc
 50
90.0
 51
180.0
  0
ARC
  5
2C2
330
1F
100
AcDbEntity
  8
SLD-0
  6
Continuous
 62
   179
100
AcDbCircle
 10
369.7863831535
 20
166.2074774053
 30
0.0
 40
0.2000000000001023
100
AcDbArc
 50
180.0
 51
270.0
  0
ARC
  5
2C3
330
1F
100
AcDbEntity
  8
SLD-0
  6
Continuous
 62
   179
100
AcDbCircle
 10
369.8863831535
 20
171.8074774053
 30
0.0
 40
0.2000000000001023
100
AcDbArc
 50
0.0
 51
90.0
  0
ARC
  5
2C4
330
1F
100
AcDbEntity
  8
SLD-0
  6
Continuous
 62
   179
100
AcDbCircle
 10
369.7863831535
 20
163.2074774053
 30
0.0
 40
0.2000000000001023
100
AcDbArc
 50
180.0
 51
270.0
  0
ARC
  5
2C5
330
1F
100
AcDbEntity
  8
SLD-0
  6
Continuous
 62
   179
100
AcDbCircle
 10
335.2863831535
 20
165.8074774053
 30
0.0
 40
0.1999999999999886
100
AcDbArc
 50
90.0
 51
180.0
  0
ARC
  5
2C6
330
1F
100
AcDbEntity
  8
SLD-0
  6
Continuous
 62
   179
100
AcDbCircle
 10
335.2863831535
 20
171.8074774053
 30
0.0
 40
0.1999999999999886
100
AcDbArc
 50
90.0
 51
180.0
  0
ARC
  5
2C7
330
1F
100
AcDbEntity
  8
SLD-0
  6
Continuous
 62
   179
100
AcDbCircle
 10
335.2863831535
 20
164.7074774053
 30
0.0
 40
0.2000000000001023
100
AcDbArc
 50
180.0
 51
270.0
  0
ARC
  5
2C8
330
1F
100
AcDbEntity
  8
SLD-0
  6
Continuous
 62
   179
100
AcDbCircle
 10
335.3863831535
 20
169.2074774053
 30
0.0
 40
0.2000000000001307
100
AcDbArc
 50
270.0
 51
0.0
  0
ARC
  5
2C9
330
1F
100
AcDbEntity
  8
SLD-0
  6
Continuous
 62
   179
100
AcDbCircle
 10
335.2863831535
 20
173.7074774053
 30
0.0
 40
0.2000000000001023
100
AcDbArc
 50
180.0
 51
270.0
  0
ARC
  5
2CA
330
1F
100
AcDbEntity
  8
SLD-0
  6
Continuous
 62
   179
100
AcDbCircle
 10
335.3863831535
 20
172.2074774053
 30
0.0
 40
0.2000000000001023
100
AcDbArc
 50
270.0
 51
0.0
  0
ARC
  5
2CB
330
1F
100
AcDbEntity
  8
SLD-0
  6
Continuous
 62
   179
100
AcDbCircle
 10
335.3863831535
 20
167.3074774053
 30
0.0
 40
0.2000000000001023
100
AcDbArc
 50
0.0
 51
90.0
  0
ARC
  5
2CC
330
1F
100
AcDbEntity
  8
SLD-0
  6
Continuous
 62
   179
100
AcDbCircle
 10
335.3863831535
 20
173.3074774053
 30
0.0
 40
0.2000000000001023
100
AcDbArc
 50
0.0
 51
90.0
  0
ARC
  5
2CD
330
1F
100
AcDbEntity
  8
SLD-0
  6
Continuous
 62
   179
100
AcDbCircle
 10
335.3863831535
 20
170.3074774053
 30
0.0
 40
0.2000000000001023
100
AcDbArc
 50
0.0
 51
90.0
  0
ARC
  5
2CE
330
1F
100
AcDbEntity
  8
SLD-0
  6
Continuous
 62
   179
100
AcDbCircle
 10
335.3863831535
 20
166.2074774053
 30
0.0
 40
0.2000000000001023
100
AcDbArc
 50
270.0
 51
0.0
  0
ARC
  5
2CF
330
1F
100
AcDbEntity
  8
SLD-0
  6
Continuous
 62
   179
100
AcDbCircle
 10
335.2863831535
 20
170.7074774053
 30
0.0
 40
0.2000000000001307
100
AcDbArc
 50
180.0
 51
270.0
  0
ARC
  5
2D0
330
1F
100
AcDbEntity
  8
SLD-0
  6
Continuous
 62
   179
100
AcDbCircle
 10
335.3863831535
 20
163.2074774053
 30
0.0
 40
0.2000000000001023
100
AcDbArc
 50
270.0
 51
0.0
  0
ARC
  5
2D1
330
1F
100
AcDbEntity
  8
SLD-0
  6
Continuous
 62
   179
100
AcDbCircle
 10
335.2863831535
 20
168.8074774053
 30
0.0
 40
0.1999999999999886
100
AcDbArc
 50
90.0
 51
180.0
  0
ARC
  5
2D2
330
1F
100
AcDbEntity
  8
SLD-0
  6
Continuous
 62
   179
100
AcDbCircle
 10
335.2863831535
 20
162.8074774053
 30
0.0
 40
0.1999999999999886
100
AcDbArc
 50
90.0
 51
180.0
  0
ARC
  5
2D3
330
1F
100
AcDbEntity
  8
SLD-0
  6
Continuous
 62
   179
100
AcDbCircle
 10
335.3863831535
 20
164.3074774053
 30
0.0
 40
0.2000000000001023
100
AcDbArc
 50
0.0
 51
90.0
  0
ARC
  5
2D4
330
1F
100
AcDbEntity
  8
SLD-0
  6
Continuous
 62
   179
100
AcDbCircle
 10
335.2863831535
 20
167.7074774053
 30
0.0
 40
0.2000000000001023
100
AcDbArc
 50
180.0
 51
270.0
  0
ARC
  5
2D5
330
1F
100
AcDbEntity
  8
SLD-0
  6
Continuous
 62
   179
100
AcDbCircle
 10
335.2863831535
 20
120.235650118
 30
0.0
 40
0.2000000000001023
100
AcDbArc
 50
90.0
 51
180.0
  0
ARC
  5
2D6
330
1F
100
AcDbEntity
  8
SLD-0
  6
Continuous
 62
   179
100
AcDbCircle
 10
335.3863831535
 20
123.635650118
 30
0.0
 40
0.2000000000001023
100
AcDbArc
 50
270.0
 51
0.0
  0
ARC
  5
2D7
330
1F
100
AcDbEntity
  8
SLD-0
  6
Continuous
 62
   179
100
AcDbCircle
 10
335.2863831535
 20
125.135650118
 30
0.0
 40
0.1999999999999886
100
AcDbArc
 50
180.0
 51
270.0
  0
ARC
  5
2D8
330
1F
100
AcDbEntity
  8
SLD-0
  6
Continuous
 62
   179
100
AcDbCircle
 10
335.2863831535
 20
119.135650118
 30
0.0
 40
0.1999999999999886
100
AcDbArc
 50
180.0
 51
270.0
  0
ARC
  5
2D9
330
1F
100
AcDbEntity
  8
SLD-0
  6
Continuous
 62
   179
100
AcDbCircle
 10
335.3863831535
 20
124.735650118
 30
0.0
 40
0.2000000000001023
100
AcDbArc
 50
0.0
 51
90.0
  0
ARC
  5
2DA
330
1F
100
AcDbEntity
  8
SLD-0
  6
Continuous
 62
   179
100
AcDbCircle
 10
335.2863831535
 20
117.235650118
 30
0.0
 40
0.2000000000001023
100
AcDbArc
 50
90.0
 51
180.0
  0
ARC
  5
2DB
330
1F
100
AcDbEntity
  8
SLD-0
  6
Continuous
 62
   179
100
AcDbCircle
 10
335.3863831535
 20
121.735650118
 30
0.0
 40
0.2000000000001023
100
AcDbArc
 50
0.0
 51
90.0
  0
ARC
  5
2DC
330
1F
100
AcDbEntity
  8
SLD-0
  6
Continuous
 62
   179
100
AcDbCircle
 10
335.3863831535
 20
117.635650118
 30
0.0
 40
0.2000000000001023
100
AcDbArc
 50
270.0
 51
0.0
  0
ARC
  5
2DD
330
1F
100
AcDbEntity
  8
SLD-0
  6
Continuous
 62
   179
100
AcDbCircle
 10
335.3863831535
 20
114.635650118
 30
0.0
 40
0.2000000000001023
100
AcDbArc
 50
270.0
 51
0.0
  0
ARC
  5
2DE
330
1F
100
AcDbEntity
  8
SLD-0
  6
Continuous
 62
   179
100
AcDbCircle
 10
335.3863831535
 20
120.635650118
 30
0.0
 40
0.2000000000001023
100
AcDbArc
 50
270.0
 51
0.0
  0
ARC
  5
2DF
330
1F
100
AcDbEntity
  8
SLD-0
  6
Continuous
 62
   179
100
AcDbCircle
 10
335.2863831535
 20
114.235650118
 30
0.0
 40
0.2000000000001023
100
AcDbArc
 50
90.0
 51
180.0
  0
ARC
  5
2E0
330
1F
100
AcDbEntity
  8
SLD-0
  6
Continuous
 62
   179
100
AcDbCircle
 10
335.3863831535
 20
115.735650118
 30
0.0
 40
0.2000000000001023
100
AcDbArc
 50
0.0
 51
90.0
  0
ARC
  5
2E1
330
1F
100
AcDbEntity
  8
SLD-0
  6
Continuous
 62
   179
100
AcDbCircle
 10
335.3863831535
 20
118.735650118
 30
0.0
 40
0.2000000000001023
100
AcDbArc
 50
0.0
 51
90.0
  0
ARC
  5
2E2
330
1F
100
AcDbEntity
  8
SLD-0
  6
Continuous
 62
   179
100
AcDbCircle
 10
335.2863831535
 20
123.235650118
 30
0.0
 40
0.2000000000001023
100
AcDbArc
 50
90.0
 51
180.0
  0
ARC
  5
2E3
330
1F
100
AcDbEntity
  8
SLD-0
  6
Continuous
 62
   179
100
AcDbCircle
 10
335.2863831535
 20
116.135650118
 30
0.0
 40
0.1999999999999886
100
AcDbArc
 50
180.0
 51
270.0
  0
ARC
  5
2E4
330
1F
100
AcDbEntity
  8
SLD-0
  6
Continuous
 62
   179
100
AcDbCircle
 10
335.2863831535
 20
122.135650118
 30
0.0
 40
0.1999999999999886
100
AcDbArc
 50
180.0
 51
270.0
  0
ARC
  5
2E5
330
1F
100
AcDbEntity
  8
SLD-0
  6
Continuous
 62
   179
100
AcDbCircle
 10
369.8863831535
 20
123.235650118
 30
0.0
 40
0.2000000000001023
100
AcDbArc
 50
0.0
 51
90.0
  0
ARC
  5
2E6
330
1F
100
AcDbEntity
  8
SLD-0
  6
Continuous
 62
   179
100
AcDbCircle
 10
367.0971863761
 20
137.7215652816
 30
0.0
 40
0.3000015318393423
100
AcDbArc
 50
90.0
 51
130.0077604357
  0
ARC
  5
2E7
330
1F
100
AcDbEntity
  8
SLD-0
  6
Continuous
 62
   179
100
AcDbCircle
 10
336.8863709464
 20
150.2215535079
 30
0.0
 40
0.3000015318394879
100
AcDbArc
 50
180.0
 51
270.0
  0
ARC
  5
2E8
330
1F
100
AcDbEntity
  8
SLD-0
  6
Continuous
 62
   179
100
AcDbCircle
 10
365.5863821763
 20
139.5215694975
 30
0.0
 40
2.050007937837687
100
AcDbArc
 50
49.9921149924
 51
310.0078850076
  0
ARC
  5
2E9
330
1F
100
AcDbEntity
  8
SLD-0
  6
Continuous
 62
   179
100
AcDbCircle
 10
368.2863953605
 20
141.3215737135
 30
0.0
 40
0.300001531839371
100
AcDbArc
 50
270.0
 51
0.0
  0
ARC
  5
2EA
330
1F
100
AcDbEntity
  8
SLD-0
  6
Continuous
 62
   179
100
AcDbCircle
 10
365.5863847433
 20
148.4215563429
 30
0.0
 40
2.049999952316258
100
AcDbArc
 50
49.992237743
 51
310.0077517843
  0
ARC
  5
2EB
330
1F
100
AcDbEntity
  8
SLD-0
  6
Continuous
 62
   179
100
AcDbCircle
 10
367.0971863761
 20
146.6215551853
 30
0.0
 40
0.3000055246164948
100
AcDbArc
 50
90.0
 51
130.0086707736
  0
ARC
  5
2EC
330
1F
100
AcDbEntity
  8
SLD-0
  6
Continuous
 62
   179
100
AcDbCircle
 10
367.0971863761
 20
150.2215575006
 30
0.0
 40
0.3000055246139084
100
AcDbArc
 50
229.9914007876
 51
270.0
  0
ARC
  5
2ED
330
1F
100
AcDbEntity
  8
SLD-0
  6
Continuous
 62
   179
100
AcDbCircle
 10
368.2863953605
 20
150.2215535079
 30
0.0
 40
0.300001531839456
100
AcDbArc
 50
270.0
 51
360.0
  0
ARC
  5
2EE
330
1F
100
AcDbEntity
  8
SLD-0
  6
Continuous
 62
   179
100
AcDbCircle
 10
369.8863831535
 20
167.7074774053
 30
0.0
 40
0.2000000000001023
100
AcDbArc
 50
270.0
 51
0.0
  0
ARC
  5
2EF
330
1F
100
AcDbEntity
  8
SLD-0
  6
Continuous
 62
   179
100
AcDbCircle
 10
369.8863831535
 20
162.8074774053
 30
0.0
 40
0.2000000000001023
100
AcDbArc
 50
0.0
 51
90.0
  0
ARC
  5
2F0
330
1F
100
AcDbEntity
  8
SLD-0
  6
Continuous
 62
   179
100
AcDbCircle
 10
369.7863831535
 20
164.3074774053
 30
0.0
 40
0.1999999999999034
100
AcDbArc
 50
90.0
 51
180.0
  0
ARC
  5
2F1
330
1F
100
AcDbEntity
  8
SLD-0
  6
Continuous
 62
   179
100
AcDbCircle
 10
369.8863831535
 20
168.8074774053
 30
0.0
 40
0.2000000000001023
100
AcDbArc
 50
0.0
 51
90.0
  0
ARC
  5
2F2
330
1F
100
AcDbEntity
  8
SLD-0
  6
Continuous
 62
   179
100
AcDbCircle
 10
369.8863831535
 20
119.135650118
 30
0.0
 40
0.2000000000001023
100
AcDbArc
 50
270.0
 51
0.0
  0
ARC
  5
2F3
330
1F
100
AcDbEntity
  8
SLD-0
  6
Continuous
 62
   179
100
AcDbCircle
 10
369.7863831535
 20
123.635650118
 30
0.0
 40
0.1999999999998039
100
AcDbArc
 50
180.0
 51
270.0
  0
ARC
  5
2F4
330
1F
100
AcDbEntity
  8
SLD-0
  6
Continuous
 62
   179
100
AcDbCircle
 10
369.8863831535
 20
125.135650118
 30
0.0
 40
0.2000000000001023
100
AcDbArc
 50
270.0
 51
0.0
  0
ARC
  5
2F5
330
1F
100
AcDbEntity
  8
SLD-0
  6
Continuous
 62
   179
100
AcDbCircle
 10
369.8863831535
 20
120.235650118
 30
0.0
 40
0.2000000000001023
100
AcDbArc
 50
0.0
 51
90.0
  0
ARC
  5
2F6
330
1F
100
AcDbEntity
  8
SLD-0
  6
Continuous
 62
   179
100
AcDbCircle
 10
337.8537060528
 20
181.9715637616
 30
0.0
 40
1.000000000000188
100
AcDbArc
 50
90.0
 51
165.0
  0
ARC
  5
2F7
330
1F
100
AcDbEntity
  8
SLD-0
  6
Continuous
 62
   179
100
AcDbCircle
 10
337.8537101414
 20
105.9715485029
 30
0.0
 40
1.000000000000536
100
AcDbArc
 50
195.0
 51
270.0
  0
ARC
  5
2F8
330
1F
100
AcDbEntity
  8
SLD-0
  6
Continuous
 62
   179
100
AcDbCircle
 10
367.3190561655
 20
105.9715485029
 30
0.0
 40
1.0
100
AcDbArc
 50
270.0
 51
344.9999999999
  0
ARC
  5
2F9
330
1F
100
AcDbEntity
  8
SLD-0
  6
Continuous
 62
   179
100
AcDbCircle
 10
367.3190602541
 20
181.9715637616
 30
0.0
 40
1.0
100
AcDbArc
 50
15.0
 51
90.0
  0
CIRCLE
  5
2FA
330
1F
100
AcDbEntity
  8
SLD-0
  6
Continuous
 62
   179
100
AcDbCircle
 10
356.7675015516
 20
136.8187371532
 30
0.0
 40
1.0
  0
ARC
  5
2FB
330
1F
100
AcDbEntity
  8
SLD-0
  6
Continuous
 62
   179
100
AcDbCircle
 10
356.7675015516
 20
136.8187371532
 30
0.0
 40
1.840000000001054
100
AcDbArc
 50
30.509292061
 51
194.5119757515
  0
ARC
  5
2FC
330
1F
100
AcDbEntity
  8
SLD-0
  6
Continuous
 62
   179
100
AcDbCircle
 10
352.5863831535
 20
143.262792015
 30
0.0
 40
8.961506785174233
100
AcDbArc
 50
321.3448293301
 51
218.6551706699
  0
ARC
  5
2FD
330
1F
100
AcDbEntity
  8
SLD-0
  6
Continuous
 62
   179
100
AcDbCircle
 10
346.1738584448
 20
138.1336234135
 30
0.0
 40
0.7500000000000443
100
AcDbArc
 50
218.6551706699
 51
329.490707939
  0
CIRCLE
  5
2FE
330
1F
100
AcDbEntity
  8
SLD-0
  6
Continuous
 62
   179
100
AcDbCircle
 10
348.4052647553
 20
136.8187371532
 30
0.0
 40
1.0
  0
ARC
  5
2FF
330
1F
100
AcDbEntity
  8
SLD-0
  6
Continuous
 62
   179
100
AcDbCircle
 10
348.4052647553
 20
136.8187371532
 30
0.0
 40
1.839999999999965
100
AcDbArc
 50
345.4880242485
 51
149.490707939
  0
ARC
  5
300
330
1F
100
AcDbEntity
  8
SLD-0
  6
Continuous
 62
   179
100
AcDbCircle
 10
358.9989078621
 20
138.1336234135
 30
0.0
 40
0.7500000000002376
100
AcDbArc
 50
210.509292061
 51
321.3448293301
  0
CIRCLE
  5
301
330
1F
100
AcDbEntity
  8
SLD-0
  6
Continuous
 62
   179
100
AcDbCircle
 10
240.7288263376
 20
228.4715637616
 30
0.0
 40
2.500000000000028
  0
CIRCLE
  5
302
330
1F
100
AcDbEntity
  8
SLD-0
  6
Continuous
 62
   179
100
AcDbCircle
 10
155.7288263376
 20
228.4715637616
 30
0.0
 40
2.5
  0
CIRCLE
  5
303
330
1F
100
AcDbEntity
  8
SLD-0
  6
Continuous
 62
   179
100
AcDbCircle
 10
155.7288263376
 20
228.4715637616
 30
0.0
 40
2.0
  0
CIRCLE
  5
304
330
1F
100
AcDbEntity
  8
SLD-0
  6
Continuous
 62
   179
100
AcDbCircle
 10
240.7288263376
 20
228.4715637616
 30
0.0
 40
2.000000000000028
  0
CIRCLE
  5
305
330
1F
100
AcDbEntity
  8
SLD-0
  6
Continuous
 62
   179
100
AcDbCircle
 10
240.7288263376
 20
252.4715637616
 30
0.0
 40
2.500000000000028
  0
CIRCLE
  5
306
330
1F
100
AcDbEntity
  8
SLD-0
  6
Continuous
 62
   179
100
AcDbCircle
 10
240.7288263376
 20
252.4715637616
 30
0.0
 40
2.000000000000028
  0
CIRCLE
  5
307
330
1F
100
AcDbEntity
  8
SLD-0
  6
Continuous
 62
   179
100
AcDbCircle
 10
155.7288263376
 20
252.4715637616
 30
0.0
 40
2.5
  0
CIRCLE
  5
308
330
1F
100
AcDbEntity
  8
SLD-0
  6
Continuous
 62
   179
100
AcDbCircle
 10
155.7288263376
 20
252.4715637616
 30
0.0
 40
2.0
  0
MTEXT
  5
30A
330
1F
100
AcDbEntity
  8
SLD-0
 62
     7
100
AcDbMText
 10
171.6270474899
 20
55.9442851607
 30
0.0
 40
5.0
 41
0.0
 71
     1
 72
     1
  1
ＳＴＡＲ
  7
SLDTEXTSTYLE4
 73
     1
 44
1.0
  0
MTEXT
  5
30C
330
1F
100
AcDbEntity
  8
SLD-0
 62
     7
100
AcDbMText
 10
189.8237970113
 20
57.4214432438
 30
0.0
 40
2.0
 41
0.0
 71
     1
 72
     1
  1
ＧＣＹＬ－２０Ｘ１００
  7
SLDTEXTSTYLE5
 73
     1
 44
1.0
  0
MTEXT
  5
30E
330
1F
100
AcDbEntity
  8
SLD-0
 62
     7
100
AcDbMText
 10
190.8697496138
 20
52.5881607731
 30
0.0
 40
2.0
 41
0.0
 71
     1
 72
     1
  1
ＳＴＡＲＴＥＣＨＮＯ
  7
SLDTEXTSTYLE6
 73
     1
 44
1.0
  0
MTEXT
  5
310
330
1F
100
AcDbEntity
  8
SLD-0
 62
     7
100
AcDbMText
 10
336.4998297316
 20
47.9838802965
 30
0.0
 40
4.8000001907
 41
0.0
 71
     1
 72
     1
  1
コンテナシリンダーガイド付
  7
SLDTEXTSTYLE7
 73
     1
 44
1.0
  0
MTEXT
  5
312
330
1F
100
AcDbEntity
  8
SLD-0
 62
     7
100
AcDbMText
 10
359.0875845717
 20
41.3165802058
 30
0.0
 40
3.2000000477
 41
0.0
 71
     1
 72
     1
  1
（複動型）
  7
SLDTEXTSTYLE8
 73
     1
 44
1.0
  0
MTEXT
  5
314
330
1F
100
AcDbEntity
  8
SLD-0
 62
     7
100
AcDbMText
 10
342.6507445054
 20
32.6324518143
 30
0.0
 40
4.8000001907
 41
0.0
 71
     1
 72
     1
  1
ＧＣＹＬ－２０ｘ１００
  7
SLDTEXTSTYLE9
 73
     1
 44
1.0
  0
MTEXT
  5
316
330
1F
100
AcDbEntity
  8
SLD-0
 62
     7
100
AcDbMText
 10
355.2201070051
 20
20.9605303467
 30
0.0
 40
4.8000001907
 41
0.0
 71
     1
 72
     1
  1
０６０５００
  7
SLDTEXTSTYLE10
 73
     1
 44
1.0
  0
INSERT
  5
317
330
1F
100
AcDbEntity
  8
0
  6
Continuous
 62
     7
370
     0
100
AcDbBlockReference
  2
KOZU0001
 10
81.4376204616
 20
178.217104618
 30
0.0
  0
INSERT
  5
318
330
1F
100
AcDbEntity
  8
0
  6
Continuous
 62
     7
370
     0
100
AcDbBlockReference
  2
KOZU0002
 10
137.7425552058
 20
163.2687814388
 30
0.0
  0
INSERT
  5
319
330
1F
100
AcDbEntity
  8
0
  6
Continuous
 62
     7
370
     0
100
AcDbBlockReference
  2
KOZU0003
 10
173.8551303033
 20
160.2593654778
 30
0.0
  0
INSERT
  5
31A
330
1F
100
AcDbEntity
  8
0
  6
Continuous
 62
     7
370
     0
100
AcDbBlockReference
  2
KOZU0004
 10
277.0215776752
 20
127.7823590028
 30
0.0
  0
INSERT
  5
31B
330
1F
100
AcDbEntity
  8
0
  6
Continuous
 62
     7
370
     0
100
AcDbBlockReference
  2
KOZU0005
 10
242.1008824515
 20
40.3816810996
 30
0.0
  0
INSERT
  5
31C
330
1F
100
AcDbEntity
  8
0
  6
Continuous
 62
     7
370
     0
100
AcDbBlockReference
  2
KOZU0006
 10
241.9653272501
 20
254.6443650626
 30
0.0
  0
INSERT
  5
31D
330
1F
100
AcDbEntity
  8
0
  6
Continuous
 62
     7
370
     0
100
AcDbBlockReference
  2
KOZU0007
 10
341.4124799226
 20
180.1788134541
 30
0.0
  0
INSERT
  5
31E
330
1F
100
AcDbEntity
  8
0
  6
Continuous
 62
     7
370
     0
100
AcDbBlockReference
  2
KOZU0008
 10
366.481980352
 20
140.3661034549
 30
0.0
  0
ENDSEC
  0
SECTION
  2
OBJECTS
  0
DICTIONARY
  5
C
330
0
100
AcDbDictionary
281
     1
  3
ACAD_GROUP
350
D
  3
ACAD_LAYOUT
350
1A
  3
ACAD_MLINESTYLE
350
17
  3
ACAD_PLOTSETTINGS
350
19
  3
ACAD_PLOTSTYLENAME
350
E
  0
DICTIONARY
  5
D
102
{ACAD_REACTORS
330
C
102
}
330
C
100
AcDbDictionary
281
     1
  0
DICTIONARY
  5
1A
102
{ACAD_REACTORS
330
C
102
}
330
C
100
AcDbDictionary
281
     1
  3
Layout1
350
1E
  3
Layout2
350
26
  3
Model
350
22
  0
DICTIONARY
  5
17
102
{ACAD_REACTORS
330
C
102
}
330
C
100
AcDbDictionary
281
     1
  3
Standard
350
18
  0
DICTIONARY
  5
19
102
{ACAD_REACTORS
330
C
102
}
330
C
100
AcDbDictionary
281
     1
  0
ACDBDICTIONARYWDFLT
  5
E
102
{ACAD_REACTORS
330
C
102
}
330
C
100
AcDbDictionary
281
     1
  3
Normal
350
F
100
AcDbDictionaryWithDefault
340
F
  0
LAYOUT
  5
1E
102
{ACAD_REACTORS
330
1A
102
}
330
1A
100
AcDbPlotSettings
  1

  2

  4

  6

 40
0.0
 41
0.0
 42
0.0
 43
0.0
 44
0.0
 45
0.0
 46
0.0
 47
0.0
 48
0.0
 49
0.0
140
0.0
141
0.0
142
1.0
143
1.0
 70
   688
 72
     0
 73
     0
 74
     5
  7

 75
    16
147
1.0
148
0.0
149
0.0
100
AcDbLayout
  1
Layout1
 70
     1
 71
     1
 10
0.0
 20
0.0
 11
0.0
 21
0.0
 12
0.0
 22
0.0
 32
0.0
 14
0.0
 24
0.0
 34
0.0
 15
0.0
 25
0.0
 35
0.0
146
0.0
 13
0.0
 23
0.0
 33
0.0
 16
1.0
 26
0.0
 36
0.0
 17
0.0
 27
1.0
 37
0.0
 76
     0
330
1B
  0
LAYOUT
  5
26
102
{ACAD_REACTORS
330
1A
102
}
330
1A
100
AcDbPlotSettings
  1

  2

  4

  6

 40
0.0
 41
0.0
 42
0.0
 43
0.0
 44
0.0
 45
0.0
 46
0.0
 47
0.0
 48
0.0
 49
0.0
140
0.0
141
0.0
142
1.0
143
1.0
 70
   688
 72
     0
 73
     0
 74
     5
  7

 75
    16
147
1.0
148
0.0
149
0.0
100
AcDbLayout
  1
Layout2
 70
     1
 71
     2
 10
0.0
 20
0.0
 11
0.0
 21
0.0
 12
0.0
 22
0.0
 32
0.0
 14
0.0
 24
0.0
 34
0.0
 15
0.0
 25
0.0
 35
0.0
146
0.0
 13
0.0
 23
0.0
 33
0.0
 16
1.0
 26
0.0
 36
0.0
 17
0.0
 27
1.0
 37
0.0
 76
     0
330
23
  0
LAYOUT
  5
22
102
{ACAD_REACTORS
330
1A
102
}
330
1A
100
AcDbPlotSettings
  1

  2

  4

  6

 40
0.0
 41
0.0
 42
0.0
 43
0.0
 44
0.0
 45
0.0
 46
0.0
 47
0.0
 48
0.0
 49
0.0
140
0.0
141
0.0
142
1.0
143
1.0
 70
  1712
 72
     0
 73
     0
 74
     0
  7

 75
     0
147
1.0
148
0.0
149
0.0
100
AcDbLayout
  1
Model
 70
     1
 71
     0
 10
0.0
 20
0.0
 11
0.0
 21
0.0
 12
0.0
 22
0.0
 32
0.0
 14
0.0
 24
0.0
 34
0.0
 15
420.0
 25
297.0
 35
0.0
146
0.0
 13
0.0
 23
0.0
 33
0.0
 16
1.0
 26
0.0
 36
0.0
 17
0.0
 27
1.0
 37
0.0
 76
     0
330
1F
  0
MLINESTYLE
  5
18
102
{ACAD_REACTORS
330
17
102
}
330
17
100
AcDbMlineStyle
  2
Standard
 70
     0
  3

 62
   256
 51
90.0
 52
90.0
 71
     2
 49
0.5
 62
   256
  6
BYLAYER
 49
-0.5
 62
   256
  6
BYLAYER
  0
ACDBPLACEHOLDER
  5
F
102
{ACAD_REACTORS
330
E
102
}
330
E
  0
ENDSEC
  0
EOF
