  0
SECTION
  2
HEADER
  9
$ACADVER
  1
AC1015
  9
$ACADMAINTVER
 70
     6
  9
$DWGCODEPAGE
  3
DOS932
  9
$INSBASE
 10
0.0
 20
0.0
 30
0.0
  9
$EXTMIN
 10
0.0
 20
0.0
 30
0.0
  9
$EXTMAX
 10
420.0
 20
297.0
 30
0.0
  9
$LIMMIN
 10
0.0
 20
0.0
  9
$LIMMAX
 10
0.0
 20
0.0
  9
$ORTHOMODE
 70
     0
  9
$REGENMODE
 70
     1
  9
$FILLMODE
 70
     1
  9
$QTEXTMODE
 70
     0
  9
$MIRRTEXT
 70
     1
  9
$LTSCALE
 40
1.0
  9
$ATTMODE
 70
     1
  9
$TEXTSIZE
 40
3.5
  9
$TRACEWID
 40
1.0
  9
$TEXTSTYLE
  7
Standard
  9
$CLAYER
  8
0
  9
$CELTYPE
  6
ByLayer
  9
$CECOLOR
 62
   256
  9
$CELTSCALE
 40
1.0
  9
$DISPSILH
 70
     0
  9
$DIMSCALE
 40
1.0
  9
$DIMASZ
 40
3.0
  9
$DIMEXO
 40
1.0
  9
$DIMDLI
 40
3.75
  9
$DIMRND
 40
0.0
  9
$DIMDLE
 40
0.0
  9
$DIMEXE
 40
1.0
  9
$DIMTP
 40
0.0
  9
$DIMTM
 40
0.0
  9
$DIMTXT
 40
3.2
  9
$DIMCEN
 40
2.5
  9
$DIMTSZ
 40
0.0
  9
$DIMTOL
 70
     0
  9
$DIMLIM
 70
     0
  9
$DIMTIH
 70
     1
  9
$DIMTOH
 70
     1
  9
$DIMSE1
 70
     0
  9
$DIMSE2
 70
     0
  9
$DIMTAD
 70
     1
  9
$DIMZIN
 70
     1
  9
$DIMBLK
  1

  9
$DIMASO
 70
     1
  9
$DIMSHO
 70
     1
  9
$DIMPOST
  1

  9
$DIMAPOST
  1

  9
$DIMALT
 70
     0
  9
$DIMALTD
 70
     3
  9
$DIMALTF
 40
0.0393700787
  9
$DIMLFAC
 40
1.0
  9
$DIMTOFL
 70
     1
  9
$DIMTVP
 40
0.0
  9
$DIMTIX
 70
     0
  9
$DIMSOXD
 70
     0
  9
$DIMSAH
 70
     0
  9
$DIMBLK1
  1

  9
$DIMBLK2
  1

  9
$DIMSTYLE
  2
ISO-25
  9
$DIMCLRD
 70
     0
  9
$DIMCLRE
 70
     0
  9
$DIMCLRT
 70
     0
  9
$DIMTFAC
 40
1.0
  9
$DIMGAP
 40
1.524
  9
$DIMJUST
 70
     0
  9
$DIMSD1
 70
     0
  9
$DIMSD2
 70
     0
  9
$DIMTOLJ
 70
     0
  9
$DIMTZIN
 70
     1
  9
$DIMALTZ
 70
     0
  9
$DIMALTTZ
 70
     0
  9
$DIMUPT
 70
     0
  9
$DIMDEC
 70
     2
  9
$DIMTDEC
 70
     2
  9
$DIMALTU
 70
     2
  9
$DIMALTTD
 70
     3
  9
$DIMTXSTY
  7
Standard
  9
$DIMAUNIT
 70
     0
  9
$DIMADEC
 70
     0
  9
$DIMALTRND
 40
0.0
  9
$DIMAZIN
 70
     0
  9
$DIMDSEP
 70
    44
  9
$DIMATFIT
 70
     3
  9
$DIMFRAC
 70
     0
  9
$DIMLDRBLK
  1

  9
$DIMLUNIT
 70
     2
  9
$DIMLWD
 70
    -2
  9
$DIMLWE
 70
    -2
  9
$DIMTMOVE
 70
     0
  9
$LUNITS
 70
     2
  9
$LUPREC
 70
     4
  9
$SKETCHINC
 40
1.0
  9
$FILLETRAD
 40
10.0
  9
$AUNITS
 70
     0
  9
$AUPREC
 70
     0
  9
$MENU
  1
.
  9
$ELEVATION
 40
0.0
  9
$PELEVATION
 40
0.0
  9
$THICKNESS
 40
0.0
  9
$LIMCHECK
 70
     0
  9
$CHAMFERA
 40
10.0
  9
$CHAMFERB
 40
10.0
  9
$CHAMFERC
 40
20.0
  9
$CHAMFERD
 40
0.0
  9
$SKPOLY
 70
     0
  9
$TDCREATE
 40
2454307.545437998
  9
$TDUCREATE
 40
2454307.170437998
  9
$TDUPDATE
 40
2454307.545438009
  9
$TDUUPDATE
 40
2454307.170438009
  9
$TDINDWG
 40
0.0000000116
  9
$TDUSRTIMER
 40
0.0000000116
  9
$USRTIMER
 70
     1
  9
$ANGBASE
 50
0.0
  9
$ANGDIR
 70
     0
  9
$PDMODE
 70
     0
  9
$PDSIZE
 40
-1.0
  9
$PLINEWID
 40
0.0
  9
$SPLFRAME
 70
     0
  9
$SPLINETYPE
 70
     6
  9
$SPLINESEGS
 70
     8
  9
$HANDSEED
  5
325
  9
$SURFTAB1
 70
     6
  9
$SURFTAB2
 70
     6
  9
$SURFTYPE
 70
     6
  9
$SURFU
 70
     6
  9
$SURFV
 70
     6
  9
$UCSBASE
  2

  9
$UCSNAME
  2

  9
$UCSORG
 10
0.0
 20
0.0
 30
0.0
  9
$UCSXDIR
 10
1.0
 20
0.0
 30
0.0
  9
$UCSYDIR
 10
0.0
 20
1.0
 30
0.0
  9
$UCSORTHOREF
  2

  9
$UCSORTHOVIEW
 70
     0
  9
$UCSORGTOP
 10
0.0
 20
0.0
 30
0.0
  9
$UCSORGBOTTOM
 10
0.0
 20
0.0
 30
0.0
  9
$UCSORGLEFT
 10
0.0
 20
0.0
 30
0.0
  9
$UCSORGRIGHT
 10
0.0
 20
0.0
 30
0.0
  9
$UCSORGFRONT
 10
0.0
 20
0.0
 30
0.0
  9
$UCSORGBACK
 10
0.0
 20
0.0
 30
0.0
  9
$PUCSBASE
  2

  9
$PUCSNAME
  2

  9
$PUCSORG
 10
0.0
 20
0.0
 30
0.0
  9
$PUCSXDIR
 10
1.0
 20
0.0
 30
0.0
  9
$PUCSYDIR
 10
0.0
 20
1.0
 30
0.0
  9
$PUCSORTHOREF
  2

  9
$PUCSORTHOVIEW
 70
     0
  9
$PUCSORGTOP
 10
0.0
 20
0.0
 30
0.0
  9
$PUCSORGBOTTOM
 10
0.0
 20
0.0
 30
0.0
  9
$PUCSORGLEFT
 10
0.0
 20
0.0
 30
0.0
  9
$PUCSORGRIGHT
 10
0.0
 20
0.0
 30
0.0
  9
$PUCSORGFRONT
 10
0.0
 20
0.0
 30
0.0
  9
$PUCSORGBACK
 10
0.0
 20
0.0
 30
0.0
  9
$USERI1
 70
     0
  9
$USERI2
 70
     0
  9
$USERI3
 70
     0
  9
$USERI4
 70
     0
  9
$USERI5
 70
     0
  9
$USERR1
 40
0.0
  9
$USERR2
 40
0.0
  9
$USERR3
 40
0.0
  9
$USERR4
 40
0.0
  9
$USERR5
 40
0.0
  9
$WORLDVIEW
 70
     1
  9
$SHADEDGE
 70
     3
  9
$SHADEDIF
 70
    70
  9
$TILEMODE
 70
     1
  9
$MAXACTVP
 70
    64
  9
$PINSBASE
 10
0.0
 20
0.0
 30
0.0
  9
$PLIMCHECK
 70
     0
  9
$PEXTMIN
 10
1.0000000000E+20
 20
1.0000000000E+20
 30
1.0000000000E+20
  9
$PEXTMAX
 10
-1.0000000000E+20
 20
-1.0000000000E+20
 30
-1.0000000000E+20
  9
$PLIMMIN
 10
0.0
 20
0.0
  9
$PLIMMAX
 10
420.0
 20
297.0
  9
$UNITMODE
 70
     0
  9
$VISRETAIN
 70
     1
  9
$PLINEGEN
 70
     0
  9
$PSLTSCALE
 70
     1
  9
$TREEDEPTH
 70
  3020
  9
$CMLSTYLE
  2
Standard
  9
$CMLJUST
 70
     0
  9
$CMLSCALE
 40
20.0
  9
$PROXYGRAPHICS
 70
     1
  9
$MEASUREMENT
 70
     1
  9
$CELWEIGHT
370
    -1
  9
$ENDCAPS
280
     0
  9
$JOINSTYLE
280
     0
  9
$LWDISPLAY
290
     1
  9
$INSUNITS
 70
     4
  9
$HYPERLINKBASE
  1

  9
$STYLESHEET
  1

  9
$XEDIT
290
     1
  9
$CEPSNTYPE
380
     0
  9
$PSTYLEMODE
290
     1
  9
$FINGERPRINTGUID
  2
{BAB3FAED-9E0B-4DC5-A502-6D56A44D948F}
  9
$VERSIONGUID
  2
{FAEB1C32-E019-11D5-929B-00C0DF256EC4}
  9
$EXTNAMES
290
     1
  9
$PSVPSCALE
 40
0.0
  9
$OLESTARTUP
290
     0
  0
ENDSEC
  0
SECTION
  2
CLASSES
  0
CLASS
  1
ACDBDICTIONARYWDFLT
  2
AcDbDictionaryWithDefault
  3
ObjectDBX Classes
 90
        0
280
     0
281
     0
  0
CLASS
  1
ACDBPLACEHOLDER
  2
AcDbPlaceHolder
  3
ObjectDBX Classes
 90
        0
280
     0
281
     0
  0
CLASS
  1
LAYOUT
  2
AcDbLayout
  3
ObjectDBX Classes
 90
        0
280
     0
281
     0
  0
ENDSEC
  0
SECTION
  2
TABLES
  0
TABLE
  2
VPORT
  5
8
330
0
100
AcDbSymbolTable
 70
     1
  0
VPORT
  5
29
330
8
100
AcDbSymbolTableRecord
100
AcDbViewportTableRecord
  2
*Active
 70
     0
 10
0.0
 20
0.0
 11
1.0
 21
1.0
 12
210.0
 22
148.5
 13
0.0
 23
0.0
 14
10.0
 24
10.0
 15
10.0
 25
10.0
 16
0.0
 26
0.0
 36
1.0
 17
0.0
 27
0.0
 37
0.0
 40
297.0
 41
1.9729729729
 42
50.0
 43
0.0
 44
0.0
 50
0.0
 51
0.0
 71
     0
 72
  2000
 73
     1
 74
     3
 75
     0
 76
     0
 77
     0
 78
     0
281
     0
 65
     1
110
0.0
120
0.0
130
0.0
111
1.0
121
0.0
131
0.0
112
0.0
122
1.0
132
0.0
 79
     0
146
0.0
  0
ENDTAB
  0
TABLE
  2
LTYPE
  5
5
330
0
100
AcDbSymbolTable
 70
     6
  0
LTYPE
  5
14
330
5
100
AcDbSymbolTableRecord
100
AcDbLinetypeTableRecord
  2
ByBlock
 70
     0
  3

 72
    65
 73
     0
 40
0.0
  0
LTYPE
  5
15
330
5
100
AcDbSymbolTableRecord
100
AcDbLinetypeTableRecord
  2
ByLayer
 70
     0
  3

 72
    65
 73
     0
 40
0.0
  0
LTYPE
  5
16
330
5
100
AcDbSymbolTableRecord
100
AcDbLinetypeTableRecord
  2
Continuous
 70
     0
  3
Solid line
 72
    65
 73
     0
 40
0.0
  0
LTYPE
  5
2A
330
5
100
AcDbSymbolTableRecord
100
AcDbLinetypeTableRecord
  2
HIDDEN
 70
     0
  3
Hidden __ __ __ __ __ __ __ __ __ __ __ __ __ __
 72
    65
 73
     2
 40
1.905
 49
1.27
 74
     0
 49
-0.635
 74
     0
  0
LTYPE
  5
2B
330
5
100
AcDbSymbolTableRecord
100
AcDbLinetypeTableRecord
  2
PHANTOM
 70
     0
  3
Phantom ______  __  __  ______  __  __  ______
 72
    65
 73
     6
 40
12.7
 49
6.35
 74
     0
 49
-1.27
 74
     0
 49
1.27
 74
     0
 49
-1.27
 74
     0
 49
1.27
 74
     0
 49
-1.27
 74
     0
  0
LTYPE
  5
2C
330
5
100
AcDbSymbolTableRecord
100
AcDbLinetypeTableRecord
  2
CENTER
 70
     0
  3
Center ____ _ ____ _ ____ _ ____ _ ____ _ ____
 72
    65
 73
     4
 40
10.16
 49
6.35
 74
     0
 49
-1.27
 74
     0
 49
1.27
 74
     0
 49
-1.27
 74
     0
  0
LTYPE
  5
2D
330
5
100
AcDbSymbolTableRecord
100
AcDbLinetypeTableRecord
  2
CENTERX2
 70
     0
  3
Center (2x) ________  __  ________  __  _____
 72
    65
 73
     4
 40
20.32
 49
12.7
 74
     0
 49
-2.54
 74
     0
 49
2.54
 74
     0
 49
-2.54
 74
     0
  0
LTYPE
  5
2E
330
5
100
AcDbSymbolTableRecord
100
AcDbLinetypeTableRecord
  2
DOT2
 70
     0
  3
Dot (.5x) ........................................
 72
    65
 73
     2
 40
0.635
 49
0.0
 74
     0
 49
-0.635
 74
     0
  0
ENDTAB
  0
TABLE
  2
LAYER
  5
2
330
0
100
AcDbSymbolTable
 70
     2
  0
LAYER
  5
10
330
2
100
AcDbSymbolTableRecord
100
AcDbLayerTableRecord
  2
0
 70
     0
 62
     7
  6
Continuous
370
    -3
390
F
  0
LAYER
  5
2F
330
2
100
AcDbSymbolTableRecord
100
AcDbLayerTableRecord
  2
SLD-0
 70
     0
 62
   179
  6
Continuous
370
     0
390
F
  0
ENDTAB
  0
TABLE
  2
STYLE
  5
3
330
0
100
AcDbSymbolTable
 70
    13
  0
STYLE
  5
11
330
3
100
AcDbSymbolTableRecord
100
AcDbTextStyleTableRecord
  2
Standard
 70
     0
 40
0.0
 41
1.0
 50
0.0
 71
     0
 42
2.5
  3
txt
  4
bigfont
  0
STYLE
  5
38
330
3
100
AcDbSymbolTableRecord
100
AcDbTextStyleTableRecord
  2
SLDTEXTSTYLE0
 70
     0
 40
0.0
 41
0.6272516084
 50
0.0
 71
     0
 42
0.2
  3
TXT
  4
bigfont
  0
STYLE
  5
3A
330
3
100
AcDbSymbolTableRecord
100
AcDbTextStyleTableRecord
  2
SLDTEXTSTYLE1
 70
     0
 40
0.0
 41
0.6302728232
 50
0.0
 71
     0
 42
0.2
  3
TXT
  4
bigfont
  0
STYLE
  5
44
330
3
100
AcDbSymbolTableRecord
100
AcDbTextStyleTableRecord
  2
SLDTEXTSTYLE2
 70
     0
 40
0.0
 41
0.6212091789
 50
0.0
 71
     0
 42
0.2
  3
TXT
  4
bigfont
  0
STYLE
  5
5D
330
3
100
AcDbSymbolTableRecord
100
AcDbTextStyleTableRecord
  2
SLDTEXTSTYLE3
 70
     0
 40
0.0
 41
0.6210806147
 50
0.0
 71
     0
 42
0.2
  3
TXT
  4
bigfont
  0
STYLE
  5
30E
330
3
100
AcDbSymbolTableRecord
100
AcDbTextStyleTableRecord
  2
SLDTEXTSTYLE4
 70
     0
 40
0.0
 41
0.5066143084
 50
0.0
 71
     0
 42
0.2
  3
TXT
  4
bigfont
  0
STYLE
  5
310
330
3
100
AcDbSymbolTableRecord
100
AcDbTextStyleTableRecord
  2
SLDTEXTSTYLE5
 70
     0
 40
0.0
 41
0.4789083158
 50
0.0
 71
     0
 42
0.2
  3
TXT
  4
bigfont
  0
STYLE
  5
312
330
3
100
AcDbSymbolTableRecord
100
AcDbTextStyleTableRecord
  2
SLDTEXTSTYLE6
 70
     0
 40
0.0
 41
0.4804099926
 50
0.0
 71
     0
 42
0.2
  3
TXT
  4
bigfont
  0
STYLE
  5
314
330
3
100
AcDbSymbolTableRecord
100
AcDbTextStyleTableRecord
  2
SLDTEXTSTYLE7
 70
     0
 40
0.0
 41
0.6215271189
 50
0.0
 71
     0
 42
0.2
  3
TXT
  4
bigfont
  0
STYLE
  5
316
330
3
100
AcDbSymbolTableRecord
100
AcDbTextStyleTableRecord
  2
SLDTEXTSTYLE8
 70
     0
 40
0.0
 41
0.6255251284
 50
0.0
 71
     0
 42
0.2
  3
TXT
  4
bigfont
  0
STYLE
  5
318
330
3
100
AcDbSymbolTableRecord
100
AcDbTextStyleTableRecord
  2
SLDTEXTSTYLE9
 70
     0
 40
0.0
 41
0.6219643979
 50
0.0
 71
     0
 42
0.2
  3
TXT
  4
bigfont
  0
STYLE
  5
31A
330
3
100
AcDbSymbolTableRecord
100
AcDbTextStyleTableRecord
  2
SLDTEXTSTYLE10
 70
     0
 40
0.0
 41
0.6244080316
 50
0.0
 71
     0
 42
0.2
  3
TXT
  4
bigfont
  0
STYLE
  5
31C
330
3
100
AcDbSymbolTableRecord
100
AcDbTextStyleTableRecord
  2
SLDTEXTSTYLE11
 70
     0
 40
0.0
 41
0.8337
 50
0.0
 71
     0
 42
0.2
  3
TXT
  4
bigfont
  0
ENDTAB
  0
TABLE
  2
VIEW
  5
6
330
0
100
AcDbSymbolTable
 70
     0
  0
ENDTAB
  0
TABLE
  2
UCS
  5
7
330
0
100
AcDbSymbolTable
 70
     0
  0
ENDTAB
  0
TABLE
  2
APPID
  5
9
330
0
100
AcDbSymbolTable
 70
     1
  0
APPID
  5
12
330
9
100
AcDbSymbolTableRecord
100
AcDbRegAppTableRecord
  2
ACAD
 70
     0
  0
ENDTAB
  0
TABLE
  2
DIMSTYLE
  5
A
330
0
100
AcDbSymbolTable
 70
     1
100
AcDbDimStyleTable
  0
DIMSTYLE
105
27
330
A
100
AcDbSymbolTableRecord
100
AcDbDimStyleTableRecord
  2
ISO-25
 70
     0
 41
2.5
 42
0.625
 43
3.75
 44
1.25
 73
     0
 74
     0
 77
     1
 78
     8
140
2.5
141
2.5
143
0.0393700787
147
0.625
171
     3
172
     1
271
     2
272
     2
274
     3
278
    44
283
     0
284
     8
340
11
  0
ENDTAB
  0
TABLE
  2
BLOCK_RECORD
  5
1
330
0
100
AcDbSymbolTable
 70
     9
  0
BLOCK_RECORD
  5
1F
330
1
100
AcDbSymbolTableRecord
100
AcDbBlockTableRecord
  2
*Model_Space
340
22
  0
BLOCK_RECORD
  5
1B
330
1
100
AcDbSymbolTableRecord
100
AcDbBlockTableRecord
  2
*Paper_Space
340
1E
  0
BLOCK_RECORD
  5
23
330
1
100
AcDbSymbolTableRecord
100
AcDbBlockTableRecord
  2
*Paper_Space0
340
26
  0
BLOCK_RECORD
  5
30
330
1
100
AcDbSymbolTableRecord
100
AcDbBlockTableRecord
  2
KOZU0001
340
0
102
{BLKREFS
331
31E
102
}
  0
BLOCK_RECORD
  5
3C
330
1
100
AcDbSymbolTableRecord
100
AcDbBlockTableRecord
  2
KOZU0002
340
0
102
{BLKREFS
331
31F
102
}
  0
BLOCK_RECORD
  5
47
330
1
100
AcDbSymbolTableRecord
100
AcDbBlockTableRecord
  2
KOZU0003
340
0
102
{BLKREFS
331
320
102
}
  0
BLOCK_RECORD
  5
51
330
1
100
AcDbSymbolTableRecord
100
AcDbBlockTableRecord
  2
KOZU0004
340
0
102
{BLKREFS
331
321
102
}
  0
BLOCK_RECORD
  5
5A
330
1
100
AcDbSymbolTableRecord
100
AcDbBlockTableRecord
  2
SW_NOTE_0
340
0
102
{BLKREFS
331
63
102
}
  0
BLOCK_RECORD
  5
64
330
1
100
AcDbSymbolTableRecord
100
AcDbBlockTableRecord
  2
KOZU0005
340
0
102
{BLKREFS
331
322
102
}
  0
BLOCK_RECORD
  5
6E
330
1
100
AcDbSymbolTableRecord
100
AcDbBlockTableRecord
  2
KOZU0006
340
0
102
{BLKREFS
331
323
102
}
  0
BLOCK_RECORD
  5
77
330
1
100
AcDbSymbolTableRecord
100
AcDbBlockTableRecord
  2
KOZU0007
340
0
102
{BLKREFS
331
324
102
}
  0
ENDTAB
  0
ENDSEC
  0
SECTION
  2
BLOCKS
  0
BLOCK
  5
20
330
1F
100
AcDbEntity
  8
0
100
AcDbBlockBegin
  2
*Model_Space
 70
     0
 71
     0
 10
0.0
 20
0.0
 30
0.0
  3
*Model_Space
  1

  0
ENDBLK
  5
21
330
1F
100
AcDbEntity
  8
0
100
AcDbBlockEnd
  0
BLOCK
  5
1C
330
1B
100
AcDbEntity
 67
     1
  8
0
100
AcDbBlockBegin
  2
*Paper_Space
 70
     0
 71
     0
 10
0.0
 20
0.0
 30
0.0
  3
*Paper_Space
  1

  0
ENDBLK
  5
1D
330
1B
100
AcDbEntity
 67
     1
  8
0
100
AcDbBlockEnd
  0
BLOCK
  5
24
330
23
100
AcDbEntity
  8
0
100
AcDbBlockBegin
  2
*Paper_Space0
 70
     0
 71
     0
 10
0.0
 20
0.0
 30
0.0
  3
*Paper_Space0
  1

  0
ENDBLK
  5
25
330
23
100
AcDbEntity
  8
0
100
AcDbBlockEnd
  0
BLOCK
  5
31
330
30
100
AcDbEntity
  8
0
100
AcDbBlockBegin
  2
KOZU0001
 70
     0
 71
     0
 10
0.0
 20
0.0
 30
0.0
  3
KOZU0001
  1

  0
LINE
  5
33
330
30
100
AcDbEntity
  8
SLD-0
  6
Continuous
 62
   179
100
AcDbLine
 10
0.0
 20
0.0
 30
0.0
 11
6.1834525
 21
-12.722976
 31
0.0
  0
LINE
  5
34
330
30
100
AcDbEntity
  8
SLD-0
  6
Continuous
 62
   179
100
AcDbLine
 10
0.0
 20
0.0
 30
0.0
 11
2.2107551
 21
-2.2610974
 31
0.0
  0
LINE
  5
35
330
30
100
AcDbEntity
  8
SLD-0
  6
Continuous
 62
   179
100
AcDbLine
 10
0.0
 20
0.0
 30
0.0
 11
0.41194563
 21
-3.135331
 31
0.0
  0
LINE
  5
36
330
30
100
AcDbEntity
  8
SLD-0
  6
Continuous
 62
   179
100
AcDbLine
 10
0.0
 20
0.0
 30
0.0
 11
6.1834525
 21
-12.722976
 31
0.0
  0
LINE
  5
37
330
30
100
AcDbEntity
  8
SLD-0
  6
Continuous
 62
   179
100
AcDbLine
 10
6.1834525
 20
-12.722976
 30
0.0
 11
22.917311
 21
-12.722976
 31
0.0
  0
MTEXT
  5
39
330
30
100
AcDbEntity
  8
SLD-0
100
AcDbMText
 10
9.2033091
 20
-9.2682564631
 30
0.0
 40
3.2
 41
0.0
 71
     1
 72
     1
  1
４－Ｍ５
  7
SLDTEXTSTYLE0
 73
     1
 44
1.0
  0
MTEXT
  5
3B
330
30
100
AcDbEntity
  8
SLD-0
100
AcDbMText
 10
9.2033091
 20
-14.8842564631
 30
0.0
 40
3.2
 41
0.0
 71
     1
 72
     1
  1
取付用
  7
SLDTEXTSTYLE1
 73
     1
 44
1.0
  0
ENDBLK
  5
32
330
30
100
AcDbEntity
  8
0
100
AcDbBlockEnd
  0
BLOCK
  5
3D
330
3C
100
AcDbEntity
  8
0
100
AcDbBlockBegin
  2
KOZU0002
 70
     0
 71
     0
 10
0.0
 20
0.0
 30
0.0
  3
KOZU0002
  1

  0
LINE
  5
3F
330
3C
100
AcDbEntity
  8
SLD-0
  6
Continuous
 62
   179
100
AcDbLine
 10
0.0
 20
0.0
 30
0.0
 11
17.799351
 21
46.137792
 31
0.0
  0
LINE
  5
40
330
3C
100
AcDbEntity
  8
SLD-0
  6
Continuous
 62
   179
100
AcDbLine
 10
0.0
 20
0.0
 30
0.0
 11
0.14681396
 21
3.1588677
 31
0.0
  0
LINE
  5
41
330
3C
100
AcDbEntity
  8
SLD-0
  6
Continuous
 62
   179
100
AcDbLine
 10
0.0
 20
0.0
 30
0.0
 11
2.0127718
 21
2.4390058
 31
0.0
  0
LINE
  5
42
330
3C
100
AcDbEntity
  8
SLD-0
  6
Continuous
 62
   179
100
AcDbLine
 10
0.0
 20
0.0
 30
0.0
 11
17.799351
 21
46.137792
 31
0.0
  0
LINE
  5
43
330
3C
100
AcDbEntity
  8
SLD-0
  6
Continuous
 62
   179
100
AcDbLine
 10
17.799356
 20
46.137803
 30
0.0
 11
-38.352099
 21
46.137803
 31
0.0
  0
MTEXT
  5
45
330
3C
100
AcDbEntity
  8
SLD-0
100
AcDbMText
 10
-36.524099
 20
49.5925225369
 30
0.0
 40
3.2
 41
0.0
 71
     1
 72
     1
  1
有接点オートスイッチ（ＳＭＣ）
  7
SLDTEXTSTYLE2
 73
     1
 44
1.0
  0
MTEXT
  5
46
330
3C
100
AcDbEntity
  8
SLD-0
100
AcDbMText
 10
-36.524099
 20
43.9765225369
 30
0.0
 40
3.2
 41
0.0
 71
     1
 72
     1
  1
Ｄ－Ａ９３　２ヶ（オプション）
  7
SLDTEXTSTYLE2
 73
     1
 44
1.0
  0
ENDBLK
  5
3E
330
3C
100
AcDbEntity
  8
0
100
AcDbBlockEnd
  0
BLOCK
  5
48
330
47
100
AcDbEntity
  8
0
100
AcDbBlockBegin
  2
KOZU0003
 70
     0
 71
     0
 10
0.0
 20
0.0
 30
0.0
  3
KOZU0003
  1

  0
LINE
  5
4A
330
47
100
AcDbEntity
  8
SLD-0
  6
Continuous
 62
   179
100
AcDbLine
 10
0.0
 20
0.0
 30
0.0
 11
17.612509
 21
-33.411138
 31
0.0
  0
LINE
  5
4B
330
47
100
AcDbEntity
  8
SLD-0
  6
Continuous
 62
   179
100
AcDbLine
 10
0.0
 20
0.0
 30
0.0
 11
2.2835776
 21
-2.1875267
 31
0.0
  0
LINE
  5
4C
330
47
100
AcDbEntity
  8
SLD-0
  6
Continuous
 62
   179
100
AcDbLine
 10
0.0
 20
0.0
 30
0.0
 11
0.51434611
 21
-3.1201679
 31
0.0
  0
LINE
  5
4D
330
47
100
AcDbEntity
  8
SLD-0
  6
Continuous
 62
   179
100
AcDbLine
 10
0.0
 20
0.0
 30
0.0
 11
17.612509
 21
-33.411138
 31
0.0
  0
LINE
  5
4E
330
47
100
AcDbEntity
  8
SLD-0
  6
Continuous
 62
   179
100
AcDbLine
 10
17.612509
 20
-33.411138
 30
0.0
 11
33.26643
 21
-33.411138
 31
0.0
  0
MTEXT
  5
4F
330
47
100
AcDbEntity
  8
SLD-0
100
AcDbMText
 10
19.552432
 20
-29.9564184631
 30
0.0
 40
3.2
 41
0.0
 71
     1
 72
     1
  1
２－Ｍ５
  7
SLDTEXTSTYLE0
 73
     1
 44
1.0
  0
MTEXT
  5
50
330
47
100
AcDbEntity
  8
SLD-0
100
AcDbMText
 10
19.552432
 20
-35.5724184631
 30
0.0
 40
3.2
 41
0.0
 71
     1
 72
     1
  1
配管用
  7
SLDTEXTSTYLE1
 73
     1
 44
1.0
  0
ENDBLK
  5
49
330
47
100
AcDbEntity
  8
0
100
AcDbBlockEnd
  0
BLOCK
  5
52
330
51
100
AcDbEntity
  8
0
100
AcDbBlockBegin
  2
KOZU0004
 70
     0
 71
     0
 10
0.0
 20
0.0
 30
0.0
  3
KOZU0004
  1

  0
LINE
  5
54
330
51
100
AcDbEntity
  8
SLD-0
  6
Continuous
 62
   179
100
AcDbLine
 10
0.0
 20
0.0
 30
0.0
 11
11.638211
 21
-34.912621
 31
0.0
  0
LINE
  5
55
330
51
100
AcDbEntity
  8
SLD-0
  6
Continuous
 62
   179
100
AcDbLine
 10
0.0
 20
0.0
 30
0.0
 11
1.8974103
 21
-2.5297893
 31
0.0
  0
LINE
  5
56
330
51
100
AcDbEntity
  8
SLD-0
  6
Continuous
 62
   179
100
AcDbLine
 10
0.0
 20
0.0
 30
0.0
 11
0.0000547171
 21
-3.1622776
 31
0.0
  0
LINE
  5
57
330
51
100
AcDbEntity
  8
SLD-0
  6
Continuous
 62
   179
100
AcDbLine
 10
0.0
 20
0.0
 30
0.0
 11
11.638211
 21
-34.912621
 31
0.0
  0
LINE
  5
58
330
51
100
AcDbEntity
  8
SLD-0
  6
Continuous
 62
   179
100
AcDbLine
 10
11.638211
 20
-34.912621
 30
0.0
 11
66.710828
 21
-34.912616
 31
0.0
  0
MTEXT
  5
59
330
51
100
AcDbEntity
  8
SLD-0
100
AcDbMText
 10
14.596828
 20
-31.4578964631
 30
0.0
 40
3.2
 41
0.0
 71
     1
 72
     1
  1
４－Ｍ６深１２（裏側ヨリ加工）
  7
SLDTEXTSTYLE2
 73
     1
 44
1.0
  0
INSERT
  5
63
330
51
100
AcDbEntity
  8
SLD-0
 62
     7
100
AcDbBlockReference
  2
SW_NOTE_0
 10
14.596828
 20
-41.3641714463
 30
0.0
  0
ENDBLK
  5
53
330
51
100
AcDbEntity
  8
0
100
AcDbBlockEnd
  0
BLOCK
  5
5B
330
5A
100
AcDbEntity
  8
0
100
AcDbBlockBegin
  2
SW_NOTE_0
 70
     0
 71
     0
 10
0.0
 20
0.0
 30
0.0
  3
SW_NOTE_0
  1

  0
MTEXT
  5
5E
330
5A
100
AcDbEntity
  8
SLD-0
100
AcDbMText
 10
0.0
 20
4.2902749832
 30
0.0
 40
3.2
 41
0.0
 71
     1
 72
     1
  1
４－
  7
SLDTEXTSTYLE3
 73
     1
 44
1.0
  0
MTEXT
  5
5F
330
5A
100
AcDbEntity
  8
SLD-0
100
AcDbMText
 10
10.6177777052
 20
4.2902749832
 30
0.0
 40
3.2
 41
0.0
 71
     1
 72
     1
  1
%%c
  7
SLDTEXTSTYLE3
 73
     1
 44
1.0
  0
MTEXT
  5
60
330
5A
100
AcDbEntity
  8
SLD-0
100
AcDbMText
 10
15.8026665449
 20
4.2902749832
 30
0.0
 40
3.2
 41
0.0
 71
     1
 72
     1
  1
５．２　
  7
SLDTEXTSTYLE3
 73
     1
 44
1.0
  0
MTEXT
  5
61
330
5A
100
AcDbEntity
  8
SLD-0
100
AcDbMText
 10
32.7982231975
 20
4.2902749832
 30
0.0
 40
3.2
 41
0.0
 71
     1
 72
     1
  1
%%c
  7
SLDTEXTSTYLE3
 73
     1
 44
1.0
  0
MTEXT
  5
62
330
5A
100
AcDbEntity
  8
SLD-0
100
AcDbMText
 10
37.9831120372
 20
4.2902749832
 30
0.0
 40
3.2
 41
0.0
 71
     1
 72
     1
  1
９ザグリ深５．５
  7
SLDTEXTSTYLE3
 73
     1
 44
1.0
  0
ENDBLK
  5
5C
330
5A
100
AcDbEntity
  8
0
100
AcDbBlockEnd
  0
BLOCK
  5
65
330
64
100
AcDbEntity
  8
0
100
AcDbBlockBegin
  2
KOZU0005
 70
     0
 71
     0
 10
0.0
 20
0.0
 30
0.0
  3
KOZU0005
  1

  0
LINE
  5
67
330
64
100
AcDbEntity
  8
SLD-0
  6
Continuous
 62
   179
100
AcDbLine
 10
0.0
 20
0.0
 30
0.0
 11
8.24693
 21
-14.81729
 31
0.0
  0
LINE
  5
68
330
64
100
AcDbEntity
  8
SLD-0
  6
Continuous
 62
   179
100
AcDbLine
 10
0.0
 20
0.0
 30
0.0
 11
2.3327489
 21
-2.1350134
 31
0.0
  0
LINE
  5
69
330
64
100
AcDbEntity
  8
SLD-0
  6
Continuous
 62
   179
100
AcDbLine
 10
0.0
 20
0.0
 30
0.0
 11
0.58519103
 21
-3.1076601
 31
0.0
  0
LINE
  5
6A
330
64
100
AcDbEntity
  8
SLD-0
  6
Continuous
 62
   179
100
AcDbLine
 10
0.0
 20
0.0
 30
0.0
 11
8.24693
 21
-14.81729
 31
0.0
  0
LINE
  5
6B
330
64
100
AcDbEntity
  8
SLD-0
  6
Continuous
 62
   179
100
AcDbLine
 10
8.24693
 20
-14.81729
 30
0.0
 11
25.782599
 21
-14.817288
 31
0.0
  0
MTEXT
  5
6C
330
64
100
AcDbEntity
  8
SLD-0
100
AcDbMText
 10
12.068601
 20
-11.3625684631
 30
0.0
 40
3.2
 41
0.0
 71
     1
 72
     1
  1
２－Ｍ５
  7
SLDTEXTSTYLE0
 73
     1
 44
1.0
  0
MTEXT
  5
6D
330
64
100
AcDbEntity
  8
SLD-0
100
AcDbMText
 10
12.068601
 20
-16.9785684631
 30
0.0
 40
3.2
 41
0.0
 71
     1
 72
     1
  1
配管用
  7
SLDTEXTSTYLE1
 73
     1
 44
1.0
  0
ENDBLK
  5
66
330
64
100
AcDbEntity
  8
0
100
AcDbBlockEnd
  0
BLOCK
  5
6F
330
6E
100
AcDbEntity
  8
0
100
AcDbBlockBegin
  2
KOZU0006
 70
     0
 71
     0
 10
0.0
 20
0.0
 30
0.0
  3
KOZU0006
  1

  0
LINE
  5
71
330
6E
100
AcDbEntity
  8
SLD-0
  6
Continuous
 62
   179
100
AcDbLine
 10
0.0
 20
0.0
 30
0.0
 11
6.5482548
 21
-17.371383
 31
0.0
  0
LINE
  5
72
330
6E
100
AcDbEntity
  8
SLD-0
  6
Continuous
 62
   179
100
AcDbLine
 10
0.0
 20
0.0
 30
0.0
 11
1.9939097
 21
-2.4544498
 31
0.0
  0
LINE
  5
73
330
6E
100
AcDbEntity
  8
SLD-0
  6
Continuous
 62
   179
100
AcDbLine
 10
0.0
 20
0.0
 30
0.0
 11
0.12245783
 21
-3.1599057
 31
0.0
  0
LINE
  5
74
330
6E
100
AcDbEntity
  8
SLD-0
  6
Continuous
 62
   179
100
AcDbLine
 10
0.0
 20
0.0
 30
0.0
 11
6.5482548
 21
-17.371383
 31
0.0
  0
LINE
  5
75
330
6E
100
AcDbEntity
  8
SLD-0
  6
Continuous
 62
   179
100
AcDbLine
 10
6.5482409
 20
-17.371394
 30
0.0
 11
23.533165
 21
-17.371394
 31
0.0
  0
MTEXT
  5
76
330
6E
100
AcDbEntity
  8
SLD-0
100
AcDbMText
 10
9.8191439
 20
-13.9166744631
 30
0.0
 40
3.2
 41
0.0
 71
     1
 72
     1
  1
４－Ｍ５
  7
SLDTEXTSTYLE0
 73
     1
 44
1.0
  0
ENDBLK
  5
70
330
6E
100
AcDbEntity
  8
0
100
AcDbBlockEnd
  0
BLOCK
  5
78
330
77
100
AcDbEntity
  8
0
100
AcDbBlockBegin
  2
KOZU0007
 70
     0
 71
     0
 10
0.0
 20
0.0
 30
0.0
  3
KOZU0007
  1

  0
LINE
  5
7A
330
77
100
AcDbEntity
  8
SLD-0
  6
Continuous
 62
   179
100
AcDbLine
 10
0.0
 20
0.0
 30
0.0
 11
7.4672774
 21
16.86229
 31
0.0
  0
LINE
  5
7B
330
77
100
AcDbEntity
  8
SLD-0
  6
Continuous
 62
   179
100
AcDbLine
 10
0.0
 20
0.0
 30
0.0
 11
0.30038094
 21
3.1479789
 31
0.0
  0
LINE
  5
7C
330
77
100
AcDbEntity
  8
SLD-0
  6
Continuous
 62
   179
100
AcDbLine
 10
0.0
 20
0.0
 30
0.0
 11
2.1290921
 21
2.3381545
 31
0.0
  0
LINE
  5
7D
330
77
100
AcDbEntity
  8
SLD-0
  6
Continuous
 62
   179
100
AcDbLine
 10
0.0
 20
0.0
 30
0.0
 11
7.4672774
 21
16.86229
 31
0.0
  0
LINE
  5
7E
330
77
100
AcDbEntity
  8
SLD-0
  6
Continuous
 62
   179
100
AcDbLine
 10
7.4672774
 20
16.86229
 30
0.0
 11
24.561055
 21
16.862287
 31
0.0
  0
MTEXT
  5
7F
330
77
100
AcDbEntity
  8
SLD-0
100
AcDbMText
 10
10.847065
 20
20.3170065369
 30
0.0
 40
3.2
 41
0.0
 71
     1
 72
     1
  1
４－Ｍ５
  7
SLDTEXTSTYLE0
 73
     1
 44
1.0
  0
ENDBLK
  5
79
330
77
100
AcDbEntity
  8
0
100
AcDbBlockEnd
  0
ENDSEC
  0
SECTION
  2
ENTITIES
  0
LINE
  5
80
330
1F
100
AcDbEntity
  8
SLD-0
  6
Continuous
 62
   179
100
AcDbLine
 10
326.342453
 20
46.551857
 30
0.0
 11
326.342453
 21
58.551849
 31
0.0
  0
LINE
  5
81
330
1F
100
AcDbEntity
  8
SLD-0
  6
Continuous
 62
   179
100
AcDbLine
 10
104.8425
 20
46.551857
 30
0.0
 11
111.54245
 21
46.551857
 31
0.0
  0
LINE
  5
82
330
1F
100
AcDbEntity
  8
SLD-0
  6
Continuous
 62
   179
100
AcDbLine
 10
104.8425
 20
58.551849
 30
0.0
 11
111.54245
 21
58.551849
 31
0.0
  0
LINE
  5
83
330
1F
100
AcDbEntity
  8
SLD-0
  6
Continuous
 62
   179
100
AcDbLine
 10
275.72366
 20
64.551846
 30
0.0
 11
278.03306
 21
68.551848
 31
0.0
  0
LINE
  5
84
330
1F
100
AcDbEntity
  8
SLD-0
  6
CENTER
 62
   179
100
AcDbLine
 10
273.90244
 20
64.551857
 30
0.0
 11
286.78244
 21
64.551857
 31
0.0
  0
LINE
  5
85
330
1F
100
AcDbEntity
  8
SLD-0
  6
CENTER
 62
   179
100
AcDbLine
 10
21.54053
 20
52.551857
 30
0.0
 11
329.29274
 21
52.551857
 31
0.0
  0
LINE
  5
86
330
1F
100
AcDbEntity
  8
SLD-0
  6
Continuous
 62
   179
100
AcDbLine
 10
94.8425
 20
39.551857
 30
0.0
 11
104.8425
 21
39.551857
 31
0.0
  0
LINE
  5
87
330
1F
100
AcDbEntity
  8
SLD-0
  6
Continuous
 62
   179
100
AcDbLine
 10
94.8425
 20
65.551849
 30
0.0
 11
104.8425
 21
65.551849
 31
0.0
  0
LINE
  5
88
330
1F
100
AcDbEntity
  8
SLD-0
  6
Continuous
 62
   179
100
AcDbLine
 10
94.8425
 20
65.551849
 30
0.0
 11
94.8425
 21
39.551857
 31
0.0
  0
LINE
  5
89
330
1F
100
AcDbEntity
  8
SLD-0
  6
Continuous
 62
   179
100
AcDbLine
 10
104.8425
 20
65.551849
 30
0.0
 11
104.8425
 21
39.551857
 31
0.0
  0
LINE
  5
8A
330
1F
100
AcDbEntity
  8
SLD-0
  6
CENTER
 62
   179
100
AcDbLine
 10
251.84244
 20
45.59185
 30
0.0
 11
251.84244
 21
35.011856
 31
0.0
  0
LINE
  5
8B
330
1F
100
AcDbEntity
  8
SLD-0
  6
CENTER
 62
   179
100
AcDbLine
 10
116.84244
 20
45.59185
 30
0.0
 11
116.84244
 21
35.011856
 31
0.0
  0
LINE
  5
8C
330
1F
100
AcDbEntity
  8
SLD-0
  6
CENTER
 62
   179
100
AcDbLine
 10
111.80246
 20
40.551857
 30
0.0
 11
121.88248
 21
40.551857
 31
0.0
  0
LINE
  5
8D
330
1F
100
AcDbEntity
  8
SLD-0
  6
CENTER
 62
   179
100
AcDbLine
 10
246.80246
 20
40.551857
 30
0.0
 11
256.88248
 21
40.551857
 31
0.0
  0
LINE
  5
8E
330
1F
100
AcDbEntity
  8
SLD-0
  6
Continuous
 62
   179
100
AcDbLine
 10
282.65186
 20
60.551846
 30
0.0
 11
284.96127
 21
64.551847
 31
0.0
  0
LINE
  5
8F
330
1F
100
AcDbEntity
  8
SLD-0
  6
Continuous
 62
   179
100
AcDbLine
 10
275.72366
 20
64.551871
 30
0.0
 11
278.03306
 21
60.551869
 31
0.0
  0
LINE
  5
90
330
1F
100
AcDbEntity
  8
SLD-0
  6
Continuous
 62
   179
100
AcDbLine
 10
278.03305
 20
60.551857
 30
0.0
 11
282.65189
 21
60.551857
 31
0.0
  0
LINE
  5
91
330
1F
100
AcDbEntity
  8
SLD-0
  6
Continuous
 62
   179
100
AcDbLine
 10
278.03305
 20
68.551857
 30
0.0
 11
282.65189
 21
68.551857
 31
0.0
  0
LINE
  5
92
330
1F
100
AcDbEntity
  8
SLD-0
  6
Continuous
 62
   179
100
AcDbLine
 10
282.65186
 20
68.551871
 30
0.0
 11
284.96127
 21
64.551869
 31
0.0
  0
LINE
  5
93
330
1F
100
AcDbEntity
  8
SLD-0
  6
CENTER
 62
   179
100
AcDbLine
 10
280.34244
 20
70.991852
 30
0.0
 11
280.34244
 21
58.111855
 31
0.0
  0
LINE
  5
94
330
1F
100
AcDbEntity
  8
SLD-0
  6
Continuous
 62
   179
100
AcDbLine
 10
130.34244
 20
57.551857
 30
0.0
 11
170.34244
 21
57.551857
 31
0.0
  0
LINE
  5
95
330
1F
100
AcDbEntity
  8
SLD-0
  6
Continuous
 62
   179
100
AcDbLine
 10
120.22368
 20
64.551851
 30
0.0
 11
122.53308
 21
68.551853
 31
0.0
  0
LINE
  5
96
330
1F
100
AcDbEntity
  8
SLD-0
  6
CENTER
 62
   179
100
AcDbLine
 10
118.40244
 20
64.551857
 30
0.0
 11
131.28244
 21
64.551857
 31
0.0
  0
LINE
  5
97
330
1F
100
AcDbEntity
  8
SLD-0
  6
Continuous
 62
   179
100
AcDbLine
 10
122.53305
 20
68.551857
 30
0.0
 11
127.15189
 21
68.551857
 31
0.0
  0
LINE
  5
98
330
1F
100
AcDbEntity
  8
SLD-0
  6
Continuous
 62
   179
100
AcDbLine
 10
122.53305
 20
60.551857
 30
0.0
 11
127.15189
 21
60.551857
 31
0.0
  0
LINE
  5
99
330
1F
100
AcDbEntity
  8
SLD-0
  6
Continuous
 62
   179
100
AcDbLine
 10
130.34244
 20
47.551857
 30
0.0
 11
170.34244
 21
47.551857
 31
0.0
  0
LINE
  5
9A
330
1F
100
AcDbEntity
  8
SLD-0
  6
Continuous
 62
   179
100
AcDbLine
 10
120.22363
 20
64.551841
 30
0.0
 11
122.53303
 21
60.551838
 31
0.0
  0
LINE
  5
9B
330
1F
100
AcDbEntity
  8
SLD-0
  6
Continuous
 62
   179
100
AcDbLine
 10
127.15188
 20
60.551851
 30
0.0
 11
129.46129
 21
64.551853
 31
0.0
  0
LINE
  5
9C
330
1F
100
AcDbEntity
  8
SLD-0
  6
Continuous
 62
   179
100
AcDbLine
 10
130.34244
 20
57.551857
 30
0.0
 11
130.34244
 21
47.551857
 31
0.0
  0
LINE
  5
9D
330
1F
100
AcDbEntity
  8
SLD-0
  6
Continuous
 62
   179
100
AcDbLine
 10
298.84244
 20
70.051849
 30
0.0
 11
298.84244
 21
35.051857
 31
0.0
  0
LINE
  5
9E
330
1F
100
AcDbEntity
  8
SLD-0
  6
Continuous
 62
   179
100
AcDbLine
 10
111.84244
 20
70.051849
 30
0.0
 11
111.84244
 21
35.051857
 31
0.0
  0
LINE
  5
9F
330
1F
100
AcDbEntity
  8
SLD-0
  6
Continuous
 62
   179
100
AcDbLine
 10
111.84244
 20
35.051857
 30
0.0
 11
298.84244
 21
35.051857
 31
0.0
  0
LINE
  5
A0
330
1F
100
AcDbEntity
  8
SLD-0
  6
HIDDEN
 62
   179
100
AcDbLine
 10
298.84244
 20
65.051849
 30
0.0
 11
298.84244
 21
60.051849
 31
0.0
  0
LINE
  5
A1
330
1F
100
AcDbEntity
  8
SLD-0
  6
Continuous
 62
   179
100
AcDbLine
 10
111.84244
 20
70.051849
 30
0.0
 11
298.84244
 21
70.051849
 31
0.0
  0
LINE
  5
A2
330
1F
100
AcDbEntity
  8
SLD-0
  6
Continuous
 62
   179
100
AcDbLine
 10
170.34244
 20
57.551857
 30
0.0
 11
170.34244
 21
47.551857
 31
0.0
  0
LINE
  5
A3
330
1F
100
AcDbEntity
  8
SLD-0
  6
CENTER
 62
   179
100
AcDbLine
 10
280.34244
 20
70.091858
 30
0.0
 11
280.34244
 21
59.511856
 31
0.0
  0
LINE
  5
A4
330
1F
100
AcDbEntity
  8
SLD-0
  6
CENTER
 62
   179
100
AcDbLine
 10
124.84244
 20
70.091858
 30
0.0
 11
124.84244
 21
59.511856
 31
0.0
  0
LINE
  5
A5
330
1F
100
AcDbEntity
  8
SLD-0
  6
CENTER
 62
   179
100
AcDbLine
 10
119.80246
 20
64.551857
 30
0.0
 11
129.88248
 21
64.551857
 31
0.0
  0
LINE
  5
A6
330
1F
100
AcDbEntity
  8
SLD-0
  6
CENTER
 62
   179
100
AcDbLine
 10
275.30246
 20
64.551857
 30
0.0
 11
285.38248
 21
64.551857
 31
0.0
  0
LINE
  5
A7
330
1F
100
AcDbEntity
  8
SLD-0
  6
CENTER
 62
   179
100
AcDbLine
 10
124.84244
 20
70.991852
 30
0.0
 11
124.84244
 21
58.111855
 31
0.0
  0
LINE
  5
A8
330
1F
100
AcDbEntity
  8
SLD-0
  6
Continuous
 62
   179
100
AcDbLine
 10
111.84244
 20
68.051857
 30
0.0
 11
298.84244
 21
68.051857
 31
0.0
  0
LINE
  5
A9
330
1F
100
AcDbEntity
  8
SLD-0
  6
Continuous
 62
   179
100
AcDbLine
 10
111.84244
 20
37.051857
 30
0.0
 11
298.84244
 21
37.051857
 31
0.0
  0
LINE
  5
AA
330
1F
100
AcDbEntity
  8
SLD-0
  6
Continuous
 62
   179
100
AcDbLine
 10
94.8425
 20
63.551849
 30
0.0
 11
104.8425
 21
63.551849
 31
0.0
  0
LINE
  5
AB
330
1F
100
AcDbEntity
  8
SLD-0
  6
Continuous
 62
   179
100
AcDbLine
 10
94.8425
 20
41.551857
 30
0.0
 11
104.8425
 21
41.551857
 31
0.0
  0
LINE
  5
AC
330
1F
100
AcDbEntity
  8
SLD-0
  6
Continuous
 62
   179
100
AcDbLine
 10
127.15183
 20
68.551841
 30
0.0
 11
129.46123
 21
64.551839
 31
0.0
  0
LINE
  5
AD
330
1F
100
AcDbEntity
  8
SLD-0
  6
Continuous
 62
   179
100
AcDbLine
 10
298.84244
 20
58.551849
 30
0.0
 11
326.342453
 21
58.551849
 31
0.0
  0
LINE
  5
AE
330
1F
100
AcDbEntity
  8
SLD-0
  6
Continuous
 62
   179
100
AcDbLine
 10
326.342453
 20
46.551857
 30
0.0
 11
298.84244
 21
46.551857
 31
0.0
  0
LINE
  5
AF
330
1F
100
AcDbEntity
  8
SLD-0
  6
Continuous
 62
   179
100
AcDbLine
 10
104.84247
 20
249.81903
 30
0.0
 11
111.54245
 21
249.81903
 31
0.0
  0
LINE
  5
B0
330
1F
100
AcDbEntity
  8
SLD-0
  6
Continuous
 62
   179
100
AcDbLine
 10
104.84247
 20
237.81903
 30
0.0
 11
111.54245
 21
237.81903
 31
0.0
  0
LINE
  5
B1
330
1F
100
AcDbEntity
  8
SLD-0
  6
Continuous
 62
   179
100
AcDbLine
 10
298.84244
 20
249.81903
 30
0.0
 11
326.342438
 21
249.81903
 31
0.0
  0
LINE
  5
B2
330
1F
100
AcDbEntity
  8
SLD-0
  6
CENTER
 62
   179
100
AcDbLine
 10
94.84247
 20
243.81903
 30
0.0
 11
334.428703
 21
243.81903
 31
0.0
  0
LINE
  5
B3
330
1F
100
AcDbEntity
  8
SLD-0
  6
Continuous
 62
   179
100
AcDbLine
 10
94.84247
 20
256.81903
 30
0.0
 11
104.84247
 21
256.81903
 31
0.0
  0
LINE
  5
B4
330
1F
100
AcDbEntity
  8
SLD-0
  6
Continuous
 62
   179
100
AcDbLine
 10
94.84247
 20
230.81903
 30
0.0
 11
104.84247
 21
230.81903
 31
0.0
  0
LINE
  5
B5
330
1F
100
AcDbEntity
  8
SLD-0
  6
Continuous
 62
   179
100
AcDbLine
 10
94.84247
 20
230.81903
 30
0.0
 11
94.84247
 21
256.81903
 31
0.0
  0
LINE
  5
B6
330
1F
100
AcDbEntity
  8
SLD-0
  6
Continuous
 62
   179
100
AcDbLine
 10
104.84247
 20
230.81903
 30
0.0
 11
104.84247
 21
256.81903
 31
0.0
  0
LINE
  5
B7
330
1F
100
AcDbEntity
  8
SLD-0
  6
CENTER
 62
   179
100
AcDbLine
 10
251.84244
 20
226.27905
 30
0.0
 11
251.84244
 21
236.85904
 31
0.0
  0
LINE
  5
B8
330
1F
100
AcDbEntity
  8
SLD-0
  6
CENTER
 62
   179
100
AcDbLine
 10
116.84244
 20
226.27905
 30
0.0
 11
116.84244
 21
236.85904
 31
0.0
  0
LINE
  5
B9
330
1F
100
AcDbEntity
  8
SLD-0
  6
CENTER
 62
   179
100
AcDbLine
 10
246.80246
 20
231.81903
 30
0.0
 11
256.88245
 21
231.81903
 31
0.0
  0
LINE
  5
BA
330
1F
100
AcDbEntity
  8
SLD-0
  6
CENTER
 62
   179
100
AcDbLine
 10
111.80246
 20
231.81903
 30
0.0
 11
121.88245
 21
231.81903
 31
0.0
  0
LINE
  5
BB
330
1F
100
AcDbEntity
  8
SLD-0
  6
CENTER
 62
   179
100
AcDbLine
 10
251.84244
 20
250.77905
 30
0.0
 11
251.84244
 21
261.35904
 31
0.0
  0
LINE
  5
BC
330
1F
100
AcDbEntity
  8
SLD-0
  6
CENTER
 62
   179
100
AcDbLine
 10
116.84244
 20
250.77905
 30
0.0
 11
116.84244
 21
261.35904
 31
0.0
  0
LINE
  5
BD
330
1F
100
AcDbEntity
  8
SLD-0
  6
CENTER
 62
   179
100
AcDbLine
 10
111.80246
 20
255.81903
 30
0.0
 11
121.88245
 21
255.81903
 31
0.0
  0
LINE
  5
BE
330
1F
100
AcDbEntity
  8
SLD-0
  6
CENTER
 62
   179
100
AcDbLine
 10
246.80246
 20
255.81903
 30
0.0
 11
256.88245
 21
255.81903
 31
0.0
  0
LINE
  5
BF
330
1F
100
AcDbEntity
  8
SLD-0
  6
Continuous
 62
   179
100
AcDbLine
 10
298.84244
 20
226.31903
 30
0.0
 11
298.84244
 21
261.31906
 31
0.0
  0
LINE
  5
C0
330
1F
100
AcDbEntity
  8
SLD-0
  6
Continuous
 62
   179
100
AcDbLine
 10
111.84244
 20
226.31903
 30
0.0
 11
111.84244
 21
261.31906
 31
0.0
  0
LINE
  5
C1
330
1F
100
AcDbEntity
  8
SLD-0
  6
Continuous
 62
   179
100
AcDbLine
 10
111.84244
 20
261.31906
 30
0.0
 11
298.84244
 21
261.31906
 31
0.0
  0
LINE
  5
C2
330
1F
100
AcDbEntity
  8
SLD-0
  6
Continuous
 62
   179
100
AcDbLine
 10
111.84244
 20
226.31903
 30
0.0
 11
298.84244
 21
226.31903
 31
0.0
  0
LINE
  5
C3
330
1F
100
AcDbEntity
  8
SLD-0
  6
HIDDEN
 62
   179
100
AcDbLine
 10
298.84244
 20
231.31903
 30
0.0
 11
298.84244
 21
236.31903
 31
0.0
  0
LINE
  5
C4
330
1F
100
AcDbEntity
  8
SLD-0
  6
PHANTOM
 62
   179
100
AcDbLine
 10
24.8425
 20
41.551861
 30
0.0
 11
34.8425
 21
41.551861
 31
0.0
  0
LINE
  5
C5
330
1F
100
AcDbEntity
  8
SLD-0
  6
PHANTOM
 62
   179
100
AcDbLine
 10
24.8425
 20
63.551853
 30
0.0
 11
34.8425
 21
63.551853
 31
0.0
  0
LINE
  5
C6
330
1F
100
AcDbEntity
  8
SLD-0
  6
PHANTOM
 62
   179
100
AcDbLine
 10
34.8425
 20
65.551846
 30
0.0
 11
34.8425
 21
39.551861
 31
0.0
  0
LINE
  5
C7
330
1F
100
AcDbEntity
  8
SLD-0
  6
PHANTOM
 62
   179
100
AcDbLine
 10
24.8425
 20
65.551846
 30
0.0
 11
24.8425
 21
39.551861
 31
0.0
  0
LINE
  5
C8
330
1F
100
AcDbEntity
  8
SLD-0
  6
PHANTOM
 62
   179
100
AcDbLine
 10
24.8425
 20
65.551846
 30
0.0
 11
34.8425
 21
65.551846
 31
0.0
  0
LINE
  5
C9
330
1F
100
AcDbEntity
  8
SLD-0
  6
PHANTOM
 62
   179
100
AcDbLine
 10
24.8425
 20
39.551861
 30
0.0
 11
34.8425
 21
39.551861
 31
0.0
  0
LINE
  5
CA
330
1F
100
AcDbEntity
  8
SLD-0
  6
PHANTOM
 62
   179
100
AcDbLine
 10
34.8425
 20
46.551861
 30
0.0
 11
59.84097
 21
46.551861
 31
0.0
  0
LINE
  5
CB
330
1F
100
AcDbEntity
  8
SLD-0
  6
PHANTOM
 62
   179
100
AcDbLine
 10
34.8425
 20
58.551853
 30
0.0
 11
65.94269
 21
58.551853
 31
0.0
  0
LINE
  5
CC
330
1F
100
AcDbEntity
  8
SLD-0
  6
Continuous
 62
   179
100
AcDbLine
 10
111.84244
 20
259.31906
 30
0.0
 11
298.84244
 21
259.31906
 31
0.0
  0
LINE
  5
CD
330
1F
100
AcDbEntity
  8
SLD-0
  6
Continuous
 62
   179
100
AcDbLine
 10
111.84244
 20
228.31903
 30
0.0
 11
298.84244
 21
228.31903
 31
0.0
  0
LINE
  5
CE
330
1F
100
AcDbEntity
  8
SLD-0
  6
Continuous
 62
   179
100
AcDbLine
 10
94.84247
 20
254.81903
 30
0.0
 11
104.84247
 21
254.81903
 31
0.0
  0
LINE
  5
CF
330
1F
100
AcDbEntity
  8
SLD-0
  6
Continuous
 62
   179
100
AcDbLine
 10
94.84247
 20
232.81903
 30
0.0
 11
104.84247
 21
232.81903
 31
0.0
  0
LINE
  5
D0
330
1F
100
AcDbEntity
  8
SLD-0
  6
Continuous
 62
   179
100
AcDbLine
 10
326.342438
 20
237.81903
 30
0.0
 11
298.84244
 21
237.81903
 31
0.0
  0
LINE
  5
D1
330
1F
100
AcDbEntity
  8
SLD-0
  6
Continuous
 62
   179
100
AcDbLine
 10
379.240324
 20
146.10188
 30
0.0
 11
378.051115
 21
146.10188
 31
0.0
  0
LINE
  5
D2
330
1F
100
AcDbEntity
  8
SLD-0
  6
CENTER
 62
   179
100
AcDbLine
 10
376.540312
 20
151.85573
 30
0.0
 11
376.540312
 21
144.00188
 31
0.0
  0
LINE
  5
D3
330
1F
100
AcDbEntity
  8
SLD-0
  6
Continuous
 62
   179
100
AcDbLine
 10
379.540312
 20
154.70457
 30
0.0
 11
379.540312
 21
149.40459
 31
0.0
  0
LINE
  5
D4
330
1F
100
AcDbEntity
  8
SLD-0
  6
Continuous
 62
   179
100
AcDbLine
 10
379.240324
 20
149.10188
 30
0.0
 11
378.051115
 21
149.10188
 31
0.0
  0
LINE
  5
D5
330
1F
100
AcDbEntity
  8
SLD-0
  6
Continuous
 62
   179
100
AcDbLine
 10
379.5403142487
 20
159.0518398051
 30
0.0
 11
379.5403142487
 21
158.2991398051
 31
0.0
  0
LINE
  5
D6
330
1F
100
AcDbEntity
  8
SLD-0
  6
Continuous
 62
   179
100
AcDbLine
 10
347.54031
 20
154.70457
 30
0.0
 11
347.54031
 21
149.39919
 31
0.0
  0
LINE
  5
D7
330
1F
100
AcDbEntity
  8
SLD-0
  6
Continuous
 62
   179
100
AcDbLine
 10
347.54031
 20
145.804572
 30
0.0
 11
347.54031
 21
145.051872
 31
0.0
  0
LINE
  5
D8
330
1F
100
AcDbEntity
  8
SLD-0
  6
Continuous
 62
   179
100
AcDbLine
 10
346.04031
 20
144.051872
 30
0.0
 11
346.54031
 21
144.051872
 31
0.0
  0
LINE
  5
D9
330
1F
100
AcDbEntity
  8
SLD-0
  6
Continuous
 62
   179
100
AcDbLine
 10
347.54031
 20
159.05188
 30
0.0
 11
347.54031
 21
158.29918
 31
0.0
  0
LINE
  5
DA
330
1F
100
AcDbEntity
  8
SLD-0
  6
Continuous
 62
   179
100
AcDbLine
 10
381.0403108666
 20
144.0518814771
 30
0.0
 11
380.5403108666
 21
144.0518814771
 31
0.0
  0
LINE
  5
DB
330
1F
100
AcDbEntity
  8
SLD-0
  6
Continuous
 62
   179
100
AcDbLine
 10
347.840298
 20
149.10188
 30
0.0
 11
349.029507
 21
149.10188
 31
0.0
  0
LINE
  5
DC
330
1F
100
AcDbEntity
  8
SLD-0
  6
Continuous
 62
   179
100
AcDbLine
 10
347.54031
 20
154.70457
 30
0.0
 11
347.54031
 21
149.40459
 31
0.0
  0
LINE
  5
DD
330
1F
100
AcDbEntity
  8
SLD-0
  6
CENTER
 62
   179
100
AcDbLine
 10
350.54031
 20
151.85573
 30
0.0
 11
350.54031
 21
144.00188
 31
0.0
  0
LINE
  5
DE
330
1F
100
AcDbEntity
  8
SLD-0
  6
Continuous
 62
   179
100
AcDbLine
 10
347.840298
 20
146.10188
 30
0.0
 11
349.029507
 21
146.10188
 31
0.0
  0
LINE
  5
DF
330
1F
100
AcDbEntity
  8
SLD-0
  6
Continuous
 62
   179
100
AcDbLine
 10
346.04031
 20
160.05188
 30
0.0
 11
346.54031
 21
160.05188
 31
0.0
  0
LINE
  5
E0
330
1F
100
AcDbEntity
  8
SLD-0
  6
Continuous
 62
   179
100
AcDbLine
 10
347.840298
 20
158.00188
 30
0.0
 11
349.029507
 21
158.00188
 31
0.0
  0
LINE
  5
E1
330
1F
100
AcDbEntity
  8
SLD-0
  6
CENTER
 62
   179
100
AcDbLine
 10
350.54031
 20
152.24803
 30
0.0
 11
350.54031
 21
160.10188
 31
0.0
  0
LINE
  5
E2
330
1F
100
AcDbEntity
  8
SLD-0
  6
CENTER
 62
   179
100
AcDbLine
 10
346.04031
 20
156.50188
 30
0.0
 11
354.140316
 21
156.50188
 31
0.0
  0
LINE
  5
E3
330
1F
100
AcDbEntity
  8
SLD-0
  6
Continuous
 62
   179
100
AcDbLine
 10
347.840298
 20
155.00188
 30
0.0
 11
349.029507
 21
155.00188
 31
0.0
  0
LINE
  5
E4
330
1F
100
AcDbEntity
  8
SLD-0
  6
CENTER
 62
   179
100
AcDbLine
 10
346.04031
 20
147.60188
 30
0.0
 11
354.140316
 21
147.60188
 31
0.0
  0
LINE
  5
E5
330
1F
100
AcDbEntity
  8
SLD-0
  6
Continuous
 62
   179
100
AcDbLine
 10
379.540312
 20
154.70457
 30
0.0
 11
379.540312
 21
149.39919
 31
0.0
  0
LINE
  5
E6
330
1F
100
AcDbEntity
  8
SLD-0
  6
Continuous
 62
   179
100
AcDbLine
 10
346.04031
 20
144.051872
 30
0.0
 11
346.04031
 21
133.215952
 31
0.0
  0
LINE
  5
E7
330
1F
100
AcDbEntity
  8
SLD-0
  6
CENTER
 62
   179
100
AcDbLine
 10
54.77274
 20
115.01186
 30
0.0
 11
54.77274
 21
125.09187
 31
0.0
  0
LINE
  5
E8
330
1F
100
AcDbEntity
  8
SLD-0
  6
CENTER
 62
   179
100
AcDbLine
 10
38.77274
 20
115.01186
 30
0.0
 11
38.77274
 21
125.09187
 31
0.0
  0
LINE
  5
E9
330
1F
100
AcDbEntity
  8
SLD-0
  6
CENTER
 62
   179
100
AcDbLine
 10
38.77274
 20
189.09187
 30
0.0
 11
38.77274
 21
179.01187
 31
0.0
  0
LINE
  5
EA
330
1F
100
AcDbEntity
  8
SLD-0
  6
CENTER
 62
   179
100
AcDbLine
 10
54.77274
 20
189.09187
 30
0.0
 11
54.77274
 21
179.01187
 31
0.0
  0
LINE
  5
EB
330
1F
100
AcDbEntity
  8
SLD-0
  6
CENTER
 62
   179
100
AcDbLine
 10
49.73276
 20
184.05188
 30
0.0
 11
59.81271
 21
184.05188
 31
0.0
  0
LINE
  5
EC
330
1F
100
AcDbEntity
  8
SLD-0
  6
CENTER
 62
   179
100
AcDbLine
 10
43.81271
 20
120.05186
 30
0.0
 11
33.73276
 21
120.05186
 31
0.0
  0
LINE
  5
ED
330
1F
100
AcDbEntity
  8
SLD-0
  6
CENTER
 62
   179
100
AcDbLine
 10
49.73276
 20
120.05186
 30
0.0
 11
59.81271
 21
120.05186
 31
0.0
  0
LINE
  5
EE
330
1F
100
AcDbEntity
  8
SLD-0
  6
CENTER
 62
   179
100
AcDbLine
 10
43.81271
 20
184.05188
 30
0.0
 11
33.73276
 21
184.05188
 31
0.0
  0
LINE
  5
EF
330
1F
100
AcDbEntity
  8
SLD-0
  6
Continuous
 62
   179
100
AcDbLine
 10
64.27274
 20
170.88779
 30
0.0
 11
64.27274
 21
160.05188
 31
0.0
  0
LINE
  5
F0
330
1F
100
AcDbEntity
  8
SLD-0
  6
CENTER
 62
   179
100
AcDbLine
 10
373.540312
 20
114.55187
 30
0.0
 11
373.540312
 21
121.55187
 31
0.0
  0
LINE
  5
F1
330
1F
100
AcDbEntity
  8
SLD-0
  6
CENTER
 62
   179
100
AcDbLine
 10
377.040312
 20
186.05188
 30
0.0
 11
370.04031
 21
186.05188
 31
0.0
  0
LINE
  5
F2
330
1F
100
AcDbEntity
  8
SLD-0
  6
CENTER
 62
   179
100
AcDbLine
 10
353.54031
 20
189.55188
 30
0.0
 11
353.54031
 21
182.55188
 31
0.0
  0
LINE
  5
F3
330
1F
100
AcDbEntity
  8
SLD-0
  6
CENTER
 62
   179
100
AcDbLine
 10
373.540312
 20
189.55188
 30
0.0
 11
373.540312
 21
182.55188
 31
0.0
  0
LINE
  5
F4
330
1F
100
AcDbEntity
  8
SLD-0
  6
CENTER
 62
   179
100
AcDbLine
 10
350.04031
 20
186.05188
 30
0.0
 11
357.04031
 21
186.05188
 31
0.0
  0
LINE
  5
F5
330
1F
100
AcDbEntity
  8
SLD-0
  6
CENTER
 62
   179
100
AcDbLine
 10
363.54031
 20
164.59187
 30
0.0
 11
363.54031
 21
139.51186
 31
0.0
  0
LINE
  5
F6
330
1F
100
AcDbEntity
  8
SLD-0
  6
CENTER
 62
   179
100
AcDbLine
 10
352.000301
 20
125.05186
 30
0.0
 11
375.08029
 21
125.05186
 31
0.0
  0
LINE
  5
F7
330
1F
100
AcDbEntity
  8
SLD-0
  6
CENTER
 62
   179
100
AcDbLine
 10
363.54031
 20
113.51186
 30
0.0
 11
363.54031
 21
136.59187
 31
0.0
  0
LINE
  5
F8
330
1F
100
AcDbEntity
  8
SLD-0
  6
CENTER
 62
   179
100
AcDbLine
 10
352.000301
 20
179.05188
 30
0.0
 11
375.08029
 21
179.05188
 31
0.0
  0
LINE
  5
F9
330
1F
100
AcDbEntity
  8
SLD-0
  6
CENTER
 62
   179
100
AcDbLine
 10
351.000301
 20
152.05188
 30
0.0
 11
376.08029
 21
152.05188
 31
0.0
  0
LINE
  5
FA
330
1F
100
AcDbEntity
  8
SLD-0
  6
CENTER
 62
   179
100
AcDbLine
 10
363.54031
 20
190.59187
 30
0.0
 11
363.54031
 21
167.51187
 31
0.0
  0
LINE
  5
FB
330
1F
100
AcDbEntity
  8
SLD-0
  6
CENTER
 62
   179
100
AcDbLine
 10
377.040312
 20
118.05187
 30
0.0
 11
370.04031
 21
118.05187
 31
0.0
  0
LINE
  5
FC
330
1F
100
AcDbEntity
  8
SLD-0
  6
Continuous
 62
   179
100
AcDbLine
 10
379.5403108666
 20
145.8045814771
 30
0.0
 11
379.5403108666
 21
145.0518814771
 31
0.0
  0
LINE
  5
FD
330
1F
100
AcDbEntity
  8
SLD-0
  6
Continuous
 62
   179
100
AcDbLine
 10
348.80764
 20
113.05186
 30
0.0
 11
378.272984
 21
113.05186
 31
0.0
  0
LINE
  5
FE
330
1F
100
AcDbEntity
  8
SLD-0
  6
Continuous
 62
   179
100
AcDbLine
 10
348.8076331991
 20
191.0518784373
 30
0.0
 11
378.2729901991
 21
191.0518784373
 31
0.0
  0
LINE
  5
FF
330
1F
100
AcDbEntity
  8
SLD-0
  6
Continuous
 62
   179
100
AcDbLine
 10
62.77274
 20
154.70457
 30
0.0
 11
62.77274
 21
149.39919
 31
0.0
  0
LINE
  5
100
330
1F
100
AcDbEntity
  8
SLD-0
  6
Continuous
 62
   179
100
AcDbLine
 10
35.77274
 20
189.05188
 30
0.0
 11
57.77274
 21
189.05188
 31
0.0
  0
LINE
  5
101
330
1F
100
AcDbEntity
  8
SLD-0
  6
Continuous
 62
   179
100
AcDbLine
 10
35.77274
 20
115.05186
 30
0.0
 11
57.77274
 21
115.05186
 31
0.0
  0
LINE
  5
102
330
1F
100
AcDbEntity
  8
SLD-0
  6
Continuous
 62
   179
100
AcDbLine
 10
33.77274
 20
187.05188
 30
0.0
 11
33.77274
 21
117.05186
 31
0.0
  0
LINE
  5
103
330
1F
100
AcDbEntity
  8
SLD-0
  6
Continuous
 62
   179
100
AcDbLine
 10
59.77274
 20
187.05188
 30
0.0
 11
59.77274
 21
117.05186
 31
0.0
  0
LINE
  5
104
330
1F
100
AcDbEntity
  8
SLD-0
  6
CENTER
 62
   179
100
AcDbLine
 10
58.31271
 20
125.05186
 30
0.0
 11
35.23276
 21
125.05186
 31
0.0
  0
LINE
  5
105
330
1F
100
AcDbEntity
  8
SLD-0
  6
CENTER
 62
   179
100
AcDbLine
 10
58.31271
 20
179.05188
 30
0.0
 11
35.23276
 21
179.05188
 31
0.0
  0
LINE
  5
106
330
1F
100
AcDbEntity
  8
SLD-0
  6
CENTER
 62
   179
100
AcDbLine
 10
59.31271
 20
152.05188
 30
0.0
 11
34.23276
 21
152.05188
 31
0.0
  0
LINE
  5
107
330
1F
100
AcDbEntity
  8
SLD-0
  6
CENTER
 62
   179
100
AcDbLine
 10
46.77274
 20
190.59187
 30
0.0
 11
46.77274
 21
113.51186
 31
0.0
  0
LINE
  5
108
330
1F
100
AcDbEntity
  8
SLD-0
  6
Continuous
 62
   179
100
AcDbLine
 10
31.27274
 20
191.05188
 30
0.0
 11
62.27274
 21
191.05188
 31
0.0
  0
LINE
  5
109
330
1F
100
AcDbEntity
  8
SLD-0
  6
Continuous
 62
   179
100
AcDbLine
 10
31.27274
 20
113.05186
 30
0.0
 11
62.27274
 21
113.05186
 31
0.0
  0
LINE
  5
10A
330
1F
100
AcDbEntity
  8
SLD-0
  6
CENTER
 62
   179
100
AcDbLine
 10
46.77274
 20
113.51188
 30
0.0
 11
46.77274
 21
190.59189
 31
0.0
  0
LINE
  5
10B
330
1F
100
AcDbEntity
  8
SLD-0
  6
Continuous
 62
   179
100
AcDbLine
 10
346.04031
 20
120.51596
 30
0.0
 11
347.841712
 21
113.79303
 31
0.0
  0
LINE
  5
10C
330
1F
100
AcDbEntity
  8
SLD-0
  6
Continuous
 62
   179
100
AcDbLine
 10
381.0403108666
 20
131.3159614771
 30
0.0
 11
381.0403108666
 21
130.2159614771
 31
0.0
  0
LINE
  5
10D
330
1F
100
AcDbEntity
  8
SLD-0
  6
Continuous
 62
   179
100
AcDbLine
 10
380.5403108666
 20
132.8159614771
 30
0.0
 11
380.5403108666
 21
131.7159614771
 31
0.0
  0
LINE
  5
10E
330
1F
100
AcDbEntity
  8
SLD-0
  6
Continuous
 62
   179
100
AcDbLine
 10
380.8403103666
 20
128.5159619771
 30
0.0
 11
380.7403103666
 21
128.5159619771
 31
0.0
  0
LINE
  5
10F
330
1F
100
AcDbEntity
  8
SLD-0
  6
Continuous
 62
   179
100
AcDbLine
 10
380.8403103666
 20
133.0159609771
 30
0.0
 11
380.7403103666
 21
133.0159609771
 31
0.0
  0
LINE
  5
110
330
1F
100
AcDbEntity
  8
SLD-0
  6
Continuous
 62
   179
100
AcDbLine
 10
380.8403103666
 20
127.0159609771
 30
0.0
 11
380.7403103666
 21
127.0159609771
 31
0.0
  0
LINE
  5
111
330
1F
100
AcDbEntity
  8
SLD-0
  6
Continuous
 62
   179
100
AcDbLine
 10
380.8403103666
 20
122.5159619771
 30
0.0
 11
380.7403103666
 21
122.5159619771
 31
0.0
  0
LINE
  5
112
330
1F
100
AcDbEntity
  8
SLD-0
  6
Continuous
 62
   179
100
AcDbLine
 10
380.5403108666
 20
129.8159614771
 30
0.0
 11
380.5403108666
 21
128.7159614771
 31
0.0
  0
LINE
  5
113
330
1F
100
AcDbEntity
  8
SLD-0
  6
Continuous
 62
   179
100
AcDbLine
 10
380.5403108666
 20
123.8159614771
 30
0.0
 11
380.5403108666
 21
122.7159614771
 31
0.0
  0
LINE
  5
114
330
1F
100
AcDbEntity
  8
SLD-0
  6
Continuous
 62
   179
100
AcDbLine
 10
380.5403108666
 20
126.8159614771
 30
0.0
 11
380.5403108666
 21
125.7159614771
 31
0.0
  0
LINE
  5
115
330
1F
100
AcDbEntity
  8
SLD-0
  6
Continuous
 62
   179
100
AcDbLine
 10
381.0403152487
 20
183.5877798051
 30
0.0
 11
379.2389172487
 21
190.3106898051
 31
0.0
  0
LINE
  5
116
330
1F
100
AcDbEntity
  8
SLD-0
  6
Continuous
 62
   179
100
AcDbLine
 10
381.0403142487
 20
160.0518398051
 30
0.0
 11
381.0403142487
 21
170.8877498051
 31
0.0
  0
LINE
  5
117
330
1F
100
AcDbEntity
  8
SLD-0
  6
Continuous
 62
   179
100
AcDbLine
 10
380.8403137487
 20
178.5877693051
 30
0.0
 11
380.7403137487
 21
178.5877693051
 31
0.0
  0
LINE
  5
118
330
1F
100
AcDbEntity
  8
SLD-0
  6
Continuous
 62
   179
100
AcDbLine
 10
380.8403137487
 20
172.5877493051
 30
0.0
 11
380.7403137487
 21
172.5877493051
 31
0.0
  0
LINE
  5
119
330
1F
100
AcDbEntity
  8
SLD-0
  6
Continuous
 62
   179
100
AcDbLine
 10
380.8403187487
 20
180.0877753051
 30
0.0
 11
380.7403187487
 21
180.0877753051
 31
0.0
  0
LINE
  5
11A
330
1F
100
AcDbEntity
  8
SLD-0
  6
Continuous
 62
   179
100
AcDbLine
 10
380.8403187487
 20
174.0877553051
 30
0.0
 11
380.7403187487
 21
174.0877553051
 31
0.0
  0
LINE
  5
11B
330
1F
100
AcDbEntity
  8
SLD-0
  6
Continuous
 62
   179
100
AcDbLine
 10
380.5403192487
 20
177.2877648051
 30
0.0
 11
380.5403192487
 21
178.3877748051
 31
0.0
  0
LINE
  5
11C
330
1F
100
AcDbEntity
  8
SLD-0
  6
Continuous
 62
   179
100
AcDbLine
 10
380.5403192487
 20
180.2877748051
 30
0.0
 11
380.5403192487
 21
181.3877848051
 31
0.0
  0
LINE
  5
11D
330
1F
100
AcDbEntity
  8
SLD-0
  6
Continuous
 62
   179
100
AcDbLine
 10
380.8403103666
 20
130.0159609771
 30
0.0
 11
380.7403103666
 21
130.0159609771
 31
0.0
  0
LINE
  5
11E
330
1F
100
AcDbEntity
  8
SLD-0
  6
Continuous
 62
   179
100
AcDbLine
 10
380.5403192487
 20
174.2877548051
 30
0.0
 11
380.5403192487
 21
175.3877648051
 31
0.0
  0
LINE
  5
11F
330
1F
100
AcDbEntity
  8
SLD-0
  6
Continuous
 62
   179
100
AcDbLine
 10
380.8403103666
 20
124.0159609771
 30
0.0
 11
380.7403103666
 21
124.0159609771
 31
0.0
  0
LINE
  5
120
330
1F
100
AcDbEntity
  8
SLD-0
  6
Continuous
 62
   179
100
AcDbLine
 10
381.0403128666
 20
120.5159614771
 30
0.0
 11
379.2389108666
 21
113.7930414771
 31
0.0
  0
LINE
  5
121
330
1F
100
AcDbEntity
  8
SLD-0
  6
Continuous
 62
   179
100
AcDbLine
 10
380.8403137487
 20
181.5877793051
 30
0.0
 11
380.7403137487
 21
181.5877793051
 31
0.0
  0
LINE
  5
122
330
1F
100
AcDbEntity
  8
SLD-0
  6
Continuous
 62
   179
100
AcDbLine
 10
380.8403103666
 20
131.5159619771
 30
0.0
 11
380.7403103666
 21
131.5159619771
 31
0.0
  0
LINE
  5
123
330
1F
100
AcDbEntity
  8
SLD-0
  6
Continuous
 62
   179
100
AcDbLine
 10
380.8403187487
 20
177.0877653051
 30
0.0
 11
380.7403187487
 21
177.0877653051
 31
0.0
  0
LINE
  5
124
330
1F
100
AcDbEntity
  8
SLD-0
  6
Continuous
 62
   179
100
AcDbLine
 10
380.8403187487
 20
171.0877453051
 30
0.0
 11
380.7403187487
 21
171.0877453051
 31
0.0
  0
LINE
  5
125
330
1F
100
AcDbEntity
  8
SLD-0
  6
Continuous
 62
   179
100
AcDbLine
 10
380.8403103666
 20
125.5159619771
 30
0.0
 11
380.7403103666
 21
125.5159619771
 31
0.0
  0
LINE
  5
126
330
1F
100
AcDbEntity
  8
SLD-0
  6
Continuous
 62
   179
100
AcDbLine
 10
380.8403137487
 20
175.5877593051
 30
0.0
 11
380.7403137487
 21
175.5877593051
 31
0.0
  0
LINE
  5
127
330
1F
100
AcDbEntity
  8
SLD-0
  6
Continuous
 62
   179
100
AcDbLine
 10
380.5403192487
 20
171.2877448051
 30
0.0
 11
380.5403192487
 21
172.3877548051
 31
0.0
  0
LINE
  5
128
330
1F
100
AcDbEntity
  8
SLD-0
  6
Continuous
 62
   179
100
AcDbLine
 10
381.0403108666
 20
144.0518814771
 30
0.0
 11
381.0403108666
 21
133.2159614771
 31
0.0
  0
LINE
  5
129
330
1F
100
AcDbEntity
  8
SLD-0
  6
CENTER
 62
   179
100
AcDbLine
 10
348.500313
 20
118.05187
 30
0.0
 11
358.580311
 21
118.05187
 31
0.0
  0
LINE
  5
12A
330
1F
100
AcDbEntity
  8
SLD-0
  6
CENTER
 62
   179
100
AcDbLine
 10
353.54031
 20
123.09187
 30
0.0
 11
353.54031
 21
113.01187
 31
0.0
  0
LINE
  5
12B
330
1F
100
AcDbEntity
  8
SLD-0
  6
Continuous
 62
   179
100
AcDbLine
 10
57.77274
 20
189.05187
 30
0.0
 11
59.77274
 21
187.05186
 31
0.0
  0
LINE
  5
12C
330
1F
100
AcDbEntity
  8
SLD-0
  6
Continuous
 62
   179
100
AcDbLine
 10
33.77272
 20
187.05188
 30
0.0
 11
35.77274
 21
189.05188
 31
0.0
  0
LINE
  5
12D
330
1F
100
AcDbEntity
  8
SLD-0
  6
Continuous
 62
   179
100
AcDbLine
 10
33.77272
 20
117.05187
 30
0.0
 11
35.77272
 21
115.05186
 31
0.0
  0
LINE
  5
12E
330
1F
100
AcDbEntity
  8
SLD-0
  6
Continuous
 62
   179
100
AcDbLine
 10
57.77274
 20
115.05185
 30
0.0
 11
59.77274
 21
117.05186
 31
0.0
  0
LINE
  5
12F
330
1F
100
AcDbEntity
  8
SLD-0
  6
Continuous
 62
   179
100
AcDbLine
 10
346.2403105
 20
181.5878115
 30
0.0
 11
346.3403125
 21
181.5878115
 31
0.0
  0
LINE
  5
130
330
1F
100
AcDbEntity
  8
SLD-0
  6
Continuous
 62
   179
100
AcDbLine
 10
346.2403055
 20
180.0878095
 30
0.0
 11
346.3403075
 21
180.0878095
 31
0.0
  0
LINE
  5
131
330
1F
100
AcDbEntity
  8
SLD-0
  6
Continuous
 62
   179
100
AcDbLine
 10
346.2403105
 20
178.5878035
 30
0.0
 11
346.3403125
 21
178.5878035
 31
0.0
  0
LINE
  5
132
330
1F
100
AcDbEntity
  8
SLD-0
  6
Continuous
 62
   179
100
AcDbLine
 10
346.2403055
 20
177.0878015
 30
0.0
 11
346.3403075
 21
177.0878015
 31
0.0
  0
LINE
  5
133
330
1F
100
AcDbEntity
  8
SLD-0
  6
Continuous
 62
   179
100
AcDbLine
 10
346.540306
 20
180.287808
 30
0.0
 11
346.540306
 21
181.387818
 31
0.0
  0
LINE
  5
134
330
1F
100
AcDbEntity
  8
SLD-0
  6
Continuous
 62
   179
100
AcDbLine
 10
346.2403055
 20
174.0877935
 30
0.0
 11
346.3403075
 21
174.0877935
 31
0.0
  0
LINE
  5
135
330
1F
100
AcDbEntity
  8
SLD-0
  6
Continuous
 62
   179
100
AcDbLine
 10
346.2403105
 20
172.5877875
 30
0.0
 11
346.3403125
 21
172.5877875
 31
0.0
  0
LINE
  5
136
330
1F
100
AcDbEntity
  8
SLD-0
  6
Continuous
 62
   179
100
AcDbLine
 10
346.2403105
 20
175.5877955
 30
0.0
 11
346.3403125
 21
175.5877955
 31
0.0
  0
LINE
  5
137
330
1F
100
AcDbEntity
  8
SLD-0
  6
Continuous
 62
   179
100
AcDbLine
 10
346.2403055
 20
171.0877855
 30
0.0
 11
346.3403075
 21
171.0877855
 31
0.0
  0
LINE
  5
138
330
1F
100
AcDbEntity
  8
SLD-0
  6
Continuous
 62
   179
100
AcDbLine
 10
346.540306
 20
177.2878
 30
0.0
 11
346.540306
 21
178.38781
 31
0.0
  0
LINE
  5
139
330
1F
100
AcDbEntity
  8
SLD-0
  6
Continuous
 62
   179
100
AcDbLine
 10
346.540306
 20
174.287792
 30
0.0
 11
346.540306
 21
175.387802
 31
0.0
  0
LINE
  5
13A
330
1F
100
AcDbEntity
  8
SLD-0
  6
Continuous
 62
   179
100
AcDbLine
 10
346.540306
 20
171.287784
 30
0.0
 11
346.540306
 21
172.387794
 31
0.0
  0
LINE
  5
13B
330
1F
100
AcDbEntity
  8
SLD-0
  6
Continuous
 62
   179
100
AcDbLine
 10
346.04031
 20
178.787804
 30
0.0
 11
346.04031
 21
179.887814
 31
0.0
  0
LINE
  5
13C
330
1F
100
AcDbEntity
  8
SLD-0
  6
Continuous
 62
   179
100
AcDbLine
 10
346.04031
 20
175.787796
 30
0.0
 11
346.04031
 21
176.887806
 31
0.0
  0
LINE
  5
13D
330
1F
100
AcDbEntity
  8
SLD-0
  6
Continuous
 62
   179
100
AcDbLine
 10
346.04031
 20
181.787812
 30
0.0
 11
346.04031
 21
183.587812
 31
0.0
  0
LINE
  5
13E
330
1F
100
AcDbEntity
  8
SLD-0
  6
Continuous
 62
   179
100
AcDbLine
 10
346.04031
 20
131.315954
 30
0.0
 11
346.04031
 21
130.215954
 31
0.0
  0
LINE
  5
13F
330
1F
100
AcDbEntity
  8
SLD-0
  6
Continuous
 62
   179
100
AcDbLine
 10
346.04031
 20
172.787788
 30
0.0
 11
346.04031
 21
173.887798
 31
0.0
  0
LINE
  5
140
330
1F
100
AcDbEntity
  8
SLD-0
  6
Continuous
 62
   179
100
AcDbLine
 10
346.04031
 20
122.31596
 30
0.0
 11
346.04031
 21
120.51596
 31
0.0
  0
LINE
  5
141
330
1F
100
AcDbEntity
  8
SLD-0
  6
Continuous
 62
   179
100
AcDbLine
 10
346.04031
 20
125.315958
 30
0.0
 11
346.04031
 21
124.215958
 31
0.0
  0
LINE
  5
142
330
1F
100
AcDbEntity
  8
SLD-0
  6
Continuous
 62
   179
100
AcDbLine
 10
346.04031
 20
128.315956
 30
0.0
 11
346.04031
 21
127.215956
 31
0.0
  0
LINE
  5
143
330
1F
100
AcDbEntity
  8
SLD-0
  6
Continuous
 62
   179
100
AcDbLine
 10
346.540311
 20
132.815953
 30
0.0
 11
346.540311
 21
131.715953
 31
0.0
  0
LINE
  5
144
330
1F
100
AcDbEntity
  8
SLD-0
  6
Continuous
 62
   179
100
AcDbLine
 10
346.540311
 20
129.815955
 30
0.0
 11
346.540311
 21
128.715955
 31
0.0
  0
LINE
  5
145
330
1F
100
AcDbEntity
  8
SLD-0
  6
Continuous
 62
   179
100
AcDbLine
 10
346.540311
 20
126.815957
 30
0.0
 11
346.540311
 21
125.715957
 31
0.0
  0
LINE
  5
146
330
1F
100
AcDbEntity
  8
SLD-0
  6
Continuous
 62
   179
100
AcDbLine
 10
346.540311
 20
123.815959
 30
0.0
 11
346.540311
 21
122.715959
 31
0.0
  0
LINE
  5
147
330
1F
100
AcDbEntity
  8
SLD-0
  6
Continuous
 62
   179
100
AcDbLine
 10
346.2403105
 20
133.0159515
 30
0.0
 11
346.3403125
 21
133.0159515
 31
0.0
  0
LINE
  5
148
330
1F
100
AcDbEntity
  8
SLD-0
  6
Continuous
 62
   179
100
AcDbLine
 10
346.2403105
 20
128.5159565
 30
0.0
 11
346.3403125
 21
128.5159565
 31
0.0
  0
LINE
  5
149
330
1F
100
AcDbEntity
  8
SLD-0
  6
Continuous
 62
   179
100
AcDbLine
 10
346.2403105
 20
131.5159545
 30
0.0
 11
346.3403125
 21
131.5159545
 31
0.0
  0
LINE
  5
14A
330
1F
100
AcDbEntity
  8
SLD-0
  6
Continuous
 62
   179
100
AcDbLine
 10
346.2403105
 20
130.0159535
 30
0.0
 11
346.3403125
 21
130.0159535
 31
0.0
  0
LINE
  5
14B
330
1F
100
AcDbEntity
  8
SLD-0
  6
Continuous
 62
   179
100
AcDbLine
 10
346.2403105
 20
127.0159555
 30
0.0
 11
346.3403125
 21
127.0159555
 31
0.0
  0
LINE
  5
14C
330
1F
100
AcDbEntity
  8
SLD-0
  6
Continuous
 62
   179
100
AcDbLine
 10
346.2403105
 20
122.5159605
 30
0.0
 11
346.3403125
 21
122.5159605
 31
0.0
  0
LINE
  5
14D
330
1F
100
AcDbEntity
  8
SLD-0
  6
Continuous
 62
   179
100
AcDbLine
 10
346.2403105
 20
125.5159585
 30
0.0
 11
346.3403125
 21
125.5159585
 31
0.0
  0
LINE
  5
14E
330
1F
100
AcDbEntity
  8
SLD-0
  6
Continuous
 62
   179
100
AcDbLine
 10
346.2403105
 20
124.0159575
 30
0.0
 11
346.3403125
 21
124.0159575
 31
0.0
  0
LINE
  5
14F
330
1F
100
AcDbEntity
  8
SLD-0
  6
Continuous
 62
   179
100
AcDbLine
 10
346.04031
 20
160.05188
 30
0.0
 11
346.04031
 21
170.88779
 31
0.0
  0
LINE
  5
150
330
1F
100
AcDbEntity
  8
SLD-0
  6
Continuous
 62
   179
100
AcDbLine
 10
346.040311
 20
183.58779
 30
0.0
 11
347.841709
 21
190.3107
 31
0.0
  0
LINE
  5
151
330
1F
100
AcDbEntity
  8
SLD-0
  6
Continuous
 62
   179
100
AcDbLine
 10
381.0403142487
 20
160.0518398051
 30
0.0
 11
380.5403142487
 21
160.0518398051
 31
0.0
  0
LINE
  5
152
330
1F
100
AcDbEntity
  8
SLD-0
  6
Continuous
 62
   179
100
AcDbLine
 10
379.2403232476
 20
158.0018724083
 30
0.0
 11
378.0511142476
 21
158.0018724083
 31
0.0
  0
LINE
  5
153
330
1F
100
AcDbEntity
  8
SLD-0
  6
CENTER
 62
   179
100
AcDbLine
 10
376.540312
 20
152.24803
 30
0.0
 11
376.540312
 21
160.10188
 31
0.0
  0
LINE
  5
154
330
1F
100
AcDbEntity
  8
SLD-0
  6
CENTER
 62
   179
100
AcDbLine
 10
381.040312
 20
156.50188
 30
0.0
 11
372.940306
 21
156.50188
 31
0.0
  0
LINE
  5
155
330
1F
100
AcDbEntity
  8
SLD-0
  6
Continuous
 62
   179
100
AcDbLine
 10
379.240324
 20
155.00188
 30
0.0
 11
378.051115
 21
155.00188
 31
0.0
  0
LINE
  5
156
330
1F
100
AcDbEntity
  8
SLD-0
  6
CENTER
 62
   179
100
AcDbLine
 10
381.040312
 20
147.60188
 30
0.0
 11
372.940306
 21
147.60188
 31
0.0
  0
LINE
  5
157
330
1F
100
AcDbEntity
  8
SLD-0
  6
Continuous
 62
   179
100
AcDbLine
 10
381.0403142487
 20
172.7877498051
 30
0.0
 11
381.0403142487
 21
173.8877598051
 31
0.0
  0
LINE
  5
158
330
1F
100
AcDbEntity
  8
SLD-0
  6
Continuous
 62
   179
100
AcDbLine
 10
381.0403142487
 20
181.7877798051
 30
0.0
 11
381.0403152487
 21
183.5877798051
 31
0.0
  0
LINE
  5
159
330
1F
100
AcDbEntity
  8
SLD-0
  6
Continuous
 62
   179
100
AcDbLine
 10
381.0403142487
 20
175.7877598051
 30
0.0
 11
381.0403142487
 21
176.8877698051
 31
0.0
  0
LINE
  5
15A
330
1F
100
AcDbEntity
  8
SLD-0
  6
Continuous
 62
   179
100
AcDbLine
 10
381.0403142487
 20
178.7877698051
 30
0.0
 11
381.0403142487
 21
179.8877798051
 31
0.0
  0
LINE
  5
15B
330
1F
100
AcDbEntity
  8
SLD-0
  6
Continuous
 62
   179
100
AcDbLine
 10
381.0403108666
 20
125.3159614771
 30
0.0
 11
381.0403108666
 21
124.2159614771
 31
0.0
  0
LINE
  5
15C
330
1F
100
AcDbEntity
  8
SLD-0
  6
Continuous
 62
   179
100
AcDbLine
 10
381.0403108666
 20
128.3159614771
 30
0.0
 11
381.0403108666
 21
127.2159614771
 31
0.0
  0
LINE
  5
15D
330
1F
100
AcDbEntity
  8
SLD-0
  6
Continuous
 62
   179
100
AcDbLine
 10
381.0403108666
 20
122.3159614771
 30
0.0
 11
381.0403128666
 21
120.5159614771
 31
0.0
  0
LINE
  5
15E
330
1F
100
AcDbEntity
  8
SLD-0
  6
Continuous
 62
   179
100
AcDbLine
 10
29.27274
 20
183.58779
 30
0.0
 11
31.27274
 21
191.05188
 31
0.0
  0
LINE
  5
15F
330
1F
100
AcDbEntity
  8
SLD-0
  6
Continuous
 62
   179
100
AcDbLine
 10
29.27274
 20
172.78778
 30
0.0
 11
29.27274
 21
173.88779
 31
0.0
  0
LINE
  5
160
330
1F
100
AcDbEntity
  8
SLD-0
  6
Continuous
 62
   179
100
AcDbLine
 10
29.27274
 20
181.78778
 30
0.0
 11
29.27274
 21
183.58778
 31
0.0
  0
LINE
  5
161
330
1F
100
AcDbEntity
  8
SLD-0
  6
Continuous
 62
   179
100
AcDbLine
 10
29.27274
 20
175.78778
 30
0.0
 11
29.27274
 21
176.88779
 31
0.0
  0
LINE
  5
162
330
1F
100
AcDbEntity
  8
SLD-0
  6
Continuous
 62
   179
100
AcDbLine
 10
29.77274
 20
171.28778
 30
0.0
 11
29.77274
 21
172.38779
 31
0.0
  0
LINE
  5
163
330
1F
100
AcDbEntity
  8
SLD-0
  6
Continuous
 62
   179
100
AcDbLine
 10
29.77274
 20
174.28778
 30
0.0
 11
29.77274
 21
175.38779
 31
0.0
  0
LINE
  5
164
330
1F
100
AcDbEntity
  8
SLD-0
  6
Continuous
 62
   179
100
AcDbLine
 10
29.77274
 20
177.28778
 30
0.0
 11
29.77274
 21
181.38779
 31
0.0
  0
LINE
  5
165
330
1F
100
AcDbEntity
  8
SLD-0
  6
Continuous
 62
   179
100
AcDbLine
 10
29.47275
 20
171.08778
 30
0.0
 11
29.57272
 21
171.08778
 31
0.0
  0
LINE
  5
166
330
1F
100
AcDbEntity
  8
SLD-0
  6
Continuous
 62
   179
100
AcDbLine
 10
29.47275
 20
175.58778
 30
0.0
 11
29.57272
 21
175.58778
 31
0.0
  0
LINE
  5
167
330
1F
100
AcDbEntity
  8
SLD-0
  6
Continuous
 62
   179
100
AcDbLine
 10
29.47275
 20
172.58778
 30
0.0
 11
29.57272
 21
172.58778
 31
0.0
  0
LINE
  5
168
330
1F
100
AcDbEntity
  8
SLD-0
  6
Continuous
 62
   179
100
AcDbLine
 10
29.47275
 20
174.08778
 30
0.0
 11
29.57272
 21
174.08778
 31
0.0
  0
LINE
  5
169
330
1F
100
AcDbEntity
  8
SLD-0
  6
Continuous
 62
   179
100
AcDbLine
 10
29.47275
 20
177.08778
 30
0.0
 11
29.57272
 21
177.08778
 31
0.0
  0
LINE
  5
16A
330
1F
100
AcDbEntity
  8
SLD-0
  6
Continuous
 62
   179
100
AcDbLine
 10
29.47275
 20
181.58778
 30
0.0
 11
29.57272
 21
181.58778
 31
0.0
  0
LINE
  5
16B
330
1F
100
AcDbEntity
  8
SLD-0
  6
Continuous
 62
   179
100
AcDbLine
 10
64.07272
 20
181.58778
 30
0.0
 11
63.97275
 21
181.58778
 31
0.0
  0
LINE
  5
16C
330
1F
100
AcDbEntity
  8
SLD-0
  6
Continuous
 62
   179
100
AcDbLine
 10
64.07272
 20
180.08778
 30
0.0
 11
63.97275
 21
180.08778
 31
0.0
  0
LINE
  5
16D
330
1F
100
AcDbEntity
  8
SLD-0
  6
Continuous
 62
   179
100
AcDbLine
 10
64.07272
 20
178.58778
 30
0.0
 11
63.97275
 21
178.58778
 31
0.0
  0
LINE
  5
16E
330
1F
100
AcDbEntity
  8
SLD-0
  6
Continuous
 62
   179
100
AcDbLine
 10
64.07272
 20
177.08778
 30
0.0
 11
63.97275
 21
177.08778
 31
0.0
  0
LINE
  5
16F
330
1F
100
AcDbEntity
  8
SLD-0
  6
Continuous
 62
   179
100
AcDbLine
 10
63.77274
 20
180.28778
 30
0.0
 11
63.77274
 21
181.38779
 31
0.0
  0
LINE
  5
170
330
1F
100
AcDbEntity
  8
SLD-0
  6
Continuous
 62
   179
100
AcDbLine
 10
64.07272
 20
174.08778
 30
0.0
 11
63.97275
 21
174.08778
 31
0.0
  0
LINE
  5
171
330
1F
100
AcDbEntity
  8
SLD-0
  6
Continuous
 62
   179
100
AcDbLine
 10
64.07272
 20
172.58778
 30
0.0
 11
63.97275
 21
172.58778
 31
0.0
  0
LINE
  5
172
330
1F
100
AcDbEntity
  8
SLD-0
  6
Continuous
 62
   179
100
AcDbLine
 10
64.07272
 20
175.58778
 30
0.0
 11
63.97275
 21
175.58778
 31
0.0
  0
LINE
  5
173
330
1F
100
AcDbEntity
  8
SLD-0
  6
Continuous
 62
   179
100
AcDbLine
 10
64.07272
 20
171.08778
 30
0.0
 11
63.97275
 21
171.08778
 31
0.0
  0
LINE
  5
174
330
1F
100
AcDbEntity
  8
SLD-0
  6
Continuous
 62
   179
100
AcDbLine
 10
63.77274
 20
177.28778
 30
0.0
 11
63.77274
 21
178.38779
 31
0.0
  0
LINE
  5
175
330
1F
100
AcDbEntity
  8
SLD-0
  6
Continuous
 62
   179
100
AcDbLine
 10
63.77274
 20
174.28778
 30
0.0
 11
63.77274
 21
175.38779
 31
0.0
  0
LINE
  5
176
330
1F
100
AcDbEntity
  8
SLD-0
  6
Continuous
 62
   179
100
AcDbLine
 10
63.77274
 20
171.28778
 30
0.0
 11
63.77274
 21
172.38779
 31
0.0
  0
LINE
  5
177
330
1F
100
AcDbEntity
  8
SLD-0
  6
Continuous
 62
   179
100
AcDbLine
 10
64.27274
 20
178.78778
 30
0.0
 11
64.27274
 21
179.88779
 31
0.0
  0
LINE
  5
178
330
1F
100
AcDbEntity
  8
SLD-0
  6
Continuous
 62
   179
100
AcDbLine
 10
64.27274
 20
175.78778
 30
0.0
 11
64.27274
 21
176.88779
 31
0.0
  0
LINE
  5
179
330
1F
100
AcDbEntity
  8
SLD-0
  6
Continuous
 62
   179
100
AcDbLine
 10
64.27274
 20
181.78778
 30
0.0
 11
64.27274
 21
183.58778
 31
0.0
  0
LINE
  5
17A
330
1F
100
AcDbEntity
  8
SLD-0
  6
Continuous
 62
   179
100
AcDbLine
 10
64.27274
 20
172.78778
 30
0.0
 11
64.27274
 21
173.88779
 31
0.0
  0
LINE
  5
17B
330
1F
100
AcDbEntity
  8
SLD-0
  6
Continuous
 62
   179
100
AcDbLine
 10
64.27274
 20
183.58779
 30
0.0
 11
62.27274
 21
191.05188
 31
0.0
  0
LINE
  5
17C
330
1F
100
AcDbEntity
  8
SLD-0
  6
Continuous
 62
   179
100
AcDbLine
 10
29.27274
 20
120.51596
 30
0.0
 11
31.27274
 21
113.05186
 31
0.0
  0
LINE
  5
17D
330
1F
100
AcDbEntity
  8
SLD-0
  6
Continuous
 62
   179
100
AcDbLine
 10
29.27274
 20
131.31596
 30
0.0
 11
29.27274
 21
130.21596
 31
0.0
  0
LINE
  5
17E
330
1F
100
AcDbEntity
  8
SLD-0
  6
Continuous
 62
   179
100
AcDbLine
 10
29.27274
 20
122.31596
 30
0.0
 11
29.27274
 21
120.51596
 31
0.0
  0
LINE
  5
17F
330
1F
100
AcDbEntity
  8
SLD-0
  6
Continuous
 62
   179
100
AcDbLine
 10
29.27274
 20
128.31596
 30
0.0
 11
29.27274
 21
127.21596
 31
0.0
  0
LINE
  5
180
330
1F
100
AcDbEntity
  8
SLD-0
  6
Continuous
 62
   179
100
AcDbLine
 10
29.77274
 20
132.81596
 30
0.0
 11
29.77274
 21
131.71596
 31
0.0
  0
LINE
  5
181
330
1F
100
AcDbEntity
  8
SLD-0
  6
Continuous
 62
   179
100
AcDbLine
 10
29.77274
 20
129.81596
 30
0.0
 11
29.77274
 21
128.71596
 31
0.0
  0
LINE
  5
182
330
1F
100
AcDbEntity
  8
SLD-0
  6
Continuous
 62
   179
100
AcDbLine
 10
29.77274
 20
126.81596
 30
0.0
 11
29.77274
 21
122.71596
 31
0.0
  0
LINE
  5
183
330
1F
100
AcDbEntity
  8
SLD-0
  6
Continuous
 62
   179
100
AcDbLine
 10
29.47275
 20
133.01596
 30
0.0
 11
29.57272
 21
133.01596
 31
0.0
  0
LINE
  5
184
330
1F
100
AcDbEntity
  8
SLD-0
  6
Continuous
 62
   179
100
AcDbLine
 10
29.47275
 20
128.51596
 30
0.0
 11
29.57272
 21
128.51596
 31
0.0
  0
LINE
  5
185
330
1F
100
AcDbEntity
  8
SLD-0
  6
Continuous
 62
   179
100
AcDbLine
 10
29.47275
 20
131.51596
 30
0.0
 11
29.57272
 21
131.51596
 31
0.0
  0
LINE
  5
186
330
1F
100
AcDbEntity
  8
SLD-0
  6
Continuous
 62
   179
100
AcDbLine
 10
29.47275
 20
130.01596
 30
0.0
 11
29.57272
 21
130.01596
 31
0.0
  0
LINE
  5
187
330
1F
100
AcDbEntity
  8
SLD-0
  6
Continuous
 62
   179
100
AcDbLine
 10
29.47275
 20
127.01596
 30
0.0
 11
29.57272
 21
127.01596
 31
0.0
  0
LINE
  5
188
330
1F
100
AcDbEntity
  8
SLD-0
  6
Continuous
 62
   179
100
AcDbLine
 10
29.47275
 20
122.51596
 30
0.0
 11
29.57272
 21
122.51596
 31
0.0
  0
LINE
  5
189
330
1F
100
AcDbEntity
  8
SLD-0
  6
Continuous
 62
   179
100
AcDbLine
 10
64.07272
 20
122.51596
 30
0.0
 11
63.97275
 21
122.51596
 31
0.0
  0
LINE
  5
18A
330
1F
100
AcDbEntity
  8
SLD-0
  6
Continuous
 62
   179
100
AcDbLine
 10
64.07272
 20
124.01596
 30
0.0
 11
63.97275
 21
124.01596
 31
0.0
  0
LINE
  5
18B
330
1F
100
AcDbEntity
  8
SLD-0
  6
Continuous
 62
   179
100
AcDbLine
 10
64.07272
 20
125.51596
 30
0.0
 11
63.97275
 21
125.51596
 31
0.0
  0
LINE
  5
18C
330
1F
100
AcDbEntity
  8
SLD-0
  6
Continuous
 62
   179
100
AcDbLine
 10
64.07272
 20
127.01596
 30
0.0
 11
63.97275
 21
127.01596
 31
0.0
  0
LINE
  5
18D
330
1F
100
AcDbEntity
  8
SLD-0
  6
Continuous
 62
   179
100
AcDbLine
 10
63.77274
 20
123.81596
 30
0.0
 11
63.77274
 21
122.71596
 31
0.0
  0
LINE
  5
18E
330
1F
100
AcDbEntity
  8
SLD-0
  6
Continuous
 62
   179
100
AcDbLine
 10
64.07272
 20
130.01596
 30
0.0
 11
63.97275
 21
130.01596
 31
0.0
  0
LINE
  5
18F
330
1F
100
AcDbEntity
  8
SLD-0
  6
Continuous
 62
   179
100
AcDbLine
 10
64.07272
 20
131.51596
 30
0.0
 11
63.97275
 21
131.51596
 31
0.0
  0
LINE
  5
190
330
1F
100
AcDbEntity
  8
SLD-0
  6
Continuous
 62
   179
100
AcDbLine
 10
64.07272
 20
128.51596
 30
0.0
 11
63.97275
 21
128.51596
 31
0.0
  0
LINE
  5
191
330
1F
100
AcDbEntity
  8
SLD-0
  6
Continuous
 62
   179
100
AcDbLine
 10
64.07272
 20
133.01596
 30
0.0
 11
63.97275
 21
133.01596
 31
0.0
  0
LINE
  5
192
330
1F
100
AcDbEntity
  8
SLD-0
  6
Continuous
 62
   179
100
AcDbLine
 10
63.77274
 20
126.81596
 30
0.0
 11
63.77274
 21
125.71596
 31
0.0
  0
LINE
  5
193
330
1F
100
AcDbEntity
  8
SLD-0
  6
Continuous
 62
   179
100
AcDbLine
 10
63.77274
 20
129.81596
 30
0.0
 11
63.77274
 21
128.71596
 31
0.0
  0
LINE
  5
194
330
1F
100
AcDbEntity
  8
SLD-0
  6
Continuous
 62
   179
100
AcDbLine
 10
63.77274
 20
132.81596
 30
0.0
 11
63.77274
 21
131.71596
 31
0.0
  0
LINE
  5
195
330
1F
100
AcDbEntity
  8
SLD-0
  6
Continuous
 62
   179
100
AcDbLine
 10
64.27274
 20
125.31596
 30
0.0
 11
64.27274
 21
124.21596
 31
0.0
  0
LINE
  5
196
330
1F
100
AcDbEntity
  8
SLD-0
  6
Continuous
 62
   179
100
AcDbLine
 10
64.27274
 20
128.31596
 30
0.0
 11
64.27274
 21
127.21596
 31
0.0
  0
LINE
  5
197
330
1F
100
AcDbEntity
  8
SLD-0
  6
Continuous
 62
   179
100
AcDbLine
 10
64.27274
 20
122.31596
 30
0.0
 11
64.27274
 21
120.51596
 31
0.0
  0
LINE
  5
198
330
1F
100
AcDbEntity
  8
SLD-0
  6
Continuous
 62
   179
100
AcDbLine
 10
64.27274
 20
131.31596
 30
0.0
 11
64.27274
 21
130.21596
 31
0.0
  0
LINE
  5
199
330
1F
100
AcDbEntity
  8
SLD-0
  6
Continuous
 62
   179
100
AcDbLine
 10
64.27274
 20
120.51596
 30
0.0
 11
62.27274
 21
113.05186
 31
0.0
  0
LINE
  5
19A
330
1F
100
AcDbEntity
  8
SLD-0
  6
Continuous
 62
   179
100
AcDbLine
 10
29.27274
 20
170.88779
 30
0.0
 11
29.27274
 21
160.05188
 31
0.0
  0
LINE
  5
19B
330
1F
100
AcDbEntity
  8
SLD-0
  6
Continuous
 62
   179
100
AcDbLine
 10
31.07272
 20
146.10188
 30
0.0
 11
32.26193
 21
146.10188
 31
0.0
  0
LINE
  5
19C
330
1F
100
AcDbEntity
  8
SLD-0
  6
Continuous
 62
   179
100
AcDbLine
 10
30.77274
 20
154.70457
 30
0.0
 11
30.77274
 21
149.40459
 31
0.0
  0
LINE
  5
19D
330
1F
100
AcDbEntity
  8
SLD-0
  6
Continuous
 62
   179
100
AcDbLine
 10
31.07272
 20
149.10188
 30
0.0
 11
32.26193
 21
149.10188
 31
0.0
  0
LINE
  5
19E
330
1F
100
AcDbEntity
  8
SLD-0
  6
Continuous
 62
   179
100
AcDbLine
 10
30.77274
 20
159.05188
 30
0.0
 11
30.77274
 21
158.29918
 31
0.0
  0
LINE
  5
19F
330
1F
100
AcDbEntity
  8
SLD-0
  6
Continuous
 62
   179
100
AcDbLine
 10
62.77274
 20
159.05188
 30
0.0
 11
62.77274
 21
158.29916
 31
0.0
  0
LINE
  5
1A0
330
1F
100
AcDbEntity
  8
SLD-0
  6
Continuous
 62
   179
100
AcDbLine
 10
62.77274
 20
145.80458
 30
0.0
 11
62.77274
 21
145.05188
 31
0.0
  0
LINE
  5
1A1
330
1F
100
AcDbEntity
  8
SLD-0
  6
Continuous
 62
   179
100
AcDbLine
 10
64.27274
 20
144.05188
 30
0.0
 11
63.77274
 21
144.05188
 31
0.0
  0
LINE
  5
1A2
330
1F
100
AcDbEntity
  8
SLD-0
  6
Continuous
 62
   179
100
AcDbLine
 10
29.27274
 20
144.05188
 30
0.0
 11
29.77274
 21
144.05188
 31
0.0
  0
LINE
  5
1A3
330
1F
100
AcDbEntity
  8
SLD-0
  6
Continuous
 62
   179
100
AcDbLine
 10
62.47275
 20
149.10188
 30
0.0
 11
61.28354
 21
149.10188
 31
0.0
  0
LINE
  5
1A4
330
1F
100
AcDbEntity
  8
SLD-0
  6
Continuous
 62
   179
100
AcDbLine
 10
62.47275
 20
146.10188
 30
0.0
 11
61.28354
 21
146.10188
 31
0.0
  0
LINE
  5
1A5
330
1F
100
AcDbEntity
  8
SLD-0
  6
Continuous
 62
   179
100
AcDbLine
 10
64.27274
 20
160.05188
 30
0.0
 11
63.77274
 21
160.05188
 31
0.0
  0
LINE
  5
1A6
330
1F
100
AcDbEntity
  8
SLD-0
  6
Continuous
 62
   179
100
AcDbLine
 10
62.47275
 20
158.00188
 30
0.0
 11
61.28354
 21
158.00188
 31
0.0
  0
LINE
  5
1A7
330
1F
100
AcDbEntity
  8
SLD-0
  6
Continuous
 62
   179
100
AcDbLine
 10
62.47275
 20
155.00188
 30
0.0
 11
61.28354
 21
155.00188
 31
0.0
  0
LINE
  5
1A8
330
1F
100
AcDbEntity
  8
SLD-0
  6
Continuous
 62
   179
100
AcDbLine
 10
30.77274
 20
145.80458
 30
0.0
 11
30.77274
 21
145.05188
 31
0.0
  0
LINE
  5
1A9
330
1F
100
AcDbEntity
  8
SLD-0
  6
Continuous
 62
   179
100
AcDbLine
 10
29.27274
 20
160.05188
 30
0.0
 11
29.77274
 21
160.05188
 31
0.0
  0
LINE
  5
1AA
330
1F
100
AcDbEntity
  8
SLD-0
  6
Continuous
 62
   179
100
AcDbLine
 10
31.07272
 20
158.00188
 30
0.0
 11
32.26193
 21
158.00188
 31
0.0
  0
LINE
  5
1AB
330
1F
100
AcDbEntity
  8
SLD-0
  6
Continuous
 62
   179
100
AcDbLine
 10
31.07272
 20
155.00188
 30
0.0
 11
32.26193
 21
155.00188
 31
0.0
  0
LINE
  5
1AC
330
1F
100
AcDbEntity
  8
SLD-0
  6
Continuous
 62
   179
100
AcDbLine
 10
29.27274
 20
144.05188
 30
0.0
 11
29.27274
 21
133.21596
 31
0.0
  0
LINE
  5
1AD
330
1F
100
AcDbEntity
  8
SLD-0
  6
Continuous
 62
   179
100
AcDbLine
 10
64.27274
 20
144.05188
 30
0.0
 11
64.27274
 21
133.21596
 31
0.0
  0
LINE
  5
1AE
330
1F
100
AcDbEntity
  8
SLD-0
  6
CENTER
 62
   179
100
AcDbLine
 10
376.51779
 20
152.05188
 30
0.0
 11
350.182755
 21
152.05188
 31
0.0
  0
LINE
  5
1AF
330
1F
100
AcDbEntity
  8
SLD-0
  6
CENTER
 62
   179
100
AcDbLine
 10
363.54031
 20
140.11862
 30
0.0
 11
363.54031
 21
165.11794
 31
0.0
  0
LINE
  5
1B0
330
1F
100
AcDbEntity
  8
SLD-0
  6
Continuous
 62
   179
100
AcDbLine
 10
360.634551
 20
142.48336
 30
0.0
 11
361.140486
 21
144.43798
 31
0.0
  0
LINE
  5
1B1
330
1F
100
AcDbEntity
  8
SLD-0
  6
Continuous
 62
   179
100
AcDbLine
 10
366.4460696308
 20
142.4833507585
 30
0.0
 11
365.9401336308
 21
144.4379707585
 31
0.0
  0
LINE
  5
1B2
330
1F
100
AcDbEntity
  8
SLD-0
  6
Continuous
 62
   179
100
AcDbLine
 10
326.342438
 20
249.81903
 30
0.0
 11
326.342438
 21
237.81903
 31
0.0
  0
LINE
  5
1B3
330
1F
100
AcDbEntity
  8
SLD-0
  6
CENTER
 62
   179
100
AcDbLine
 10
253.84244
 20
132.05187
 30
0.0
 11
253.84244
 21
144.05188
 31
0.0
  0
LINE
  5
1B4
330
1F
100
AcDbEntity
  8
SLD-0
  6
CENTER
 62
   179
100
AcDbLine
 10
247.34244
 20
138.05187
 30
0.0
 11
261.4288
 21
138.05187
 31
0.0
  0
LINE
  5
1B5
330
1F
100
AcDbEntity
  8
SLD-0
  6
Continuous
 62
   179
100
AcDbLine
 10
298.84244
 20
131.05186
 30
0.0
 11
326.342438
 21
131.05186
 31
0.0
  0
LINE
  5
1B6
330
1F
100
AcDbEntity
  8
SLD-0
  6
Continuous
 62
   179
100
AcDbLine
 10
298.84244
 20
185.05188
 30
0.0
 11
326.342438
 21
185.05188
 31
0.0
  0
LINE
  5
1B7
330
1F
100
AcDbEntity
  8
SLD-0
  6
Continuous
 62
   179
100
AcDbLine
 10
298.84244
 20
191.05188
 30
0.0
 11
298.84244
 21
113.05186
 31
0.0
  0
LINE
  5
1B8
330
1F
100
AcDbEntity
  8
SLD-0
  6
CENTER
 62
   179
100
AcDbLine
 10
85.65012
 20
152.05188
 30
0.0
 11
300.34244
 21
152.05188
 31
0.0
  0
LINE
  5
1B9
330
1F
100
AcDbEntity
  8
SLD-0
  6
Continuous
 62
   179
100
AcDbLine
 10
111.84244
 20
191.05188
 30
0.0
 11
298.84244
 21
191.05188
 31
0.0
  0
LINE
  5
1BA
330
1F
100
AcDbEntity
  8
SLD-0
  6
Continuous
 62
   179
100
AcDbLine
 10
111.84244
 20
113.05186
 30
0.0
 11
298.84244
 21
113.05186
 31
0.0
  0
LINE
  5
1BB
330
1F
100
AcDbEntity
  8
SLD-0
  6
Continuous
 62
   179
100
AcDbLine
 10
298.84244
 20
173.05188
 30
0.0
 11
326.342438
 21
173.05188
 31
0.0
  0
LINE
  5
1BC
330
1F
100
AcDbEntity
  8
SLD-0
  6
Continuous
 62
   179
100
AcDbLine
 10
298.84244
 20
119.05186
 30
0.0
 11
326.342438
 21
119.05186
 31
0.0
  0
LINE
  5
1BD
330
1F
100
AcDbEntity
  8
SLD-0
  6
CENTER
 62
   179
100
AcDbLine
 10
247.34244
 20
166.05188
 30
0.0
 11
261.4288
 21
166.05188
 31
0.0
  0
LINE
  5
1BE
330
1F
100
AcDbEntity
  8
SLD-0
  6
CENTER
 62
   179
100
AcDbLine
 10
133.84244
 20
171.09187
 30
0.0
 11
133.84244
 21
161.01187
 31
0.0
  0
LINE
  5
1BF
330
1F
100
AcDbEntity
  8
SLD-0
  6
CENTER
 62
   179
100
AcDbLine
 10
128.80246
 20
166.05188
 30
0.0
 11
138.88245
 21
166.05188
 31
0.0
  0
LINE
  5
1C0
330
1F
100
AcDbEntity
  8
SLD-0
  6
Continuous
 62
   179
100
AcDbLine
 10
111.84244
 20
160.05188
 30
0.0
 11
298.84244
 21
160.05188
 31
0.0
  0
LINE
  5
1C1
330
1F
100
AcDbEntity
  8
SLD-0
  6
Continuous
 62
   179
100
AcDbLine
 10
111.84244
 20
158.00188
 30
0.0
 11
298.84244
 21
158.00188
 31
0.0
  0
LINE
  5
1C2
330
1F
100
AcDbEntity
  8
SLD-0
  6
Continuous
 62
   179
100
AcDbLine
 10
111.84244
 20
155.00188
 30
0.0
 11
298.84244
 21
155.00188
 31
0.0
  0
LINE
  5
1C3
330
1F
100
AcDbEntity
  8
SLD-0
  6
CENTER
 62
   179
100
AcDbLine
 10
133.84244
 20
132.05187
 30
0.0
 11
133.84244
 21
144.05188
 31
0.0
  0
LINE
  5
1C4
330
1F
100
AcDbEntity
  8
SLD-0
  6
CENTER
 62
   179
100
AcDbLine
 10
127.34244
 20
138.05187
 30
0.0
 11
139.34244
 21
138.05187
 31
0.0
  0
LINE
  5
1C5
330
1F
100
AcDbEntity
  8
SLD-0
  6
Continuous
 62
   179
100
AcDbLine
 10
111.84244
 20
172.58778
 30
0.0
 11
298.84244
 21
172.58778
 31
0.0
  0
LINE
  5
1C6
330
1F
100
AcDbEntity
  8
SLD-0
  6
Continuous
 62
   179
100
AcDbLine
 10
111.84244
 20
191.05188
 30
0.0
 11
111.84244
 21
113.05186
 31
0.0
  0
LINE
  5
1C7
330
1F
100
AcDbEntity
  8
SLD-0
  6
Continuous
 62
   179
100
AcDbLine
 10
111.84244
 20
181.58778
 30
0.0
 11
298.84244
 21
181.58778
 31
0.0
  0
LINE
  5
1C8
330
1F
100
AcDbEntity
  8
SLD-0
  6
Continuous
 62
   179
100
AcDbLine
 10
104.84247
 20
131.05186
 30
0.0
 11
111.84244
 21
131.05186
 31
0.0
  0
LINE
  5
1C9
330
1F
100
AcDbEntity
  8
SLD-0
  6
Continuous
 62
   179
100
AcDbLine
 10
104.84247
 20
185.05188
 30
0.0
 11
111.84244
 21
185.05188
 31
0.0
  0
LINE
  5
1CA
330
1F
100
AcDbEntity
  8
SLD-0
  6
Continuous
 62
   179
100
AcDbLine
 10
104.84247
 20
173.05188
 30
0.0
 11
111.84244
 21
173.05188
 31
0.0
  0
LINE
  5
1CB
330
1F
100
AcDbEntity
  8
SLD-0
  6
Continuous
 62
   179
100
AcDbLine
 10
111.84244
 20
180.08778
 30
0.0
 11
298.84244
 21
180.08778
 31
0.0
  0
LINE
  5
1CC
330
1F
100
AcDbEntity
  8
SLD-0
  6
Continuous
 62
   179
100
AcDbLine
 10
111.84244
 20
171.08778
 30
0.0
 11
298.84244
 21
171.08778
 31
0.0
  0
LINE
  5
1CD
330
1F
100
AcDbEntity
  8
SLD-0
  6
Continuous
 62
   179
100
AcDbLine
 10
94.84247
 20
189.05188
 30
0.0
 11
94.84247
 21
115.05186
 31
0.0
  0
LINE
  5
1CE
330
1F
100
AcDbEntity
  8
SLD-0
  6
Continuous
 62
   179
100
AcDbLine
 10
94.84247
 20
189.05188
 30
0.0
 11
104.84247
 21
189.05188
 31
0.0
  0
LINE
  5
1CF
330
1F
100
AcDbEntity
  8
SLD-0
  6
Continuous
 62
   179
100
AcDbLine
 10
94.84247
 20
115.05186
 30
0.0
 11
104.84247
 21
115.05186
 31
0.0
  0
LINE
  5
1D0
330
1F
100
AcDbEntity
  8
SLD-0
  6
Continuous
 62
   179
100
AcDbLine
 10
104.84247
 20
119.05186
 30
0.0
 11
111.84244
 21
119.05186
 31
0.0
  0
LINE
  5
1D1
330
1F
100
AcDbEntity
  8
SLD-0
  6
Continuous
 62
   179
100
AcDbLine
 10
111.84244
 20
183.58778
 30
0.0
 11
298.84244
 21
183.58778
 31
0.0
  0
LINE
  5
1D2
330
1F
100
AcDbEntity
  8
SLD-0
  6
CENTER
 62
   179
100
AcDbLine
 10
94.80249
 20
169.05188
 30
0.0
 11
104.88248
 21
169.05188
 31
0.0
  0
LINE
  5
1D3
330
1F
100
AcDbEntity
  8
SLD-0
  6
Continuous
 62
   179
100
AcDbLine
 10
111.84244
 20
157.05188
 30
0.0
 11
104.84247
 21
157.05188
 31
0.0
  0
LINE
  5
1D4
330
1F
100
AcDbEntity
  8
SLD-0
  6
Continuous
 62
   179
100
AcDbLine
 10
111.84244
 20
147.05188
 30
0.0
 11
104.84247
 21
147.05188
 31
0.0
  0
LINE
  5
1D5
330
1F
100
AcDbEntity
  8
SLD-0
  6
Continuous
 62
   179
100
AcDbLine
 10
111.84244
 20
149.05188
 30
0.0
 11
104.84247
 21
149.05188
 31
0.0
  0
LINE
  5
1D6
330
1F
100
AcDbEntity
  8
SLD-0
  6
Continuous
 62
   179
100
AcDbLine
 10
111.84244
 20
155.05188
 30
0.0
 11
104.84247
 21
155.05188
 31
0.0
  0
LINE
  5
1D7
330
1F
100
AcDbEntity
  8
SLD-0
  6
Continuous
 62
   179
100
AcDbLine
 10
111.84244
 20
154.4365
 30
0.0
 11
104.84244
 21
149.05188
 31
0.0
  0
LINE
  5
1D8
330
1F
100
AcDbEntity
  8
SLD-0
  6
Continuous
 62
   179
100
AcDbLine
 10
104.84244
 20
155.05188
 30
0.0
 11
111.84244
 21
149.66727
 31
0.0
  0
LINE
  5
1D9
330
1F
100
AcDbEntity
  8
SLD-0
  6
Continuous
 62
   179
100
AcDbLine
 10
104.84247
 20
189.05188
 30
0.0
 11
104.84247
 21
115.05186
 31
0.0
  0
LINE
  5
1DA
330
1F
100
AcDbEntity
  8
SLD-0
  6
Continuous
 62
   179
100
AcDbLine
 10
170.94246
 20
142.55188
 30
0.0
 11
170.7925
 21
142.55188
 31
0.0
  0
LINE
  5
1DB
330
1F
100
AcDbEntity
  8
SLD-0
  6
CENTER
 62
   179
100
AcDbLine
 10
99.84247
 20
174.09187
 30
0.0
 11
99.84247
 21
164.01187
 31
0.0
  0
LINE
  5
1DC
330
1F
100
AcDbEntity
  8
SLD-0
  6
CENTER
 62
   179
100
AcDbLine
 10
99.84247
 20
130.01188
 30
0.0
 11
99.84247
 21
140.09189
 31
0.0
  0
LINE
  5
1DD
330
1F
100
AcDbEntity
  8
SLD-0
  6
CENTER
 62
   179
100
AcDbLine
 10
94.80249
 20
135.05187
 30
0.0
 11
104.88248
 21
135.05187
 31
0.0
  0
LINE
  5
1DE
330
1F
100
AcDbEntity
  8
SLD-0
  6
CENTER
 62
   179
100
AcDbLine
 10
253.84244
 20
172.05188
 30
0.0
 11
253.84244
 21
160.05188
 31
0.0
  0
LINE
  5
1DF
330
1F
100
AcDbEntity
  8
SLD-0
  6
Continuous
 62
   179
100
AcDbLine
 10
132.84244
 20
170.05188
 30
0.0
 11
132.84244
 21
170.45187
 31
0.0
  0
LINE
  5
1E0
330
1F
100
AcDbEntity
  8
SLD-0
  6
Continuous
 62
   179
100
AcDbLine
 10
111.84244
 20
125.51596
 30
0.0
 11
298.84244
 21
125.51596
 31
0.0
  0
LINE
  5
1E1
330
1F
100
AcDbEntity
  8
SLD-0
  6
Continuous
 62
   179
100
AcDbLine
 10
111.84244
 20
128.51596
 30
0.0
 11
298.84244
 21
128.51596
 31
0.0
  0
LINE
  5
1E2
330
1F
100
AcDbEntity
  8
SLD-0
  6
Continuous
 62
   179
100
AcDbLine
 10
111.84244
 20
130.01596
 30
0.0
 11
298.84244
 21
130.01596
 31
0.0
  0
LINE
  5
1E3
330
1F
100
AcDbEntity
  8
SLD-0
  6
Continuous
 62
   179
100
AcDbLine
 10
111.84244
 20
127.01596
 30
0.0
 11
298.84244
 21
127.01596
 31
0.0
  0
LINE
  5
1E4
330
1F
100
AcDbEntity
  8
SLD-0
  6
Continuous
 62
   179
100
AcDbLine
 10
111.84244
 20
149.10188
 30
0.0
 11
298.84244
 21
149.10188
 31
0.0
  0
LINE
  5
1E5
330
1F
100
AcDbEntity
  8
SLD-0
  6
Continuous
 62
   179
100
AcDbLine
 10
111.84244
 20
131.51596
 30
0.0
 11
298.84244
 21
131.51596
 31
0.0
  0
LINE
  5
1E6
330
1F
100
AcDbEntity
  8
SLD-0
  6
Continuous
 62
   179
100
AcDbLine
 10
111.84244
 20
144.05188
 30
0.0
 11
298.84244
 21
144.05188
 31
0.0
  0
LINE
  5
1E7
330
1F
100
AcDbEntity
  8
SLD-0
  6
Continuous
 62
   179
100
AcDbLine
 10
111.84244
 20
124.01596
 30
0.0
 11
298.84244
 21
124.01596
 31
0.0
  0
LINE
  5
1E8
330
1F
100
AcDbEntity
  8
SLD-0
  6
Continuous
 62
   179
100
AcDbLine
 10
111.84244
 20
146.10188
 30
0.0
 11
298.84244
 21
146.10188
 31
0.0
  0
LINE
  5
1E9
330
1F
100
AcDbEntity
  8
SLD-0
  6
Continuous
 62
   179
100
AcDbLine
 10
111.84244
 20
122.51596
 30
0.0
 11
298.84244
 21
122.51596
 31
0.0
  0
LINE
  5
1EA
330
1F
100
AcDbEntity
  8
SLD-0
  6
Continuous
 62
   179
100
AcDbLine
 10
111.84244
 20
177.08778
 30
0.0
 11
298.84244
 21
177.08778
 31
0.0
  0
LINE
  5
1EB
330
1F
100
AcDbEntity
  8
SLD-0
  6
Continuous
 62
   179
100
AcDbLine
 10
111.84244
 20
175.58778
 30
0.0
 11
298.84244
 21
175.58778
 31
0.0
  0
LINE
  5
1EC
330
1F
100
AcDbEntity
  8
SLD-0
  6
Continuous
 62
   179
100
AcDbLine
 10
111.84244
 20
174.08778
 30
0.0
 11
298.84244
 21
174.08778
 31
0.0
  0
LINE
  5
1ED
330
1F
100
AcDbEntity
  8
SLD-0
  6
Continuous
 62
   179
100
AcDbLine
 10
111.84244
 20
178.58778
 30
0.0
 11
298.84244
 21
178.58778
 31
0.0
  0
LINE
  5
1EE
330
1F
100
AcDbEntity
  8
SLD-0
  6
Continuous
 62
   179
100
AcDbLine
 10
111.84244
 20
120.51596
 30
0.0
 11
298.84244
 21
120.51596
 31
0.0
  0
LINE
  5
1EF
330
1F
100
AcDbEntity
  8
SLD-0
  6
Continuous
 62
   179
100
AcDbLine
 10
111.84244
 20
133.01596
 30
0.0
 11
298.84244
 21
133.01596
 31
0.0
  0
LINE
  5
1F0
330
1F
100
AcDbEntity
  8
SLD-0
  6
Continuous
 62
   179
100
AcDbLine
 10
326.342438
 20
185.05188
 30
0.0
 11
326.342438
 21
173.05188
 31
0.0
  0
LINE
  5
1F1
330
1F
100
AcDbEntity
  8
SLD-0
  6
Continuous
 62
   179
100
AcDbLine
 10
326.342438
 20
119.05186
 30
0.0
 11
326.342438
 21
131.05186
 31
0.0
  0
LINE
  5
1F2
330
1F
100
AcDbEntity
  8
SLD-0
  6
Continuous
 62
   179
100
AcDbLine
 10
46.77272
 20
127.36126
 30
0.0
 11
48.77274
 21
126.20656
 31
0.0
  0
LINE
  5
1F3
330
1F
100
AcDbEntity
  8
SLD-0
  6
Continuous
 62
   179
100
AcDbLine
 10
48.77274
 20
126.20656
 30
0.0
 11
48.77274
 21
123.89716
 31
0.0
  0
LINE
  5
1F4
330
1F
100
AcDbEntity
  8
SLD-0
  6
Continuous
 62
   179
100
AcDbLine
 10
48.77273
 20
123.89715
 30
0.0
 11
46.77273
 21
122.74245
 31
0.0
  0
LINE
  5
1F5
330
1F
100
AcDbEntity
  8
SLD-0
  6
Continuous
 62
   179
100
AcDbLine
 10
46.77273
 20
122.74245
 30
0.0
 11
44.77272
 21
123.89716
 31
0.0
  0
LINE
  5
1F6
330
1F
100
AcDbEntity
  8
SLD-0
  6
Continuous
 62
   179
100
AcDbLine
 10
44.77274
 20
126.20656
 30
0.0
 11
44.77274
 21
123.89716
 31
0.0
  0
LINE
  5
1F7
330
1F
100
AcDbEntity
  8
SLD-0
  6
Continuous
 62
   179
100
AcDbLine
 10
46.77273
 20
127.36125
 30
0.0
 11
44.77273
 21
126.20655
 31
0.0
  0
LINE
  5
1F8
330
1F
100
AcDbEntity
  8
SLD-0
  6
Continuous
 62
   179
100
AcDbLine
 10
46.77273
 20
181.36128
 30
0.0
 11
48.77275
 21
180.20657
 31
0.0
  0
LINE
  5
1F9
330
1F
100
AcDbEntity
  8
SLD-0
  6
Continuous
 62
   179
100
AcDbLine
 10
48.77275
 20
180.20657
 30
0.0
 11
48.77274
 21
177.89717
 31
0.0
  0
LINE
  5
1FA
330
1F
100
AcDbEntity
  8
SLD-0
  6
Continuous
 62
   179
100
AcDbLine
 10
48.77274
 20
177.89717
 30
0.0
 11
46.77274
 21
176.74246
 31
0.0
  0
LINE
  5
1FB
330
1F
100
AcDbEntity
  8
SLD-0
  6
Continuous
 62
   179
100
AcDbLine
 10
46.77274
 20
176.74247
 30
0.0
 11
44.77273
 21
177.89717
 31
0.0
  0
LINE
  5
1FC
330
1F
100
AcDbEntity
  8
SLD-0
  6
Continuous
 62
   179
100
AcDbLine
 10
44.77274
 20
180.20657
 30
0.0
 11
44.77273
 21
177.89717
 31
0.0
  0
LINE
  5
1FD
330
1F
100
AcDbEntity
  8
SLD-0
  6
Continuous
 62
   179
100
AcDbLine
 10
46.77274
 20
181.36127
 30
0.0
 11
44.77274
 21
180.20656
 31
0.0
  0
LINE
  5
1FE
330
1F
100
AcDbEntity
  8
SLD-0
  6
Continuous
 62
   179
100
AcDbLine
 10
46.77273
 20
154.36129
 30
0.0
 11
44.77273
 21
153.20659
 31
0.0
  0
LINE
  5
1FF
330
1F
100
AcDbEntity
  8
SLD-0
  6
Continuous
 62
   179
100
AcDbLine
 10
44.77274
 20
153.20657
 30
0.0
 11
44.77274
 21
150.89717
 31
0.0
  0
LINE
  5
200
330
1F
100
AcDbEntity
  8
SLD-0
  6
Continuous
 62
   179
100
AcDbLine
 10
46.77274
 20
149.74246
 30
0.0
 11
44.77274
 21
150.89717
 31
0.0
  0
LINE
  5
201
330
1F
100
AcDbEntity
  8
SLD-0
  6
Continuous
 62
   179
100
AcDbLine
 10
48.77273
 20
150.89719
 30
0.0
 11
46.77273
 21
149.74249
 31
0.0
  0
LINE
  5
202
330
1F
100
AcDbEntity
  8
SLD-0
  6
Continuous
 62
   179
100
AcDbLine
 10
48.77274
 20
153.20657
 30
0.0
 11
48.77274
 21
150.89717
 31
0.0
  0
LINE
  5
203
330
1F
100
AcDbEntity
  8
SLD-0
  6
Continuous
 62
   179
100
AcDbLine
 10
46.77273
 20
154.36128
 30
0.0
 11
48.77274
 21
153.20657
 31
0.0
  0
LINE
  5
204
330
1F
100
AcDbEntity
  8
SLD-0
  6
Continuous
 62
   179
100
AcDbLine
 10
402.875
 20
285.0
 30
0.0
 11
402.875
 21
12.0
 31
0.0
  0
LINE
  5
205
330
1F
100
AcDbEntity
  8
SLD-0
  6
Continuous
 62
   179
100
AcDbLine
 10
17.07501
 20
12.0
 30
0.0
 11
402.875
 21
12.0
 31
0.0
  0
LINE
  5
206
330
1F
100
AcDbEntity
  8
SLD-0
  6
Continuous
 62
   179
100
AcDbLine
 10
17.07501
 20
285.0
 30
0.0
 11
402.875
 21
285.0
 31
0.0
  0
LINE
  5
207
330
1F
100
AcDbEntity
  8
SLD-0
  6
Continuous
 62
   179
100
AcDbLine
 10
17.07501
 20
285.0
 30
0.0
 11
17.07501
 21
12.0
 31
0.0
  0
LINE
  5
208
330
1F
100
AcDbEntity
  8
SLD-0
  6
CENTER
 62
   179
100
AcDbLine
 10
70.46131
 20
63.025916
 30
0.0
 11
60.10808
 21
42.664562
 31
0.0
  0
LINE
  5
209
330
1F
100
AcDbEntity
  8
SLD-0
  6
CENTER
 62
   179
100
AcDbLine
 10
68.67854
 20
63.93241
 30
0.0
 11
57.86438
 21
42.664559
 31
0.0
  0
LINE
  5
20A
330
1F
100
AcDbEntity
  8
SLD-0
  6
PHANTOM
 62
   179
100
AcDbLine
 10
68.18637
 20
58.551853
 30
0.0
 11
92.60266
 21
58.551853
 31
0.0
  0
LINE
  5
20B
330
1F
100
AcDbEntity
  8
SLD-0
  6
PHANTOM
 62
   179
100
AcDbLine
 10
62.08469
 20
46.551861
 30
0.0
 11
92.60266
 21
46.551861
 31
0.0
  0
LINE
  5
20C
330
1F
100
AcDbEntity
  8
SLD-0
  6
Continuous
 62
   179
100
AcDbLine
 10
334.375
 20
50.700001
 30
0.0
 11
334.375
 21
12.0
 31
0.0
  0
LINE
  5
20D
330
1F
100
AcDbEntity
  8
SLD-0
  6
Continuous
 62
   179
100
AcDbLine
 10
334.375
 20
24.7
 30
0.0
 11
402.875
 21
24.7
 31
0.0
  0
LINE
  5
20E
330
1F
100
AcDbEntity
  8
SLD-0
  6
Continuous
 62
   179
100
AcDbLine
 10
334.375
 20
37.200001
 30
0.0
 11
402.875
 21
37.200001
 31
0.0
  0
LINE
  5
20F
330
1F
100
AcDbEntity
  8
SLD-0
  6
Continuous
 62
   179
100
AcDbLine
 10
334.375
 20
50.700001
 30
0.0
 11
402.875
 21
50.700001
 31
0.0
  0
LINE
  5
210
330
1F
100
AcDbEntity
  8
SLD-0
  6
Continuous
 62
   179
100
AcDbLine
 10
17.27499
 20
12.2
 30
0.0
 11
402.675
 21
12.2
 31
0.0
  0
LINE
  5
211
330
1F
100
AcDbEntity
  8
SLD-0
  6
Continuous
 62
   179
100
AcDbLine
 10
17.27499
 20
284.79999
 30
0.0
 11
17.27499
 21
12.2
 31
0.0
  0
LINE
  5
212
330
1F
100
AcDbEntity
  8
SLD-0
  6
Continuous
 62
   179
100
AcDbLine
 10
17.27499
 20
284.79999
 30
0.0
 11
402.675
 21
284.79999
 31
0.0
  0
LINE
  5
213
330
1F
100
AcDbEntity
  8
SLD-0
  6
Continuous
 62
   179
100
AcDbLine
 10
402.675
 20
284.79999
 30
0.0
 11
402.675
 21
12.2
 31
0.0
  0
LINE
  5
214
330
1F
100
AcDbEntity
  8
SLD-0
  6
CENTER
 62
   179
100
AcDbLine
 10
124.84244
 20
143.09186
 30
0.0
 11
124.84244
 21
133.01186
 31
0.0
  0
LINE
  5
215
330
1F
100
AcDbEntity
  8
SLD-0
  6
CENTER
 62
   179
100
AcDbLine
 10
119.80246
 20
138.05186
 30
0.0
 11
129.88245
 21
138.05186
 31
0.0
  0
LINE
  5
216
330
1F
100
AcDbEntity
  8
SLD-0
  6
CENTER
 62
   179
100
AcDbLine
 10
289.34244
 20
143.09186
 30
0.0
 11
289.34244
 21
133.01186
 31
0.0
  0
LINE
  5
217
330
1F
100
AcDbEntity
  8
SLD-0
  6
CENTER
 62
   179
100
AcDbLine
 10
284.30244
 20
138.05186
 30
0.0
 11
294.38244
 21
138.05186
 31
0.0
  0
LINE
  5
218
330
1F
100
AcDbEntity
  8
SLD-0
  6
CENTER
 62
   179
100
AcDbLine
 10
99.27798
 20
179.05188
 30
0.0
 11
331.595116
 21
179.05188
 31
0.0
  0
LINE
  5
219
330
1F
100
AcDbEntity
  8
SLD-0
  6
CENTER
 62
   179
100
AcDbLine
 10
99.27798
 20
125.05187
 30
0.0
 11
331.595116
 21
125.05187
 31
0.0
  0
LINE
  5
21A
330
1F
100
AcDbEntity
  8
SLD-0
  6
Continuous
 62
   179
100
AcDbLine
 10
24.8425
 20
76.682449
 30
0.0
 11
94.8425
 21
76.682449
 31
0.0
  0
LINE
  5
21B
330
1F
100
AcDbEntity
  8
SLD-0
  6
Continuous
 62
   179
100
AcDbLine
 10
24.8425
 20
76.682449
 30
0.0
 11
27.8425
 21
77.682449
 31
0.0
  0
LINE
  5
21C
330
1F
100
AcDbEntity
  8
SLD-0
  6
Continuous
 62
   179
100
AcDbLine
 10
24.8425
 20
76.682449
 30
0.0
 11
27.8425
 21
75.682449
 31
0.0
  0
LINE
  5
21D
330
1F
100
AcDbEntity
  8
SLD-0
  6
Continuous
 62
   179
100
AcDbLine
 10
94.8425
 20
76.682449
 30
0.0
 11
91.8425
 21
75.682449
 31
0.0
  0
LINE
  5
21E
330
1F
100
AcDbEntity
  8
SLD-0
  6
Continuous
 62
   179
100
AcDbLine
 10
94.8425
 20
76.682449
 30
0.0
 11
91.8425
 21
77.682449
 31
0.0
  0
LINE
  5
21F
330
1F
100
AcDbEntity
  8
SLD-0
  6
Continuous
 62
   179
100
AcDbLine
 10
24.8425
 20
67.051846
 30
0.0
 11
24.8425
 21
78.968452
 31
0.0
  0
LINE
  5
220
330
1F
100
AcDbEntity
  8
SLD-0
  6
Continuous
 62
   179
100
AcDbLine
 10
94.8425
 20
67.051849
 30
0.0
 11
94.8425
 21
78.968452
 31
0.0
  0
CIRCLE
  5
221
330
1F
100
AcDbEntity
  8
SLD-0
  6
Continuous
 62
   179
100
AcDbCircle
 10
251.84244
 20
40.551857
 30
0.0
 40
2.5
  0
CIRCLE
  5
222
330
1F
100
AcDbEntity
  8
SLD-0
  6
Continuous
 62
   179
100
AcDbCircle
 10
251.84244
 20
40.551857
 30
0.0
 40
2.0
  0
CIRCLE
  5
223
330
1F
100
AcDbEntity
  8
SLD-0
  6
Continuous
 62
   179
100
AcDbCircle
 10
116.84244
 20
40.551857
 30
0.0
 40
2.5
  0
CIRCLE
  5
224
330
1F
100
AcDbEntity
  8
SLD-0
  6
Continuous
 62
   179
100
AcDbCircle
 10
116.84244
 20
40.551857
 30
0.0
 40
2.0
  0
CIRCLE
  5
225
330
1F
100
AcDbEntity
  8
SLD-0
  6
Continuous
 62
   179
100
AcDbCircle
 10
280.34244
 20
64.551857
 30
0.0
 40
3.900000100000057
  0
CIRCLE
  5
226
330
1F
100
AcDbEntity
  8
SLD-0
  6
Continuous
 62
   179
100
AcDbCircle
 10
124.84244
 20
64.551857
 30
0.0
 40
3.9000001
  0
CIRCLE
  5
227
330
1F
100
AcDbEntity
  8
SLD-0
  6
Continuous
 62
   179
100
AcDbCircle
 10
251.84244
 20
231.81903
 30
0.0
 40
2.5
  0
CIRCLE
  5
228
330
1F
100
AcDbEntity
  8
SLD-0
  6
Continuous
 62
   179
100
AcDbCircle
 10
116.84244
 20
231.81903
 30
0.0
 40
2.5
  0
CIRCLE
  5
229
330
1F
100
AcDbEntity
  8
SLD-0
  6
Continuous
 62
   179
100
AcDbCircle
 10
116.84244
 20
231.81903
 30
0.0
 40
2.0
  0
CIRCLE
  5
22A
330
1F
100
AcDbEntity
  8
SLD-0
  6
Continuous
 62
   179
100
AcDbCircle
 10
251.84244
 20
231.81903
 30
0.0
 40
2.0
  0
CIRCLE
  5
22B
330
1F
100
AcDbEntity
  8
SLD-0
  6
Continuous
 62
   179
100
AcDbCircle
 10
251.84244
 20
255.81903
 30
0.0
 40
2.5
  0
CIRCLE
  5
22C
330
1F
100
AcDbEntity
  8
SLD-0
  6
Continuous
 62
   179
100
AcDbCircle
 10
251.84244
 20
255.81903
 30
0.0
 40
2.0
  0
CIRCLE
  5
22D
330
1F
100
AcDbEntity
  8
SLD-0
  6
Continuous
 62
   179
100
AcDbCircle
 10
116.84244
 20
255.81903
 30
0.0
 40
2.5
  0
CIRCLE
  5
22E
330
1F
100
AcDbEntity
  8
SLD-0
  6
Continuous
 62
   179
100
AcDbCircle
 10
116.84244
 20
255.81903
 30
0.0
 40
2.0
  0
ARC
  5
22F
330
1F
100
AcDbEntity
  8
SLD-0
  6
Continuous
 62
   179
100
AcDbCircle
 10
379.240324
 20
154.701874995
 30
0.0
 40
0.3000050050000027
100
AcDbArc
 50
0.0
 51
90.0
  0
ARC
  5
230
330
1F
100
AcDbEntity
  8
SLD-0
  6
Continuous
 62
   179
100
AcDbCircle
 10
379.240324
 20
145.801879995
 30
0.0
 40
0.3000000049999869
100
AcDbArc
 50
0.0
 51
90.0
  0
ARC
  5
231
330
1F
100
AcDbEntity
  8
SLD-0
  6
Continuous
 62
   179
100
AcDbCircle
 10
380.5403142487
 20
159.0518398051
 30
0.0
 40
1.0
100
AcDbArc
 50
90.0
 51
180.0
  0
ARC
  5
232
330
1F
100
AcDbEntity
  8
SLD-0
  6
Continuous
 62
   179
100
AcDbCircle
 10
346.54031
 20
145.051872
 30
0.0
 40
1.0
100
AcDbArc
 50
270.0
 51
0.0
  0
ARC
  5
233
330
1F
100
AcDbEntity
  8
SLD-0
  6
Continuous
 62
   179
100
AcDbCircle
 10
346.54031
 20
159.05188
 30
0.0
 40
1.0
100
AcDbArc
 50
0.0
 51
90.0
  0
ARC
  5
234
330
1F
100
AcDbEntity
  8
SLD-0
  6
Continuous
 62
   179
100
AcDbCircle
 10
380.5403108666
 20
145.0518814771
 30
0.0
 40
1.0
100
AcDbArc
 50
180.0
 51
270.0
  0
ARC
  5
235
330
1F
100
AcDbEntity
  8
SLD-0
  6
Continuous
 62
   179
100
AcDbCircle
 10
347.840298
 20
145.801879995
 30
0.0
 40
0.3000000050000199
100
AcDbArc
 50
90.0
 51
180.0
  0
ARC
  5
236
330
1F
100
AcDbEntity
  8
SLD-0
  6
Continuous
 62
   179
100
AcDbCircle
 10
347.840298
 20
154.701874995
 30
0.0
 40
0.3000050050000073
100
AcDbArc
 50
90.0
 51
180.0
  0
ARC
  5
237
330
1F
100
AcDbEntity
  8
SLD-0
  6
Continuous
 62
   179
100
AcDbCircle
 10
349.029507
 20
145.801879995
 30
0.0
 40
0.3000000049999585
100
AcDbArc
 50
49.992241
 51
90.0
  0
ARC
  5
238
330
1F
100
AcDbEntity
  8
SLD-0
  6
Continuous
 62
   179
100
AcDbCircle
 10
349.029507
 20
149.401885005
 30
0.0
 40
0.3000050050000027
100
AcDbArc
 50
270.0
 51
310.00776
  0
ARC
  5
239
330
1F
100
AcDbEntity
  8
SLD-0
  6
Continuous
 62
   179
100
AcDbCircle
 10
350.540308242
 20
147.6018779005
 30
0.0
 40
2.050002729551578
100
AcDbArc
 50
229.9920647141
 51
130.00776
  0
ARC
  5
23A
330
1F
100
AcDbEntity
  8
SLD-0
  6
Continuous
 62
   179
100
AcDbCircle
 10
347.840298
 20
149.401885005
 30
0.0
 40
0.3000050050000311
100
AcDbArc
 50
180.0
 51
270.0
  0
ARC
  5
23B
330
1F
100
AcDbEntity
  8
SLD-0
  6
Continuous
 62
   179
100
AcDbCircle
 10
350.5403082419
 20
156.5018848291
 30
0.0
 40
2.049999999999983
100
AcDbArc
 50
229.99224
 51
130.00776
  0
ARC
  5
23C
330
1F
100
AcDbEntity
  8
SLD-0
  6
Continuous
 62
   179
100
AcDbCircle
 10
349.029507
 20
154.701874995
 30
0.0
 40
0.3000050049999923
100
AcDbArc
 50
49.992245
 51
90.0
  0
ARC
  5
23D
330
1F
100
AcDbEntity
  8
SLD-0
  6
Continuous
 62
   179
100
AcDbCircle
 10
349.029507
 20
158.3018827346
 30
0.0
 40
0.3000027345795218
100
AcDbArc
 50
270.0
 51
310.0089567685
  0
ARC
  5
23E
330
1F
100
AcDbEntity
  8
SLD-0
  6
Continuous
 62
   179
100
AcDbCircle
 10
378.051115
 20
149.401885005
 30
0.0
 40
0.3000050050000311
100
AcDbArc
 50
229.99224
 51
270.0
  0
CIRCLE
  5
23F
330
1F
100
AcDbEntity
  8
SLD-0
  6
Continuous
 62
   179
100
AcDbCircle
 10
54.77274
 20
120.05186
 30
0.0
 40
2.500000000000007
  0
CIRCLE
  5
240
330
1F
100
AcDbEntity
  8
SLD-0
  6
Continuous
 62
   179
100
AcDbCircle
 10
54.77274
 20
120.05186
 30
0.0
 40
2.0
  0
CIRCLE
  5
241
330
1F
100
AcDbEntity
  8
SLD-0
  6
Continuous
 62
   179
100
AcDbCircle
 10
38.77274
 20
120.05186
 30
0.0
 40
2.5
  0
CIRCLE
  5
242
330
1F
100
AcDbEntity
  8
SLD-0
  6
Continuous
 62
   179
100
AcDbCircle
 10
38.77274
 20
120.05186
 30
0.0
 40
2.0
  0
CIRCLE
  5
243
330
1F
100
AcDbEntity
  8
SLD-0
  6
Continuous
 62
   179
100
AcDbCircle
 10
38.77274
 20
184.05188
 30
0.0
 40
2.5
  0
CIRCLE
  5
244
330
1F
100
AcDbEntity
  8
SLD-0
  6
Continuous
 62
   179
100
AcDbCircle
 10
38.77274
 20
184.05188
 30
0.0
 40
2.0
  0
CIRCLE
  5
245
330
1F
100
AcDbEntity
  8
SLD-0
  6
Continuous
 62
   179
100
AcDbCircle
 10
54.77274
 20
184.05188
 30
0.0
 40
2.500000000000007
  0
CIRCLE
  5
246
330
1F
100
AcDbEntity
  8
SLD-0
  6
Continuous
 62
   179
100
AcDbCircle
 10
54.77274
 20
184.05188
 30
0.0
 40
2.0
  0
CIRCLE
  5
247
330
1F
100
AcDbEntity
  8
SLD-0
  6
Continuous
 62
   179
100
AcDbCircle
 10
373.540312
 20
186.05188
 30
0.0
 40
2.066999899999985
  0
CIRCLE
  5
248
330
1F
100
AcDbEntity
  8
SLD-0
  6
Continuous
 62
   179
100
AcDbCircle
 10
373.540312
 20
186.05188
 30
0.0
 40
2.5
  0
CIRCLE
  5
249
330
1F
100
AcDbEntity
  8
SLD-0
  6
Continuous
 62
   179
100
AcDbCircle
 10
353.54031
 20
118.05187
 30
0.0
 40
2.066999899999985
  0
CIRCLE
  5
24A
330
1F
100
AcDbEntity
  8
SLD-0
  6
Continuous
 62
   179
100
AcDbCircle
 10
353.54031
 20
186.05188
 30
0.0
 40
2.5
  0
CIRCLE
  5
24B
330
1F
100
AcDbEntity
  8
SLD-0
  6
Continuous
 62
   179
100
AcDbCircle
 10
363.54031
 20
152.05188
 30
0.0
 40
10.0
  0
CIRCLE
  5
24C
330
1F
100
AcDbEntity
  8
SLD-0
  6
Continuous
 62
   179
100
AcDbCircle
 10
373.540312
 20
118.05187
 30
0.0
 40
2.5
  0
CIRCLE
  5
24D
330
1F
100
AcDbEntity
  8
SLD-0
  6
Continuous
 62
   179
100
AcDbCircle
 10
363.54031
 20
125.05186
 30
0.0
 40
7.0
  0
CIRCLE
  5
24E
330
1F
100
AcDbEntity
  8
SLD-0
  6
Continuous
 62
   179
100
AcDbCircle
 10
373.540312
 20
118.05187
 30
0.0
 40
2.066999899999985
  0
CIRCLE
  5
24F
330
1F
100
AcDbEntity
  8
SLD-0
  6
Continuous
 62
   179
100
AcDbCircle
 10
363.54031
 20
179.05188
 30
0.0
 40
7.0
  0
CIRCLE
  5
250
330
1F
100
AcDbEntity
  8
SLD-0
  6
Continuous
 62
   179
100
AcDbCircle
 10
353.54031
 20
118.05187
 30
0.0
 40
2.5
  0
CIRCLE
  5
251
330
1F
100
AcDbEntity
  8
SLD-0
  6
Continuous
 62
   179
100
AcDbCircle
 10
353.54031
 20
186.05188
 30
0.0
 40
2.066999899999985
  0
ARC
  5
252
330
1F
100
AcDbEntity
  8
SLD-0
  6
Continuous
 62
   179
100
AcDbCircle
 10
380.7403103666
 20
132.8159614771
 30
0.0
 40
0.1999995000000467
100
AcDbArc
 50
90.0
 51
180.0
  0
ARC
  5
253
330
1F
100
AcDbEntity
  8
SLD-0
  6
Continuous
 62
   179
100
AcDbCircle
 10
380.8403103666
 20
124.2159614771
 30
0.0
 40
0.2000005000000016
100
AcDbArc
 50
270.0
 51
0.0
  0
ARC
  5
254
330
1F
100
AcDbEntity
  8
SLD-0
  6
Continuous
 62
   179
100
AcDbCircle
 10
380.7403103666
 20
129.8159614771
 30
0.0
 40
0.1999995000000467
100
AcDbArc
 50
90.0
 51
180.0
  0
ARC
  5
255
330
1F
100
AcDbEntity
  8
SLD-0
  6
Continuous
 62
   179
100
AcDbCircle
 10
380.7403103666
 20
128.7159614771
 30
0.0
 40
0.1999995000000467
100
AcDbArc
 50
180.0
 51
270.0
  0
ARC
  5
256
330
1F
100
AcDbEntity
  8
SLD-0
  6
Continuous
 62
   179
100
AcDbCircle
 10
380.8403103666
 20
125.3159614771
 30
0.0
 40
0.20000050000003
100
AcDbArc
 50
0.0
 51
90.0
  0
ARC
  5
257
330
1F
100
AcDbEntity
  8
SLD-0
  6
Continuous
 62
   179
100
AcDbCircle
 10
380.7403103666
 20
123.8159614771
 30
0.0
 40
0.1999995000000467
100
AcDbArc
 50
90.0
 51
180.0
  0
ARC
  5
258
330
1F
100
AcDbEntity
  8
SLD-0
  6
Continuous
 62
   179
100
AcDbCircle
 10
380.7403103666
 20
125.7159614771
 30
0.0
 40
0.1999995000000467
100
AcDbArc
 50
180.0
 51
270.0
  0
ARC
  5
259
330
1F
100
AcDbEntity
  8
SLD-0
  6
Continuous
 62
   179
100
AcDbCircle
 10
380.8403103666
 20
130.2159614771
 30
0.0
 40
0.2000005000000442
100
AcDbArc
 50
270.0
 51
0.0
  0
ARC
  5
25A
330
1F
100
AcDbEntity
  8
SLD-0
  6
Continuous
 62
   179
100
AcDbCircle
 10
380.8403137487
 20
172.7877498051
 30
0.0
 40
0.2000005000000442
100
AcDbArc
 50
270.0
 51
0.0
  0
ARC
  5
25B
330
1F
100
AcDbEntity
  8
SLD-0
  6
Continuous
 62
   179
100
AcDbCircle
 10
380.7403103666
 20
126.8159614771
 30
0.0
 40
0.1999995000000467
100
AcDbArc
 50
90.0
 51
180.0
  0
ARC
  5
25C
330
1F
100
AcDbEntity
  8
SLD-0
  6
Continuous
 62
   179
100
AcDbCircle
 10
380.8403103666
 20
122.3159614771
 30
0.0
 40
0.2000005000000158
100
AcDbArc
 50
0.0
 51
90.0
  0
ARC
  5
25D
330
1F
100
AcDbEntity
  8
SLD-0
  6
Continuous
 62
   179
100
AcDbCircle
 10
380.7403137487
 20
181.3877848051
 30
0.0
 40
0.1999945000000309
100
AcDbArc
 50
90.0
 51
180.0
  0
ARC
  5
25E
330
1F
100
AcDbEntity
  8
SLD-0
  6
Continuous
 62
   179
100
AcDbCircle
 10
380.8403137487
 20
181.7877798051
 30
0.0
 40
0.2000005000000442
100
AcDbArc
 50
270.0
 51
0.0
  0
ARC
  5
25F
330
1F
100
AcDbEntity
  8
SLD-0
  6
Continuous
 62
   179
100
AcDbCircle
 10
380.7403103666
 20
122.7159614771
 30
0.0
 40
0.1999995000000467
100
AcDbArc
 50
180.0
 51
270.0
  0
ARC
  5
260
330
1F
100
AcDbEntity
  8
SLD-0
  6
Continuous
 62
   179
100
AcDbCircle
 10
380.7403187487
 20
177.2877648051
 30
0.0
 40
0.1999995000000467
100
AcDbArc
 50
180.0
 51
270.0
  0
ARC
  5
261
330
1F
100
AcDbEntity
  8
SLD-0
  6
Continuous
 62
   179
100
AcDbCircle
 10
380.8403187487
 20
173.8877598051
 30
0.0
 40
0.1999955000000568
100
AcDbArc
 50
0.0
 51
90.0
  0
ARC
  5
262
330
1F
100
AcDbEntity
  8
SLD-0
  6
Continuous
 62
   179
100
AcDbCircle
 10
380.7403137487
 20
178.3877748051
 30
0.0
 40
0.1999945000000309
100
AcDbArc
 50
90.0
 51
180.0
  0
ARC
  5
263
330
1F
100
AcDbEntity
  8
SLD-0
  6
Continuous
 62
   179
100
AcDbCircle
 10
380.7403187487
 20
180.2877748051
 30
0.0
 40
0.1999995000000467
100
AcDbArc
 50
180.0
 51
270.0
  0
ARC
  5
264
330
1F
100
AcDbEntity
  8
SLD-0
  6
Continuous
 62
   179
100
AcDbCircle
 10
380.8403137487
 20
178.7877698051
 30
0.0
 40
0.2000005000000442
100
AcDbArc
 50
270.0
 51
0.0
  0
ARC
  5
265
330
1F
100
AcDbEntity
  8
SLD-0
  6
Continuous
 62
   179
100
AcDbCircle
 10
380.7403137487
 20
175.3877648051
 30
0.0
 40
0.1999945000000594
100
AcDbArc
 50
90.0
 51
180.0
  0
ARC
  5
266
330
1F
100
AcDbEntity
  8
SLD-0
  6
Continuous
 62
   179
100
AcDbCircle
 10
380.7403187487
 20
174.2877548051
 30
0.0
 40
0.1999995000000183
100
AcDbArc
 50
180.0
 51
270.0
  0
ARC
  5
267
330
1F
100
AcDbEntity
  8
SLD-0
  6
Continuous
 62
   179
100
AcDbCircle
 10
380.8403187487
 20
179.8877798051
 30
0.0
 40
0.1999955000000568
100
AcDbArc
 50
0.0
 51
90.0
  0
ARC
  5
268
330
1F
100
AcDbEntity
  8
SLD-0
  6
Continuous
 62
   179
100
AcDbCircle
 10
380.7403187487
 20
171.2877448051
 30
0.0
 40
0.1999995000000183
100
AcDbArc
 50
180.0
 51
270.0
  0
ARC
  5
269
330
1F
100
AcDbEntity
  8
SLD-0
  6
Continuous
 62
   179
100
AcDbCircle
 10
346.2403055
 20
173.887798
 30
0.0
 40
0.1999955000000568
100
AcDbArc
 50
90.0
 51
180.0
  0
ARC
  5
26A
330
1F
100
AcDbEntity
  8
SLD-0
  6
Continuous
 62
   179
100
AcDbCircle
 10
346.2403055
 20
179.887814
 30
0.0
 40
0.1999955
100
AcDbArc
 50
90.0
 51
180.0
  0
ARC
  5
26B
330
1F
100
AcDbEntity
  8
SLD-0
  6
Continuous
 62
   179
100
AcDbCircle
 10
346.2403105
 20
172.787788
 30
0.0
 40
0.2000005000000158
100
AcDbArc
 50
180.0
 51
270.0
  0
ARC
  5
26C
330
1F
100
AcDbEntity
  8
SLD-0
  6
Continuous
 62
   179
100
AcDbCircle
 10
346.3403075
 20
177.2878
 30
0.0
 40
0.1999984999999924
100
AcDbArc
 50
270.0
 51
0.0
  0
ARC
  5
26D
330
1F
100
AcDbEntity
  8
SLD-0
  6
Continuous
 62
   179
100
AcDbCircle
 10
346.2403105
 20
181.787812
 30
0.0
 40
0.2000005000000158
100
AcDbArc
 50
180.0
 51
270.0
  0
ARC
  5
26E
330
1F
100
AcDbEntity
  8
SLD-0
  6
Continuous
 62
   179
100
AcDbCircle
 10
346.3403075
 20
180.287808
 30
0.0
 40
0.1999984999999924
100
AcDbArc
 50
270.0
 51
0.0
  0
ARC
  5
26F
330
1F
100
AcDbEntity
  8
SLD-0
  6
Continuous
 62
   179
100
AcDbCircle
 10
346.3403125
 20
175.387802
 30
0.0
 40
0.199993500000005
100
AcDbArc
 50
0.0
 51
90.0
  0
ARC
  5
270
330
1F
100
AcDbEntity
  8
SLD-0
  6
Continuous
 62
   179
100
AcDbCircle
 10
346.3403125
 20
181.387818
 30
0.0
 40
0.199993500000005
100
AcDbArc
 50
0.0
 51
90.0
  0
ARC
  5
271
330
1F
100
AcDbEntity
  8
SLD-0
  6
Continuous
 62
   179
100
AcDbCircle
 10
346.3403125
 20
178.38781
 30
0.0
 40
0.199993500000005
100
AcDbArc
 50
0.0
 51
90.0
  0
ARC
  5
272
330
1F
100
AcDbEntity
  8
SLD-0
  6
Continuous
 62
   179
100
AcDbCircle
 10
346.3403075
 20
174.287792
 30
0.0
 40
0.1999984999999924
100
AcDbArc
 50
270.0
 51
0.0
  0
ARC
  5
273
330
1F
100
AcDbEntity
  8
SLD-0
  6
Continuous
 62
   179
100
AcDbCircle
 10
346.2403105
 20
178.787804
 30
0.0
 40
0.2000005000000158
100
AcDbArc
 50
180.0
 51
270.0
  0
ARC
  5
274
330
1F
100
AcDbEntity
  8
SLD-0
  6
Continuous
 62
   179
100
AcDbCircle
 10
346.3403075
 20
171.287784
 30
0.0
 40
0.1999984999999924
100
AcDbArc
 50
270.0
 51
0.0
  0
ARC
  5
275
330
1F
100
AcDbEntity
  8
SLD-0
  6
Continuous
 62
   179
100
AcDbCircle
 10
346.2403055
 20
176.887806
 30
0.0
 40
0.1999955000000284
100
AcDbArc
 50
90.0
 51
180.0
  0
ARC
  5
276
330
1F
100
AcDbEntity
  8
SLD-0
  6
Continuous
 62
   179
100
AcDbCircle
 10
346.2403055
 20
170.88779
 30
0.0
 40
0.1999955000000568
100
AcDbArc
 50
90.0
 51
180.0
  0
ARC
  5
277
330
1F
100
AcDbEntity
  8
SLD-0
  6
Continuous
 62
   179
100
AcDbCircle
 10
346.3403125
 20
172.387794
 30
0.0
 40
0.199993500000005
100
AcDbArc
 50
0.0
 51
90.0
  0
ARC
  5
278
330
1F
100
AcDbEntity
  8
SLD-0
  6
Continuous
 62
   179
100
AcDbCircle
 10
346.2403105
 20
175.787796
 30
0.0
 40
0.2000005000000158
100
AcDbArc
 50
180.0
 51
270.0
  0
ARC
  5
279
330
1F
100
AcDbEntity
  8
SLD-0
  6
Continuous
 62
   179
100
AcDbCircle
 10
346.2403105
 20
128.315956
 30
0.0
 40
0.2000005000000158
100
AcDbArc
 50
90.0
 51
180.0
  0
ARC
  5
27A
330
1F
100
AcDbEntity
  8
SLD-0
  6
Continuous
 62
   179
100
AcDbCircle
 10
346.3403125
 20
131.715953
 30
0.0
 40
0.199998499999964
100
AcDbArc
 50
270.0
 51
0.0
  0
ARC
  5
27B
330
1F
100
AcDbEntity
  8
SLD-0
  6
Continuous
 62
   179
100
AcDbCircle
 10
346.2403105
 20
133.215952
 30
0.0
 40
0.2000005000000158
100
AcDbArc
 50
180.0
 51
270.0
  0
ARC
  5
27C
330
1F
100
AcDbEntity
  8
SLD-0
  6
Continuous
 62
   179
100
AcDbCircle
 10
346.2403105
 20
127.215956
 30
0.0
 40
0.2000005000000158
100
AcDbArc
 50
180.0
 51
270.0
  0
ARC
  5
27D
330
1F
100
AcDbEntity
  8
SLD-0
  6
Continuous
 62
   179
100
AcDbCircle
 10
346.3403125
 20
132.815953
 30
0.0
 40
0.1999984999999924
100
AcDbArc
 50
0.0
 51
90.0
  0
ARC
  5
27E
330
1F
100
AcDbEntity
  8
SLD-0
  6
Continuous
 62
   179
100
AcDbCircle
 10
346.2403105
 20
125.315958
 30
0.0
 40
0.2000005000000442
100
AcDbArc
 50
90.0
 51
180.0
  0
ARC
  5
27F
330
1F
100
AcDbEntity
  8
SLD-0
  6
Continuous
 62
   179
100
AcDbCircle
 10
346.3403125
 20
129.815955
 30
0.0
 40
0.1999984999999924
100
AcDbArc
 50
0.0
 51
90.0
  0
ARC
  5
280
330
1F
100
AcDbEntity
  8
SLD-0
  6
Continuous
 62
   179
100
AcDbCircle
 10
346.3403125
 20
125.715957
 30
0.0
 40
0.199998499999964
100
AcDbArc
 50
270.0
 51
0.0
  0
ARC
  5
281
330
1F
100
AcDbEntity
  8
SLD-0
  6
Continuous
 62
   179
100
AcDbCircle
 10
346.3403125
 20
122.715959
 30
0.0
 40
0.1999984999999782
100
AcDbArc
 50
270.0
 51
0.0
  0
ARC
  5
282
330
1F
100
AcDbEntity
  8
SLD-0
  6
Continuous
 62
   179
100
AcDbCircle
 10
346.3403125
 20
128.715955
 30
0.0
 40
0.199998499999964
100
AcDbArc
 50
270.0
 51
0.0
  0
ARC
  5
283
330
1F
100
AcDbEntity
  8
SLD-0
  6
Continuous
 62
   179
100
AcDbCircle
 10
346.2403105
 20
122.31596
 30
0.0
 40
0.20000050000003
100
AcDbArc
 50
90.0
 51
180.0
  0
ARC
  5
284
330
1F
100
AcDbEntity
  8
SLD-0
  6
Continuous
 62
   179
100
AcDbCircle
 10
346.3403125
 20
123.815959
 30
0.0
 40
0.1999984999999924
100
AcDbArc
 50
0.0
 51
90.0
  0
ARC
  5
285
330
1F
100
AcDbEntity
  8
SLD-0
  6
Continuous
 62
   179
100
AcDbCircle
 10
346.3403125
 20
126.815957
 30
0.0
 40
0.199998499999964
100
AcDbArc
 50
0.0
 51
90.0
  0
ARC
  5
286
330
1F
100
AcDbEntity
  8
SLD-0
  6
Continuous
 62
   179
100
AcDbCircle
 10
346.2403105
 20
131.315954
 30
0.0
 40
0.2000005000000158
100
AcDbArc
 50
90.0
 51
180.0
  0
ARC
  5
287
330
1F
100
AcDbEntity
  8
SLD-0
  6
Continuous
 62
   179
100
AcDbCircle
 10
346.2403105
 20
124.215958
 30
0.0
 40
0.20000050000003
100
AcDbArc
 50
180.0
 51
270.0
  0
ARC
  5
288
330
1F
100
AcDbEntity
  8
SLD-0
  6
Continuous
 62
   179
100
AcDbCircle
 10
346.2403105
 20
130.215954
 30
0.0
 40
0.2000005000000158
100
AcDbArc
 50
180.0
 51
270.0
  0
ARC
  5
289
330
1F
100
AcDbEntity
  8
SLD-0
  6
Continuous
 62
   179
100
AcDbCircle
 10
380.8403103666
 20
131.3159614771
 30
0.0
 40
0.2000005000000442
100
AcDbArc
 50
0.0
 51
90.0
  0
ARC
  5
28A
330
1F
100
AcDbEntity
  8
SLD-0
  6
Continuous
 62
   179
100
AcDbCircle
 10
378.051115
 20
145.801879995
 30
0.0
 40
0.3000000049999585
100
AcDbArc
 50
90.0
 51
130.00776
  0
ARC
  5
28B
330
1F
100
AcDbEntity
  8
SLD-0
  6
Continuous
 62
   179
100
AcDbCircle
 10
347.840298
 20
158.301880005
 30
0.0
 40
0.3000000050000767
100
AcDbArc
 50
180.0
 51
270.0
  0
ARC
  5
28C
330
1F
100
AcDbEntity
  8
SLD-0
  6
Continuous
 62
   179
100
AcDbCircle
 10
376.540313758
 20
147.6018779005
 30
0.0
 40
2.050002729551595
100
AcDbArc
 50
49.992241
 51
310.0079351396
  0
ARC
  5
28D
330
1F
100
AcDbEntity
  8
SLD-0
  6
Continuous
 62
   179
100
AcDbCircle
 10
379.240324
 20
149.401885005
 30
0.0
 40
0.3000050050000311
100
AcDbArc
 50
270.0
 51
0.0
  0
ARC
  5
28E
330
1F
100
AcDbEntity
  8
SLD-0
  6
Continuous
 62
   179
100
AcDbCircle
 10
376.5403130057
 20
156.5018772375
 30
0.0
 40
2.050000000000006
100
AcDbArc
 50
49.992238
 51
310.00775
  0
ARC
  5
28F
330
1F
100
AcDbEntity
  8
SLD-0
  6
Continuous
 62
   179
100
AcDbCircle
 10
378.051115
 20
154.7018684357
 30
0.0
 40
0.3000115643337153
100
AcDbArc
 50
90.0
 51
130.00779729
  0
ARC
  5
290
330
1F
100
AcDbEntity
  8
SLD-0
  6
Continuous
 62
   179
100
AcDbCircle
 10
378.0511142476
 20
158.3018751429
 30
0.0
 40
0.3000027345788112
100
AcDbArc
 50
229.9910568979
 51
270.0
  0
ARC
  5
291
330
1F
100
AcDbEntity
  8
SLD-0
  6
Continuous
 62
   179
100
AcDbCircle
 10
379.2403232476
 20
158.3018724133
 30
0.0
 40
0.3000000050000153
100
AcDbArc
 50
270.0
 51
0.0
  0
ARC
  5
292
330
1F
100
AcDbEntity
  8
SLD-0
  6
Continuous
 62
   179
100
AcDbCircle
 10
380.8403137487
 20
175.7877598051
 30
0.0
 40
0.2000005000000442
100
AcDbArc
 50
270.0
 51
0.0
  0
ARC
  5
293
330
1F
100
AcDbEntity
  8
SLD-0
  6
Continuous
 62
   179
100
AcDbCircle
 10
380.8403187487
 20
170.8877498051
 30
0.0
 40
0.1999955000000284
100
AcDbArc
 50
0.0
 51
90.0
  0
ARC
  5
294
330
1F
100
AcDbEntity
  8
SLD-0
  6
Continuous
 62
   179
100
AcDbCircle
 10
380.7403137487
 20
172.3877548051
 30
0.0
 40
0.1999945000000309
100
AcDbArc
 50
90.0
 51
180.0
  0
ARC
  5
295
330
1F
100
AcDbEntity
  8
SLD-0
  6
Continuous
 62
   179
100
AcDbCircle
 10
380.8403187487
 20
176.8877698051
 30
0.0
 40
0.1999955000000568
100
AcDbArc
 50
0.0
 51
90.0
  0
ARC
  5
296
330
1F
100
AcDbEntity
  8
SLD-0
  6
Continuous
 62
   179
100
AcDbCircle
 10
380.8403103666
 20
127.2159614771
 30
0.0
 40
0.2000004999999874
100
AcDbArc
 50
270.0
 51
0.0
  0
ARC
  5
297
330
1F
100
AcDbEntity
  8
SLD-0
  6
Continuous
 62
   179
100
AcDbCircle
 10
380.7403103666
 20
131.7159614771
 30
0.0
 40
0.1999995000000467
100
AcDbArc
 50
180.0
 51
270.0
  0
ARC
  5
298
330
1F
100
AcDbEntity
  8
SLD-0
  6
Continuous
 62
   179
100
AcDbCircle
 10
380.8403103666
 20
133.2159614771
 30
0.0
 40
0.2000005000000442
100
AcDbArc
 50
270.0
 51
0.0
  0
ARC
  5
299
330
1F
100
AcDbEntity
  8
SLD-0
  6
Continuous
 62
   179
100
AcDbCircle
 10
380.8403103666
 20
128.3159614771
 30
0.0
 40
0.2000004999999874
100
AcDbArc
 50
0.0
 51
90.0
  0
ARC
  5
29A
330
1F
100
AcDbEntity
  8
SLD-0
  6
Continuous
 62
   179
100
AcDbCircle
 10
29.47275
 20
175.78778
 30
0.0
 40
0.1999999999999917
100
AcDbArc
 50
180.0
 51
270.0
  0
ARC
  5
29B
330
1F
100
AcDbEntity
  8
SLD-0
  6
Continuous
 62
   179
100
AcDbCircle
 10
29.57272
 20
172.387785
 30
0.0
 40
0.1999950000000297
100
AcDbArc
 50
0.0
 51
90.0
  0
ARC
  5
29C
330
1F
100
AcDbEntity
  8
SLD-0
  6
Continuous
 62
   179
100
AcDbCircle
 10
29.47275
 20
170.887785
 30
0.0
 40
0.1999950000000013
100
AcDbArc
 50
90.0
 51
180.0
  0
ARC
  5
29D
330
1F
100
AcDbEntity
  8
SLD-0
  6
Continuous
 62
   179
100
AcDbCircle
 10
29.47275
 20
176.887785
 30
0.0
 40
0.1999950000000297
100
AcDbArc
 50
90.0
 51
180.0
  0
ARC
  5
29E
330
1F
100
AcDbEntity
  8
SLD-0
  6
Continuous
 62
   179
100
AcDbCircle
 10
29.57272
 20
171.28778
 30
0.0
 40
0.1999999999999886
100
AcDbArc
 50
270.0
 51
0.0
  0
ARC
  5
29F
330
1F
100
AcDbEntity
  8
SLD-0
  6
Continuous
 62
   179
100
AcDbCircle
 10
29.57272
 20
174.28778
 30
0.0
 40
0.1999999999999886
100
AcDbArc
 50
270.0
 51
0.0
  0
ARC
  5
2A0
330
1F
100
AcDbEntity
  8
SLD-0
  6
Continuous
 62
   179
100
AcDbCircle
 10
29.57272
 20
181.387785
 30
0.0
 40
0.1999950000000013
100
AcDbArc
 50
0.0
 51
90.0
  0
ARC
  5
2A1
330
1F
100
AcDbEntity
  8
SLD-0
  6
Continuous
 62
   179
100
AcDbCircle
 10
29.57272
 20
175.387785
 30
0.0
 40
0.1999950000000297
100
AcDbArc
 50
0.0
 51
90.0
  0
ARC
  5
2A2
330
1F
100
AcDbEntity
  8
SLD-0
  6
Continuous
 62
   179
100
AcDbCircle
 10
29.47275
 20
181.78778
 30
0.0
 40
0.1999999999999917
100
AcDbArc
 50
180.0
 51
270.0
  0
ARC
  5
2A3
330
1F
100
AcDbEntity
  8
SLD-0
  6
Continuous
 62
   179
100
AcDbCircle
 10
29.57272
 20
177.28778
 30
0.0
 40
0.1999999999999886
100
AcDbArc
 50
270.0
 51
0.0
  0
ARC
  5
2A4
330
1F
100
AcDbEntity
  8
SLD-0
  6
Continuous
 62
   179
100
AcDbCircle
 10
29.47275
 20
172.78778
 30
0.0
 40
0.1999999999999917
100
AcDbArc
 50
180.0
 51
270.0
  0
ARC
  5
2A5
330
1F
100
AcDbEntity
  8
SLD-0
  6
Continuous
 62
   179
100
AcDbCircle
 10
29.47275
 20
173.887785
 30
0.0
 40
0.1999950000000297
100
AcDbArc
 50
90.0
 51
180.0
  0
ARC
  5
2A6
330
1F
100
AcDbEntity
  8
SLD-0
  6
Continuous
 62
   179
100
AcDbCircle
 10
64.07272
 20
173.887785
 30
0.0
 40
0.1999950000000297
100
AcDbArc
 50
0.0
 51
90.0
  0
ARC
  5
2A7
330
1F
100
AcDbEntity
  8
SLD-0
  6
Continuous
 62
   179
100
AcDbCircle
 10
64.07272
 20
179.887785
 30
0.0
 40
0.1999950000000013
100
AcDbArc
 50
0.0
 51
90.0
  0
ARC
  5
2A8
330
1F
100
AcDbEntity
  8
SLD-0
  6
Continuous
 62
   179
100
AcDbCircle
 10
64.07272
 20
172.78778
 30
0.0
 40
0.1999999999999886
100
AcDbArc
 50
270.0
 51
0.0
  0
ARC
  5
2A9
330
1F
100
AcDbEntity
  8
SLD-0
  6
Continuous
 62
   179
100
AcDbCircle
 10
63.97275
 20
177.28778
 30
0.0
 40
0.1999999999999917
100
AcDbArc
 50
180.0
 51
270.0
  0
ARC
  5
2AA
330
1F
100
AcDbEntity
  8
SLD-0
  6
Continuous
 62
   179
100
AcDbCircle
 10
64.07272
 20
181.78778
 30
0.0
 40
0.1999999999999886
100
AcDbArc
 50
270.0
 51
0.0
  0
ARC
  5
2AB
330
1F
100
AcDbEntity
  8
SLD-0
  6
Continuous
 62
   179
100
AcDbCircle
 10
63.97275
 20
180.28778
 30
0.0
 40
0.1999999999999917
100
AcDbArc
 50
180.0
 51
270.0
  0
ARC
  5
2AC
330
1F
100
AcDbEntity
  8
SLD-0
  6
Continuous
 62
   179
100
AcDbCircle
 10
63.97275
 20
175.387785
 30
0.0
 40
0.1999950000000297
100
AcDbArc
 50
90.0
 51
180.0
  0
ARC
  5
2AD
330
1F
100
AcDbEntity
  8
SLD-0
  6
Continuous
 62
   179
100
AcDbCircle
 10
63.97275
 20
181.387785
 30
0.0
 40
0.1999950000000013
100
AcDbArc
 50
90.0
 51
180.0
  0
ARC
  5
2AE
330
1F
100
AcDbEntity
  8
SLD-0
  6
Continuous
 62
   179
100
AcDbCircle
 10
63.97275
 20
178.387785
 30
0.0
 40
0.1999950000000297
100
AcDbArc
 50
90.0
 51
180.0
  0
ARC
  5
2AF
330
1F
100
AcDbEntity
  8
SLD-0
  6
Continuous
 62
   179
100
AcDbCircle
 10
63.97275
 20
174.28778
 30
0.0
 40
0.1999999999999917
100
AcDbArc
 50
180.0
 51
270.0
  0
ARC
  5
2B0
330
1F
100
AcDbEntity
  8
SLD-0
  6
Continuous
 62
   179
100
AcDbCircle
 10
64.07272
 20
178.78778
 30
0.0
 40
0.1999999999999886
100
AcDbArc
 50
270.0
 51
0.0
  0
ARC
  5
2B1
330
1F
100
AcDbEntity
  8
SLD-0
  6
Continuous
 62
   179
100
AcDbCircle
 10
63.97275
 20
171.28778
 30
0.0
 40
0.1999999999999917
100
AcDbArc
 50
180.0
 51
270.0
  0
ARC
  5
2B2
330
1F
100
AcDbEntity
  8
SLD-0
  6
Continuous
 62
   179
100
AcDbCircle
 10
64.07272
 20
176.887785
 30
0.0
 40
0.1999950000000297
100
AcDbArc
 50
0.0
 51
90.0
  0
ARC
  5
2B3
330
1F
100
AcDbEntity
  8
SLD-0
  6
Continuous
 62
   179
100
AcDbCircle
 10
64.07272
 20
170.887785
 30
0.0
 40
0.1999950000000013
100
AcDbArc
 50
0.0
 51
90.0
  0
ARC
  5
2B4
330
1F
100
AcDbEntity
  8
SLD-0
  6
Continuous
 62
   179
100
AcDbCircle
 10
63.97275
 20
172.387785
 30
0.0
 40
0.1999950000000297
100
AcDbArc
 50
90.0
 51
180.0
  0
ARC
  5
2B5
330
1F
100
AcDbEntity
  8
SLD-0
  6
Continuous
 62
   179
100
AcDbCircle
 10
64.07272
 20
175.78778
 30
0.0
 40
0.1999999999999886
100
AcDbArc
 50
270.0
 51
0.0
  0
ARC
  5
2B6
330
1F
100
AcDbEntity
  8
SLD-0
  6
Continuous
 62
   179
100
AcDbCircle
 10
33.77274
 20
156.50188
 30
0.0
 40
2.050000000000024
100
AcDbArc
 50
90.000003
 51
130.00776
  0
ARC
  5
2B7
330
1F
100
AcDbEntity
  8
SLD-0
  6
Continuous
 62
   179
100
AcDbCircle
 10
33.77274
 20
147.60188
 30
0.0
 40
2.050000000000024
100
AcDbArc
 50
90.000003
 51
130.00776
  0
ARC
  5
2B8
330
1F
100
AcDbEntity
  8
SLD-0
  6
Continuous
 62
   179
100
AcDbCircle
 10
29.47275
 20
128.31596
 30
0.0
 40
0.1999999999999917
100
AcDbArc
 50
90.0
 51
180.0
  0
ARC
  5
2B9
330
1F
100
AcDbEntity
  8
SLD-0
  6
Continuous
 62
   179
100
AcDbCircle
 10
29.57272
 20
131.71596
 30
0.0
 40
0.1999999999999886
100
AcDbArc
 50
270.0
 51
0.0
  0
ARC
  5
2BA
330
1F
100
AcDbEntity
  8
SLD-0
  6
Continuous
 62
   179
100
AcDbCircle
 10
29.47275
 20
133.21596
 30
0.0
 40
0.1999999999999917
100
AcDbArc
 50
180.0
 51
270.0
  0
ARC
  5
2BB
330
1F
100
AcDbEntity
  8
SLD-0
  6
Continuous
 62
   179
100
AcDbCircle
 10
29.47275
 20
127.21596
 30
0.0
 40
0.1999999999999917
100
AcDbArc
 50
180.0
 51
270.0
  0
ARC
  5
2BC
330
1F
100
AcDbEntity
  8
SLD-0
  6
Continuous
 62
   179
100
AcDbCircle
 10
29.57272
 20
132.81596
 30
0.0
 40
0.1999999999999886
100
AcDbArc
 50
0.0
 51
90.0
  0
ARC
  5
2BD
330
1F
100
AcDbEntity
  8
SLD-0
  6
Continuous
 62
   179
100
AcDbCircle
 10
29.57272
 20
129.81596
 30
0.0
 40
0.1999999999999886
100
AcDbArc
 50
0.0
 51
90.0
  0
ARC
  5
2BE
330
1F
100
AcDbEntity
  8
SLD-0
  6
Continuous
 62
   179
100
AcDbCircle
 10
29.57272
 20
122.71596
 30
0.0
 40
0.1999999999999886
100
AcDbArc
 50
270.0
 51
0.0
  0
ARC
  5
2BF
330
1F
100
AcDbEntity
  8
SLD-0
  6
Continuous
 62
   179
100
AcDbCircle
 10
29.57272
 20
128.71596
 30
0.0
 40
0.1999999999999886
100
AcDbArc
 50
270.0
 51
0.0
  0
ARC
  5
2C0
330
1F
100
AcDbEntity
  8
SLD-0
  6
Continuous
 62
   179
100
AcDbCircle
 10
29.47275
 20
122.31596
 30
0.0
 40
0.2000000000000028
100
AcDbArc
 50
90.0
 51
180.0
  0
ARC
  5
2C1
330
1F
100
AcDbEntity
  8
SLD-0
  6
Continuous
 62
   179
100
AcDbCircle
 10
29.57272
 20
126.81596
 30
0.0
 40
0.2000000000000028
100
AcDbArc
 50
0.0
 51
90.0
  0
ARC
  5
2C2
330
1F
100
AcDbEntity
  8
SLD-0
  6
Continuous
 62
   179
100
AcDbCircle
 10
29.47275
 20
131.31596
 30
0.0
 40
0.1999999999999917
100
AcDbArc
 50
90.0
 51
180.0
  0
ARC
  5
2C3
330
1F
100
AcDbEntity
  8
SLD-0
  6
Continuous
 62
   179
100
AcDbCircle
 10
29.47275
 20
130.21596
 30
0.0
 40
0.1999999999999917
100
AcDbArc
 50
180.0
 51
270.0
  0
ARC
  5
2C4
330
1F
100
AcDbEntity
  8
SLD-0
  6
Continuous
 62
   179
100
AcDbCircle
 10
64.07272
 20
130.21596
 30
0.0
 40
0.1999999999999886
100
AcDbArc
 50
270.0
 51
0.0
  0
ARC
  5
2C5
330
1F
100
AcDbEntity
  8
SLD-0
  6
Continuous
 62
   179
100
AcDbCircle
 10
64.07272
 20
124.21596
 30
0.0
 40
0.1999999999999886
100
AcDbArc
 50
270.0
 51
0.0
  0
ARC
  5
2C6
330
1F
100
AcDbEntity
  8
SLD-0
  6
Continuous
 62
   179
100
AcDbCircle
 10
64.07272
 20
131.31596
 30
0.0
 40
0.1999999999999886
100
AcDbArc
 50
0.0
 51
90.0
  0
ARC
  5
2C7
330
1F
100
AcDbEntity
  8
SLD-0
  6
Continuous
 62
   179
100
AcDbCircle
 10
63.97275
 20
126.81596
 30
0.0
 40
0.2000000000000028
100
AcDbArc
 50
90.0
 51
180.0
  0
ARC
  5
2C8
330
1F
100
AcDbEntity
  8
SLD-0
  6
Continuous
 62
   179
100
AcDbCircle
 10
64.07272
 20
122.31596
 30
0.0
 40
0.2000000000000028
100
AcDbArc
 50
0.0
 51
90.0
  0
ARC
  5
2C9
330
1F
100
AcDbEntity
  8
SLD-0
  6
Continuous
 62
   179
100
AcDbCircle
 10
63.97275
 20
123.81596
 30
0.0
 40
0.2000000000000028
100
AcDbArc
 50
90.0
 51
180.0
  0
ARC
  5
2CA
330
1F
100
AcDbEntity
  8
SLD-0
  6
Continuous
 62
   179
100
AcDbCircle
 10
63.97275
 20
128.71596
 30
0.0
 40
0.1999999999999917
100
AcDbArc
 50
180.0
 51
270.0
  0
ARC
  5
2CB
330
1F
100
AcDbEntity
  8
SLD-0
  6
Continuous
 62
   179
100
AcDbCircle
 10
63.97275
 20
122.71596
 30
0.0
 40
0.1999999999999917
100
AcDbArc
 50
180.0
 51
270.0
  0
ARC
  5
2CC
330
1F
100
AcDbEntity
  8
SLD-0
  6
Continuous
 62
   179
100
AcDbCircle
 10
63.97275
 20
125.71596
 30
0.0
 40
0.1999999999999917
100
AcDbArc
 50
180.0
 51
270.0
  0
ARC
  5
2CD
330
1F
100
AcDbEntity
  8
SLD-0
  6
Continuous
 62
   179
100
AcDbCircle
 10
63.97275
 20
129.81596
 30
0.0
 40
0.1999999999999917
100
AcDbArc
 50
90.0
 51
180.0
  0
ARC
  5
2CE
330
1F
100
AcDbEntity
  8
SLD-0
  6
Continuous
 62
   179
100
AcDbCircle
 10
64.07272
 20
125.31596
 30
0.0
 40
0.2000000000000028
100
AcDbArc
 50
0.0
 51
90.0
  0
ARC
  5
2CF
330
1F
100
AcDbEntity
  8
SLD-0
  6
Continuous
 62
   179
100
AcDbCircle
 10
63.97275
 20
132.81596
 30
0.0
 40
0.1999999999999917
100
AcDbArc
 50
90.0
 51
180.0
  0
ARC
  5
2D0
330
1F
100
AcDbEntity
  8
SLD-0
  6
Continuous
 62
   179
100
AcDbCircle
 10
64.07272
 20
127.21596
 30
0.0
 40
0.1999999999999886
100
AcDbArc
 50
270.0
 51
0.0
  0
ARC
  5
2D1
330
1F
100
AcDbEntity
  8
SLD-0
  6
Continuous
 62
   179
100
AcDbCircle
 10
64.07272
 20
133.21596
 30
0.0
 40
0.1999999999999886
100
AcDbArc
 50
270.0
 51
0.0
  0
ARC
  5
2D2
330
1F
100
AcDbEntity
  8
SLD-0
  6
Continuous
 62
   179
100
AcDbCircle
 10
63.97275
 20
131.71596
 30
0.0
 40
0.1999999999999917
100
AcDbArc
 50
180.0
 51
270.0
  0
ARC
  5
2D3
330
1F
100
AcDbEntity
  8
SLD-0
  6
Continuous
 62
   179
100
AcDbCircle
 10
64.07272
 20
128.31596
 30
0.0
 40
0.1999999999999886
100
AcDbArc
 50
0.0
 51
90.0
  0
ARC
  5
2D4
330
1F
100
AcDbEntity
  8
SLD-0
  6
Continuous
 62
   179
100
AcDbCircle
 10
31.07272
 20
154.701874995
 30
0.0
 40
0.3000050050000073
100
AcDbArc
 50
90.0
 51
180.0
  0
ARC
  5
2D5
330
1F
100
AcDbEntity
  8
SLD-0
  6
Continuous
 62
   179
100
AcDbCircle
 10
31.07272
 20
145.801879995
 30
0.0
 40
0.300000004999995
100
AcDbArc
 50
90.0
 51
180.0
  0
ARC
  5
2D6
330
1F
100
AcDbEntity
  8
SLD-0
  6
Continuous
 62
   179
100
AcDbCircle
 10
29.77274
 20
159.05188
 30
0.0
 40
1.0
100
AcDbArc
 50
0.0
 51
90.0
  0
ARC
  5
2D7
330
1F
100
AcDbEntity
  8
SLD-0
  6
Continuous
 62
   179
100
AcDbCircle
 10
63.77274
 20
145.05188
 30
0.0
 40
1.0
100
AcDbArc
 50
180.0
 51
270.0
  0
ARC
  5
2D8
330
1F
100
AcDbEntity
  8
SLD-0
  6
Continuous
 62
   179
100
AcDbCircle
 10
63.77274
 20
159.05188
 30
0.0
 40
1.0
100
AcDbArc
 50
90.0
 51
180.0
  0
ARC
  5
2D9
330
1F
100
AcDbEntity
  8
SLD-0
  6
Continuous
 62
   179
100
AcDbCircle
 10
29.77274
 20
145.05188
 30
0.0
 40
1.0
100
AcDbArc
 50
270.0
 51
0.0
  0
ARC
  5
2DA
330
1F
100
AcDbEntity
  8
SLD-0
  6
Continuous
 62
   179
100
AcDbCircle
 10
62.47275
 20
145.801879995
 30
0.0
 40
0.3000000049999975
100
AcDbArc
 50
0.0
 51
90.0
  0
ARC
  5
2DB
330
1F
100
AcDbEntity
  8
SLD-0
  6
Continuous
 62
   179
100
AcDbCircle
 10
62.47275
 20
154.701874995
 30
0.0
 40
0.3000050050000144
100
AcDbArc
 50
360.0
 51
90.0
  0
ARC
  5
2DC
330
1F
100
AcDbEntity
  8
SLD-0
  6
Continuous
 62
   179
100
AcDbCircle
 10
59.7727411381
 20
147.6018768739
 30
0.0
 40
2.050000000000015
100
AcDbArc
 50
270.0
 51
310.00776
  0
ARC
  5
2DD
330
1F
100
AcDbEntity
  8
SLD-0
  6
Continuous
 62
   179
100
AcDbCircle
 10
61.28354
 20
145.8018782298
 30
0.0
 40
0.300001770222849
100
AcDbArc
 50
90.0
 51
130.0085179202
  0
ARC
  5
2DE
330
1F
100
AcDbEntity
  8
SLD-0
  6
Continuous
 62
   179
100
AcDbCircle
 10
61.28354
 20
149.401885005
 30
0.0
 40
0.3000050050000311
100
AcDbArc
 50
229.99224
 51
270.0
  0
ARC
  5
2DF
330
1F
100
AcDbEntity
  8
SLD-0
  6
Continuous
 62
   179
100
AcDbCircle
 10
59.7727411381
 20
147.6018768739
 30
0.0
 40
2.050000000000043
100
AcDbArc
 50
49.992241
 51
90.000003
  0
ARC
  5
2E0
330
1F
100
AcDbEntity
  8
SLD-0
  6
Continuous
 62
   179
100
AcDbCircle
 10
62.47275
 20
149.401885005
 30
0.0
 40
0.3000050050000311
100
AcDbArc
 50
270.0
 51
0.0
  0
ARC
  5
2E1
330
1F
100
AcDbEntity
  8
SLD-0
  6
Continuous
 62
   179
100
AcDbCircle
 10
59.7727411381
 20
156.5018831261
 30
0.0
 40
2.049999999999983
100
AcDbArc
 50
49.992241
 51
90.000003
  0
ARC
  5
2E2
330
1F
100
AcDbEntity
  8
SLD-0
  6
Continuous
 62
   179
100
AcDbCircle
 10
61.28354
 20
154.701874995
 30
0.0
 40
0.3000050049999743
100
AcDbArc
 50
90.0
 51
130.00776
  0
ARC
  5
2E3
330
1F
100
AcDbEntity
  8
SLD-0
  6
Continuous
 62
   179
100
AcDbCircle
 10
61.28354
 20
158.3018817702
 30
0.0
 40
0.3000017702231332
100
AcDbArc
 50
229.9914752466
 51
270.0
  0
ARC
  5
2E4
330
1F
100
AcDbEntity
  8
SLD-0
  6
Continuous
 62
   179
100
AcDbCircle
 10
59.7727411381
 20
156.5018831261
 30
0.0
 40
2.05000000000004
100
AcDbArc
 50
270.0
 51
310.00776
  0
ARC
  5
2E5
330
1F
100
AcDbEntity
  8
SLD-0
  6
Continuous
 62
   179
100
AcDbCircle
 10
32.26193
 20
149.401885005
 30
0.0
 40
0.3000050050000311
100
AcDbArc
 50
270.0
 51
310.00776
  0
ARC
  5
2E6
330
1F
100
AcDbEntity
  8
SLD-0
  6
Continuous
 62
   179
100
AcDbCircle
 10
32.26193
 20
145.801879995
 30
0.0
 40
0.3000000049999869
100
AcDbArc
 50
49.992241
 51
90.0
  0
ARC
  5
2E7
330
1F
100
AcDbEntity
  8
SLD-0
  6
Continuous
 62
   179
100
AcDbCircle
 10
62.47275
 20
158.301880005
 30
0.0
 40
0.3000000050000438
100
AcDbArc
 50
270.0
 51
360.0
  0
ARC
  5
2E8
330
1F
100
AcDbEntity
  8
SLD-0
  6
Continuous
 62
   179
100
AcDbCircle
 10
33.77274
 20
147.60188
 30
0.0
 40
2.050000000000011
100
AcDbArc
 50
229.99225
 51
270.0
  0
ARC
  5
2E9
330
1F
100
AcDbEntity
  8
SLD-0
  6
Continuous
 62
   179
100
AcDbCircle
 10
31.07272
 20
149.401885005
 30
0.0
 40
0.3000050050000311
100
AcDbArc
 50
180.0
 51
270.0
  0
ARC
  5
2EA
330
1F
100
AcDbEntity
  8
SLD-0
  6
Continuous
 62
   179
100
AcDbCircle
 10
33.77274
 20
156.50188
 30
0.0
 40
2.050000000000011
100
AcDbArc
 50
229.99225
 51
270.0
  0
ARC
  5
2EB
330
1F
100
AcDbEntity
  8
SLD-0
  6
Continuous
 62
   179
100
AcDbCircle
 10
32.26193
 20
154.701874995
 30
0.0
 40
0.3000050049999966
100
AcDbArc
 50
49.992241
 51
90.0
  0
ARC
  5
2EC
330
1F
100
AcDbEntity
  8
SLD-0
  6
Continuous
 62
   179
100
AcDbCircle
 10
32.26193
 20
158.301880005
 30
0.0
 40
0.3000000050000153
100
AcDbArc
 50
270.0
 51
310.00776
  0
ARC
  5
2ED
330
1F
100
AcDbEntity
  8
SLD-0
  6
Continuous
 62
   179
100
AcDbCircle
 10
31.07272
 20
158.301880005
 30
0.0
 40
0.3000000050000438
100
AcDbArc
 50
180.0
 51
270.0
  0
ARC
  5
2EE
330
1F
100
AcDbEntity
  8
SLD-0
  6
Continuous
 62
   179
100
AcDbCircle
 10
348.8076331991
 20
190.0518796787
 30
0.0
 40
0.9999987585807659
100
AcDbArc
 50
90.0
 51
164.9999052407
  0
ARC
  5
2EF
330
1F
100
AcDbEntity
  8
SLD-0
  6
Continuous
 62
   179
100
AcDbCircle
 10
348.80764
 20
114.05186
 30
0.0
 40
1.0
100
AcDbArc
 50
195.00001
 51
270.0
  0
ARC
  5
2F0
330
1F
100
AcDbEntity
  8
SLD-0
  6
Continuous
 62
   179
100
AcDbCircle
 10
378.272984
 20
114.0518611734
 30
0.0
 40
1.000001173394632
100
AcDbArc
 50
270.0
 51
344.9999793872
  0
ARC
  5
2F1
330
1F
100
AcDbEntity
  8
SLD-0
  6
Continuous
 62
   179
100
AcDbCircle
 10
378.2729901991
 20
190.0518795239
 30
0.0
 40
0.9999989133928381
100
AcDbArc
 50
14.9994968355
 51
90.0
  0
CIRCLE
  5
2F2
330
1F
100
AcDbEntity
  8
SLD-0
  6
Continuous
 62
   179
100
AcDbCircle
 10
367.7214272255
 20
144.8990506536
 30
0.0
 40
1.000000000000025
  0
ARC
  5
2F3
330
1F
100
AcDbEntity
  8
SLD-0
  6
Continuous
 62
   179
100
AcDbCircle
 10
367.7214272255
 20
144.8990506536
 30
0.0
 40
1.840000418591774
100
AcDbArc
 50
30.50929
 51
194.5122412093
  0
ARC
  5
2F4
330
1F
100
AcDbEntity
  8
SLD-0
  6
Continuous
 62
   179
100
AcDbCircle
 10
363.5403098984
 20
151.3430952506
 30
0.0
 40
8.961506800000041
100
AcDbArc
 50
321.34483
 51
218.65517
  0
ARC
  5
2F5
330
1F
100
AcDbEntity
  8
SLD-0
  6
Continuous
 62
   179
100
AcDbCircle
 10
357.1277856639
 20
146.2139326634
 30
0.0
 40
0.7500041419224425
100
AcDbArc
 50
218.6554988402
 51
329.49071
  0
CIRCLE
  5
2F6
330
1F
100
AcDbEntity
  8
SLD-0
  6
Continuous
 62
   179
100
AcDbCircle
 10
359.3591941113
 20
144.8990494535
 30
0.0
 40
1.000000000000025
  0
ARC
  5
2F7
330
1F
100
AcDbEntity
  8
SLD-0
  6
Continuous
 62
   179
100
AcDbCircle
 10
359.3591941113
 20
144.8990494535
 30
0.0
 40
1.839996150494436
100
AcDbArc
 50
345.4880602459
 51
149.4908227137
  0
ARC
  5
2F8
330
1F
100
AcDbEntity
  8
SLD-0
  6
Continuous
 62
   179
100
AcDbCircle
 10
369.9528379222
 20
146.2139328319
 30
0.0
 40
0.7500012880196038
100
AcDbArc
 50
210.5088583402
 51
321.3443102864
  0
CIRCLE
  5
2F9
330
1F
100
AcDbEntity
  8
SLD-0
  6
Continuous
 62
   179
100
AcDbCircle
 10
253.84244
 20
138.05186
 30
0.0
 40
2.550000000000011
  0
CIRCLE
  5
2FA
330
1F
100
AcDbEntity
  8
SLD-0
  6
Continuous
 62
   179
100
AcDbCircle
 10
289.34244
 20
138.05186
 30
0.0
 40
2.5
  0
CIRCLE
  5
2FB
330
1F
100
AcDbEntity
  8
SLD-0
  6
Continuous
 62
   179
100
AcDbCircle
 10
253.84244
 20
138.05186
 30
0.0
 40
4.5
  0
CIRCLE
  5
2FC
330
1F
100
AcDbEntity
  8
SLD-0
  6
Continuous
 62
   179
100
AcDbCircle
 10
289.34244
 20
138.05186
 30
0.0
 40
2.066999899999985
  0
CIRCLE
  5
2FD
330
1F
100
AcDbEntity
  8
SLD-0
  6
Continuous
 62
   179
100
AcDbCircle
 10
253.84244
 20
166.0519
 30
0.0
 40
2.550000000000011
  0
CIRCLE
  5
2FE
330
1F
100
AcDbEntity
  8
SLD-0
  6
Continuous
 62
   179
100
AcDbCircle
 10
124.84244
 20
138.05186
 30
0.0
 40
2.499999999999986
  0
CIRCLE
  5
2FF
330
1F
100
AcDbEntity
  8
SLD-0
  6
Continuous
 62
   179
100
AcDbCircle
 10
124.84244
 20
138.05186
 30
0.0
 40
2.066999899999999
  0
CIRCLE
  5
300
330
1F
100
AcDbEntity
  8
SLD-0
  6
Continuous
 62
   179
100
AcDbCircle
 10
133.84244
 20
138.05186
 30
0.0
 40
2.549999999999983
  0
CIRCLE
  5
301
330
1F
100
AcDbEntity
  8
SLD-0
  6
Continuous
 62
   179
100
AcDbCircle
 10
133.84244
 20
138.05186
 30
0.0
 40
4.5
  0
CIRCLE
  5
302
330
1F
100
AcDbEntity
  8
SLD-0
  6
Continuous
 62
   179
100
AcDbCircle
 10
99.84247
 20
169.05188
 30
0.0
 40
2.5
  0
CIRCLE
  5
303
330
1F
100
AcDbEntity
  8
SLD-0
  6
Continuous
 62
   179
100
AcDbCircle
 10
99.84247
 20
169.05188
 30
0.0
 40
2.0
  0
CIRCLE
  5
304
330
1F
100
AcDbEntity
  8
SLD-0
  6
Continuous
 62
   179
100
AcDbCircle
 10
99.84247
 20
135.05187
 30
0.0
 40
2.0
  0
CIRCLE
  5
305
330
1F
100
AcDbEntity
  8
SLD-0
  6
Continuous
 62
   179
100
AcDbCircle
 10
99.84247
 20
135.05187
 30
0.0
 40
2.5
  0
CIRCLE
  5
306
330
1F
100
AcDbEntity
  8
SLD-0
  6
Continuous
 62
   179
100
AcDbCircle
 10
253.84244
 20
166.0519
 30
0.0
 40
4.5
  0
CIRCLE
  5
307
330
1F
100
AcDbEntity
  8
SLD-0
  6
Continuous
 62
   179
100
AcDbCircle
 10
133.84244
 20
166.0519
 30
0.0
 40
4.5
  0
CIRCLE
  5
308
330
1F
100
AcDbEntity
  8
SLD-0
  6
Continuous
 62
   179
100
AcDbCircle
 10
133.84244
 20
166.0519
 30
0.0
 40
2.549999999999983
  0
CIRCLE
  5
309
330
1F
100
AcDbEntity
  8
SLD-0
  6
Continuous
 62
   179
100
AcDbCircle
 10
46.77274
 20
125.05186
 30
0.0
 40
5.0
  0
CIRCLE
  5
30A
330
1F
100
AcDbEntity
  8
SLD-0
  6
Continuous
 62
   179
100
AcDbCircle
 10
46.77274
 20
125.05186
 30
0.0
 40
4.400000100000007
  0
CIRCLE
  5
30B
330
1F
100
AcDbEntity
  8
SLD-0
  6
Continuous
 62
   179
100
AcDbCircle
 10
46.77274
 20
179.05188
 30
0.0
 40
5.0
  0
CIRCLE
  5
30C
330
1F
100
AcDbEntity
  8
SLD-0
  6
Continuous
 62
   179
100
AcDbCircle
 10
46.77274
 20
179.05188
 30
0.0
 40
4.400000100000007
  0
CIRCLE
  5
30D
330
1F
100
AcDbEntity
  8
SLD-0
  6
Continuous
 62
   179
100
AcDbCircle
 10
46.77274
 20
152.05188
 30
0.0
 40
4.25
  0
MTEXT
  5
30F
330
1F
100
AcDbEntity
  8
SLD-0
 62
     7
100
AcDbMText
 10
132.7407
 20
54.0245941091
 30
0.0
 40
5.0
 41
0.0
 71
     1
 72
     1
  1
ＳＴＡＲ
  7
SLDTEXTSTYLE4
 73
     1
 44
1.0
  0
MTEXT
  5
311
330
1F
100
AcDbEntity
  8
SLD-0
 62
     7
100
AcDbMText
 10
150.93744
 20
55.5017595505
 30
0.0
 40
2.0
 41
0.0
 71
     1
 72
     1
  1
ＧＣＹＬ－２０Ｘ１５０
  7
SLDTEXTSTYLE5
 73
     1
 44
1.0
  0
MTEXT
  5
313
330
1F
100
AcDbEntity
  8
SLD-0
 62
     7
100
AcDbMText
 10
151.98332
 20
50.6684695505
 30
0.0
 40
2.0
 41
0.0
 71
     1
 72
     1
  1
ＳＴＡＲＴＥＣＨＮＯ
  7
SLDTEXTSTYLE6
 73
     1
 44
1.0
  0
MTEXT
  5
315
330
1F
100
AcDbEntity
  8
SLD-0
 62
     7
100
AcDbMText
 10
336.945666
 20
48.8691042496
 30
0.0
 40
4.8000002
 41
0.0
 71
     1
 72
     1
  1
コンテナシリンダーガイド付
  7
SLDTEXTSTYLE7
 73
     1
 44
1.0
  0
MTEXT
  5
317
330
1F
100
AcDbEntity
  8
SLD-0
 62
     7
100
AcDbMText
 10
359.124977
 20
41.6081635369
 30
0.0
 40
3.2
 41
0.0
 71
     1
 72
     1
  1
（複動型）
  7
SLDTEXTSTYLE8
 73
     1
 44
1.0
  0
MTEXT
  5
319
330
1F
100
AcDbEntity
  8
SLD-0
 62
     7
100
AcDbMText
 10
342.273792
 20
32.3652292496
 30
0.0
 40
4.8000002
 41
0.0
 71
     1
 72
     1
  1
ＧＣＹＬ－２０ｘ１５０
  7
SLDTEXTSTYLE9
 73
     1
 44
1.0
  0
MTEXT
  5
31B
330
1F
100
AcDbEntity
  8
SLD-0
 62
     7
100
AcDbMText
 10
354.537851
 20
20.0863430496
 30
0.0
 40
4.8000002
 41
0.0
 71
     1
 72
     1
  1
０６０５０１
  7
SLDTEXTSTYLE10
 73
     1
 44
1.0
  0
MTEXT
  5
31D
330
1F
100
AcDbEntity
  8
SLD-0
 62
     7
100
AcDbMText
 10
52.2995
 20
153.4171695369
 30
0.0
 40
3.2
 41
0.0
 71
     1
 72
     1
  1
150ST
  7
SLDTEXTSTYLE11
 73
     1
 44
1.0
  0
INSERT
  5
31E
330
1F
100
AcDbEntity
  8
0
  6
Continuous
 62
     7
370
     0
100
AcDbBlockReference
  2
KOZU0001
 10
354.633104
 20
115.80336
 30
0.0
  0
INSERT
  5
31F
330
1F
100
AcDbEntity
  8
0
  6
Continuous
 62
     7
370
     0
100
AcDbBlockReference
  2
KOZU0002
 10
378.639258
 20
156.15985
 30
0.0
  0
INSERT
  5
320
330
1F
100
AcDbEntity
  8
0
  6
Continuous
 62
     7
370
     0
100
AcDbBlockReference
  2
KOZU0003
 10
290.50824
 20
135.84032
 30
0.0
  0
INSERT
  5
321
330
1F
100
AcDbEntity
  8
0
  6
Continuous
 62
     7
370
     0
100
AcDbBlockReference
  2
KOZU0004
 10
135.26555
 20
133.78281
 30
0.0
  0
INSERT
  5
322
330
1F
100
AcDbEntity
  8
0
  6
Continuous
 62
     7
370
     0
100
AcDbBlockReference
  2
KOZU0005
 10
253.05824
 20
38.367406
 30
0.0
  0
INSERT
  5
323
330
1F
100
AcDbEntity
  8
0
  6
Continuous
 62
     7
370
     0
100
AcDbBlockReference
  2
KOZU0006
 10
118.19764
 20
229.7182
 30
0.0
  0
INSERT
  5
324
330
1F
100
AcDbEntity
  8
0
  6
Continuous
 62
     7
370
     0
100
AcDbBlockReference
  2
KOZU0007
 10
39.50831
 20
186.44121
 30
0.0
  0
ENDSEC
  0
SECTION
  2
OBJECTS
  0
DICTIONARY
  5
C
330
0
100
AcDbDictionary
281
     1
  3
ACAD_GROUP
350
D
  3
ACAD_LAYOUT
350
1A
  3
ACAD_MLINESTYLE
350
17
  3
ACAD_PLOTSETTINGS
350
19
  3
ACAD_PLOTSTYLENAME
350
E
  0
DICTIONARY
  5
D
102
{ACAD_REACTORS
330
C
102
}
330
C
100
AcDbDictionary
281
     1
  0
DICTIONARY
  5
1A
102
{ACAD_REACTORS
330
C
102
}
330
C
100
AcDbDictionary
281
     1
  3
Layout1
350
1E
  3
Layout2
350
26
  3
Model
350
22
  0
DICTIONARY
  5
17
102
{ACAD_REACTORS
330
C
102
}
330
C
100
AcDbDictionary
281
     1
  3
Standard
350
18
  0
DICTIONARY
  5
19
102
{ACAD_REACTORS
330
C
102
}
330
C
100
AcDbDictionary
281
     1
  0
ACDBDICTIONARYWDFLT
  5
E
102
{ACAD_REACTORS
330
C
102
}
330
C
100
AcDbDictionary
281
     1
  3
Normal
350
F
100
AcDbDictionaryWithDefault
340
F
  0
LAYOUT
  5
1E
102
{ACAD_REACTORS
330
1A
102
}
330
1A
100
AcDbPlotSettings
  1

  2

  4

  6

 40
0.0
 41
0.0
 42
0.0
 43
0.0
 44
0.0
 45
0.0
 46
0.0
 47
0.0
 48
0.0
 49
0.0
140
0.0
141
0.0
142
1.0
143
1.0
 70
   688
 72
     0
 73
     0
 74
     5
  7

 75
    16
147
1.0
148
0.0
149
0.0
100
AcDbLayout
  1
Layout1
 70
     1
 71
     1
 10
0.0
 20
0.0
 11
0.0
 21
0.0
 12
0.0
 22
0.0
 32
0.0
 14
0.0
 24
0.0
 34
0.0
 15
0.0
 25
0.0
 35
0.0
146
0.0
 13
0.0
 23
0.0
 33
0.0
 16
1.0
 26
0.0
 36
0.0
 17
0.0
 27
1.0
 37
0.0
 76
     0
330
1B
  0
LAYOUT
  5
26
102
{ACAD_REACTORS
330
1A
102
}
330
1A
100
AcDbPlotSettings
  1

  2

  4

  6

 40
0.0
 41
0.0
 42
0.0
 43
0.0
 44
0.0
 45
0.0
 46
0.0
 47
0.0
 48
0.0
 49
0.0
140
0.0
141
0.0
142
1.0
143
1.0
 70
   688
 72
     0
 73
     0
 74
     5
  7

 75
    16
147
1.0
148
0.0
149
0.0
100
AcDbLayout
  1
Layout2
 70
     1
 71
     2
 10
0.0
 20
0.0
 11
0.0
 21
0.0
 12
0.0
 22
0.0
 32
0.0
 14
0.0
 24
0.0
 34
0.0
 15
0.0
 25
0.0
 35
0.0
146
0.0
 13
0.0
 23
0.0
 33
0.0
 16
1.0
 26
0.0
 36
0.0
 17
0.0
 27
1.0
 37
0.0
 76
     0
330
23
  0
LAYOUT
  5
22
102
{ACAD_REACTORS
330
1A
102
}
330
1A
100
AcDbPlotSettings
  1

  2

  4

  6

 40
0.0
 41
0.0
 42
0.0
 43
0.0
 44
0.0
 45
0.0
 46
0.0
 47
0.0
 48
0.0
 49
0.0
140
0.0
141
0.0
142
1.0
143
1.0
 70
  1712
 72
     0
 73
     0
 74
     0
  7

 75
     0
147
1.0
148
0.0
149
0.0
100
AcDbLayout
  1
Model
 70
     1
 71
     0
 10
0.0
 20
0.0
 11
0.0
 21
0.0
 12
0.0
 22
0.0
 32
0.0
 14
0.0
 24
0.0
 34
0.0
 15
420.0
 25
297.0
 35
0.0
146
0.0
 13
0.0
 23
0.0
 33
0.0
 16
1.0
 26
0.0
 36
0.0
 17
0.0
 27
1.0
 37
0.0
 76
     0
330
1F
  0
MLINESTYLE
  5
18
102
{ACAD_REACTORS
330
17
102
}
330
17
100
AcDbMlineStyle
  2
Standard
 70
     0
  3

 62
   256
 51
90.0
 52
90.0
 71
     2
 49
0.5
 62
   256
  6
BYLAYER
 49
-0.5
 62
   256
  6
BYLAYER
  0
ACDBPLACEHOLDER
  5
F
102
{ACAD_REACTORS
330
E
102
}
330
E
  0
ENDSEC
  0
EOF
