  0
SECTION
  2
HEADER
  9
$ACADVER
  1
AC1015
  9
$ACADMAINTVER
 70
     6
  9
$DWGCODEPAGE
  3
DOS932
  9
$INSBASE
 10
0.0
 20
0.0
 30
0.0
  9
$EXTMIN
 10
0.0
 20
0.0
 30
0.0
  9
$EXTMAX
 10
210.0
 20
297.0
 30
0.0
  9
$LIMMIN
 10
0.0
 20
0.0
  9
$LIMMAX
 10
0.0
 20
0.0
  9
$ORTHOMODE
 70
     0
  9
$REGENMODE
 70
     1
  9
$FILLMODE
 70
     1
  9
$QTEXTMODE
 70
     0
  9
$MIRRTEXT
 70
     1
  9
$LTSCALE
 40
1.0
  9
$ATTMODE
 70
     1
  9
$TEXTSIZE
 40
3.5
  9
$TRACEWID
 40
1.0
  9
$TEXTSTYLE
  7
Standard
  9
$CLAYER
  8
0
  9
$CELTYPE
  6
ByLayer
  9
$CECOLOR
 62
   256
  9
$CELTSCALE
 40
1.0
  9
$DISPSILH
 70
     0
  9
$DIMSCALE
 40
1.0
  9
$DIMASZ
 40
3.0
  9
$DIMEXO
 40
1.0
  9
$DIMDLI
 40
3.75
  9
$DIMRND
 40
0.0
  9
$DIMDLE
 40
0.0
  9
$DIMEXE
 40
1.0
  9
$DIMTP
 40
0.0
  9
$DIMTM
 40
0.0
  9
$DIMTXT
 40
3.2
  9
$DIMCEN
 40
2.5
  9
$DIMTSZ
 40
0.0
  9
$DIMTOL
 70
     0
  9
$DIMLIM
 70
     0
  9
$DIMTIH
 70
     1
  9
$DIMTOH
 70
     1
  9
$DIMSE1
 70
     0
  9
$DIMSE2
 70
     0
  9
$DIMTAD
 70
     1
  9
$DIMZIN
 70
     1
  9
$DIMBLK
  1

  9
$DIMASO
 70
     1
  9
$DIMSHO
 70
     1
  9
$DIMPOST
  1

  9
$DIMAPOST
  1

  9
$DIMALT
 70
     0
  9
$DIMALTD
 70
     3
  9
$DIMALTF
 40
0.0393700787
  9
$DIMLFAC
 40
1.0
  9
$DIMTOFL
 70
     1
  9
$DIMTVP
 40
0.0
  9
$DIMTIX
 70
     0
  9
$DIMSOXD
 70
     0
  9
$DIMSAH
 70
     0
  9
$DIMBLK1
  1

  9
$DIMBLK2
  1

  9
$DIMSTYLE
  2
ISO-25
  9
$DIMCLRD
 70
     0
  9
$DIMCLRE
 70
     0
  9
$DIMCLRT
 70
     0
  9
$DIMTFAC
 40
1.0
  9
$DIMGAP
 40
1.524
  9
$DIMJUST
 70
     0
  9
$DIMSD1
 70
     0
  9
$DIMSD2
 70
     0
  9
$DIMTOLJ
 70
     0
  9
$DIMTZIN
 70
     1
  9
$DIMALTZ
 70
     0
  9
$DIMALTTZ
 70
     0
  9
$DIMUPT
 70
     0
  9
$DIMDEC
 70
     2
  9
$DIMTDEC
 70
     2
  9
$DIMALTU
 70
     2
  9
$DIMALTTD
 70
     3
  9
$DIMTXSTY
  7
Standard
  9
$DIMAUNIT
 70
     0
  9
$DIMADEC
 70
     0
  9
$DIMALTRND
 40
0.0
  9
$DIMAZIN
 70
     0
  9
$DIMDSEP
 70
    44
  9
$DIMATFIT
 70
     3
  9
$DIMFRAC
 70
     0
  9
$DIMLDRBLK
  1

  9
$DIMLUNIT
 70
     2
  9
$DIMLWD
 70
    -2
  9
$DIMLWE
 70
    -2
  9
$DIMTMOVE
 70
     0
  9
$LUNITS
 70
     2
  9
$LUPREC
 70
     4
  9
$SKETCHINC
 40
1.0
  9
$FILLETRAD
 40
10.0
  9
$AUNITS
 70
     0
  9
$AUPREC
 70
     0
  9
$MENU
  1
.
  9
$ELEVATION
 40
0.0
  9
$PELEVATION
 40
0.0
  9
$THICKNESS
 40
0.0
  9
$LIMCHECK
 70
     0
  9
$CHAMFERA
 40
10.0
  9
$CHAMFERB
 40
10.0
  9
$CHAMFERC
 40
20.0
  9
$CHAMFERD
 40
0.0
  9
$SKPOLY
 70
     0
  9
$TDCREATE
 40
2454307.549359988
  9
$TDUCREATE
 40
2454307.174359988
  9
$TDUPDATE
 40
2454307.54936
  9
$TDUUPDATE
 40
2454307.17436
  9
$TDINDWG
 40
0.0000000116
  9
$TDUSRTIMER
 40
0.0000000116
  9
$USRTIMER
 70
     1
  9
$ANGBASE
 50
0.0
  9
$ANGDIR
 70
     0
  9
$PDMODE
 70
     0
  9
$PDSIZE
 40
-1.0
  9
$PLINEWID
 40
0.0
  9
$SPLFRAME
 70
     0
  9
$SPLINETYPE
 70
     6
  9
$SPLINESEGS
 70
     8
  9
$HANDSEED
  5
253
  9
$SURFTAB1
 70
     6
  9
$SURFTAB2
 70
     6
  9
$SURFTYPE
 70
     6
  9
$SURFU
 70
     6
  9
$SURFV
 70
     6
  9
$UCSBASE
  2

  9
$UCSNAME
  2

  9
$UCSORG
 10
0.0
 20
0.0
 30
0.0
  9
$UCSXDIR
 10
1.0
 20
0.0
 30
0.0
  9
$UCSYDIR
 10
0.0
 20
1.0
 30
0.0
  9
$UCSORTHOREF
  2

  9
$UCSORTHOVIEW
 70
     0
  9
$UCSORGTOP
 10
0.0
 20
0.0
 30
0.0
  9
$UCSORGBOTTOM
 10
0.0
 20
0.0
 30
0.0
  9
$UCSORGLEFT
 10
0.0
 20
0.0
 30
0.0
  9
$UCSORGRIGHT
 10
0.0
 20
0.0
 30
0.0
  9
$UCSORGFRONT
 10
0.0
 20
0.0
 30
0.0
  9
$UCSORGBACK
 10
0.0
 20
0.0
 30
0.0
  9
$PUCSBASE
  2

  9
$PUCSNAME
  2

  9
$PUCSORG
 10
0.0
 20
0.0
 30
0.0
  9
$PUCSXDIR
 10
1.0
 20
0.0
 30
0.0
  9
$PUCSYDIR
 10
0.0
 20
1.0
 30
0.0
  9
$PUCSORTHOREF
  2

  9
$PUCSORTHOVIEW
 70
     0
  9
$PUCSORGTOP
 10
0.0
 20
0.0
 30
0.0
  9
$PUCSORGBOTTOM
 10
0.0
 20
0.0
 30
0.0
  9
$PUCSORGLEFT
 10
0.0
 20
0.0
 30
0.0
  9
$PUCSORGRIGHT
 10
0.0
 20
0.0
 30
0.0
  9
$PUCSORGFRONT
 10
0.0
 20
0.0
 30
0.0
  9
$PUCSORGBACK
 10
0.0
 20
0.0
 30
0.0
  9
$USERI1
 70
     0
  9
$USERI2
 70
     0
  9
$USERI3
 70
     0
  9
$USERI4
 70
     0
  9
$USERI5
 70
     0
  9
$USERR1
 40
0.0
  9
$USERR2
 40
0.0
  9
$USERR3
 40
0.0
  9
$USERR4
 40
0.0
  9
$USERR5
 40
0.0
  9
$WORLDVIEW
 70
     1
  9
$SHADEDGE
 70
     3
  9
$SHADEDIF
 70
    70
  9
$TILEMODE
 70
     1
  9
$MAXACTVP
 70
    64
  9
$PINSBASE
 10
0.0
 20
0.0
 30
0.0
  9
$PLIMCHECK
 70
     0
  9
$PEXTMIN
 10
1.0000000000E+20
 20
1.0000000000E+20
 30
1.0000000000E+20
  9
$PEXTMAX
 10
-1.0000000000E+20
 20
-1.0000000000E+20
 30
-1.0000000000E+20
  9
$PLIMMIN
 10
0.0
 20
0.0
  9
$PLIMMAX
 10
420.0
 20
297.0
  9
$UNITMODE
 70
     0
  9
$VISRETAIN
 70
     1
  9
$PLINEGEN
 70
     0
  9
$PSLTSCALE
 70
     1
  9
$TREEDEPTH
 70
  3020
  9
$CMLSTYLE
  2
Standard
  9
$CMLJUST
 70
     0
  9
$CMLSCALE
 40
20.0
  9
$PROXYGRAPHICS
 70
     1
  9
$MEASUREMENT
 70
     1
  9
$CELWEIGHT
370
    -1
  9
$ENDCAPS
280
     0
  9
$JOINSTYLE
280
     0
  9
$LWDISPLAY
290
     1
  9
$INSUNITS
 70
     4
  9
$HYPERLINKBASE
  1

  9
$STYLESHEET
  1

  9
$XEDIT
290
     1
  9
$CEPSNTYPE
380
     0
  9
$PSTYLEMODE
290
     1
  9
$FINGERPRINTGUID
  2
{2B13641E-D59E-4E09-BBA0-8D19F666ABFF}
  9
$VERSIONGUID
  2
{FAEB1C32-E019-11D5-929B-00C0DF256EC4}
  9
$EXTNAMES
290
     1
  9
$PSVPSCALE
 40
0.0
  9
$OLESTARTUP
290
     0
  0
ENDSEC
  0
SECTION
  2
CLASSES
  0
CLASS
  1
ACDBDICTIONARYWDFLT
  2
AcDbDictionaryWithDefault
  3
ObjectDBX Classes
 90
        0
280
     0
281
     0
  0
CLASS
  1
ACDBPLACEHOLDER
  2
AcDbPlaceHolder
  3
ObjectDBX Classes
 90
        0
280
     0
281
     0
  0
CLASS
  1
LAYOUT
  2
AcDbLayout
  3
ObjectDBX Classes
 90
        0
280
     0
281
     0
  0
ENDSEC
  0
SECTION
  2
TABLES
  0
TABLE
  2
VPORT
  5
8
330
0
100
AcDbSymbolTable
 70
     1
  0
VPORT
  5
29
330
8
100
AcDbSymbolTableRecord
100
AcDbViewportTableRecord
  2
*Active
 70
     0
 10
0.0
 20
0.0
 11
1.0
 21
1.0
 12
105.0
 22
148.5
 13
0.0
 23
0.0
 14
10.0
 24
10.0
 15
10.0
 25
10.0
 16
0.0
 26
0.0
 36
1.0
 17
0.0
 27
0.0
 37
0.0
 40
297.0
 41
1.9729729729
 42
50.0
 43
0.0
 44
0.0
 50
0.0
 51
0.0
 71
     0
 72
  2000
 73
     1
 74
     3
 75
     0
 76
     0
 77
     0
 78
     0
281
     0
 65
     1
110
0.0
120
0.0
130
0.0
111
1.0
121
0.0
131
0.0
112
0.0
122
1.0
132
0.0
 79
     0
146
0.0
  0
ENDTAB
  0
TABLE
  2
LTYPE
  5
5
330
0
100
AcDbSymbolTable
 70
     6
  0
LTYPE
  5
14
330
5
100
AcDbSymbolTableRecord
100
AcDbLinetypeTableRecord
  2
ByBlock
 70
     0
  3

 72
    65
 73
     0
 40
0.0
  0
LTYPE
  5
15
330
5
100
AcDbSymbolTableRecord
100
AcDbLinetypeTableRecord
  2
ByLayer
 70
     0
  3

 72
    65
 73
     0
 40
0.0
  0
LTYPE
  5
16
330
5
100
AcDbSymbolTableRecord
100
AcDbLinetypeTableRecord
  2
Continuous
 70
     0
  3
Solid line
 72
    65
 73
     0
 40
0.0
  0
LTYPE
  5
2A
330
5
100
AcDbSymbolTableRecord
100
AcDbLinetypeTableRecord
  2
HIDDEN
 70
     0
  3
Hidden __ __ __ __ __ __ __ __ __ __ __ __ __ __
 72
    65
 73
     2
 40
1.905
 49
1.27
 74
     0
 49
-0.635
 74
     0
  0
LTYPE
  5
2B
330
5
100
AcDbSymbolTableRecord
100
AcDbLinetypeTableRecord
  2
PHANTOM
 70
     0
  3
Phantom ______  __  __  ______  __  __  ______
 72
    65
 73
     6
 40
12.7
 49
6.35
 74
     0
 49
-1.27
 74
     0
 49
1.27
 74
     0
 49
-1.27
 74
     0
 49
1.27
 74
     0
 49
-1.27
 74
     0
  0
LTYPE
  5
2C
330
5
100
AcDbSymbolTableRecord
100
AcDbLinetypeTableRecord
  2
CENTER
 70
     0
  3
Center ____ _ ____ _ ____ _ ____ _ ____ _ ____
 72
    65
 73
     4
 40
10.16
 49
6.35
 74
     0
 49
-1.27
 74
     0
 49
1.27
 74
     0
 49
-1.27
 74
     0
  0
LTYPE
  5
2D
330
5
100
AcDbSymbolTableRecord
100
AcDbLinetypeTableRecord
  2
CENTERX2
 70
     0
  3
Center (2x) ________  __  ________  __  _____
 72
    65
 73
     4
 40
20.32
 49
12.7
 74
     0
 49
-2.54
 74
     0
 49
2.54
 74
     0
 49
-2.54
 74
     0
  0
LTYPE
  5
2E
330
5
100
AcDbSymbolTableRecord
100
AcDbLinetypeTableRecord
  2
DOT2
 70
     0
  3
Dot (.5x) ........................................
 72
    65
 73
     2
 40
0.635
 49
0.0
 74
     0
 49
-0.635
 74
     0
  0
ENDTAB
  0
TABLE
  2
LAYER
  5
2
330
0
100
AcDbSymbolTable
 70
     2
  0
LAYER
  5
10
330
2
100
AcDbSymbolTableRecord
100
AcDbLayerTableRecord
  2
0
 70
     0
 62
     7
  6
Continuous
370
    -3
390
F
  0
LAYER
  5
2F
330
2
100
AcDbSymbolTableRecord
100
AcDbLayerTableRecord
  2
SLD-0
 70
     0
 62
   179
  6
Continuous
370
     0
390
F
  0
ENDTAB
  0
TABLE
  2
STYLE
  5
3
330
0
100
AcDbSymbolTable
 70
     6
  0
STYLE
  5
11
330
3
100
AcDbSymbolTableRecord
100
AcDbTextStyleTableRecord
  2
Standard
 70
     0
 40
0.0
 41
1.0
 50
0.0
 71
     0
 42
2.5
  3
txt
  4
bigfont
  0
STYLE
  5
33
330
3
100
AcDbSymbolTableRecord
100
AcDbTextStyleTableRecord
  2
SLDTEXTSTYLE0
 70
     0
 40
0.0
 41
0.7
 50
0.0
 71
     0
 42
0.2
  3
TXT
  4
bigfont
  0
STYLE
  5
3E
330
3
100
AcDbSymbolTableRecord
100
AcDbTextStyleTableRecord
  2
SLDTEXTSTYLE1
 70
     0
 40
0.0
 41
0.6272516084
 50
0.0
 71
     0
 42
0.2
  3
TXT
  4
bigfont
  0
STYLE
  5
248
330
3
100
AcDbSymbolTableRecord
100
AcDbTextStyleTableRecord
  2
SLDTEXTSTYLE2
 70
     0
 40
0.0
 41
0.6230481453
 50
0.0
 71
     0
 42
0.2
  3
TXT
  4
bigfont
  0
STYLE
  5
24A
330
3
100
AcDbSymbolTableRecord
100
AcDbTextStyleTableRecord
  2
SLDTEXTSTYLE3
 70
     0
 40
0.0
 41
0.6215271411
 50
0.0
 71
     0
 42
0.2
  3
TXT
  4
bigfont
  0
STYLE
  5
24C
330
3
100
AcDbSymbolTableRecord
100
AcDbTextStyleTableRecord
  2
SLDTEXTSTYLE4
 70
     0
 40
0.0
 41
0.6244080758
 50
0.0
 71
     0
 42
0.2
  3
TXT
  4
bigfont
  0
ENDTAB
  0
TABLE
  2
VIEW
  5
6
330
0
100
AcDbSymbolTable
 70
     0
  0
ENDTAB
  0
TABLE
  2
UCS
  5
7
330
0
100
AcDbSymbolTable
 70
     0
  0
ENDTAB
  0
TABLE
  2
APPID
  5
9
330
0
100
AcDbSymbolTable
 70
     1
  0
APPID
  5
12
330
9
100
AcDbSymbolTableRecord
100
AcDbRegAppTableRecord
  2
ACAD
 70
     0
  0
ENDTAB
  0
TABLE
  2
DIMSTYLE
  5
A
330
0
100
AcDbSymbolTable
 70
     1
100
AcDbDimStyleTable
  0
DIMSTYLE
105
27
330
A
100
AcDbSymbolTableRecord
100
AcDbDimStyleTableRecord
  2
ISO-25
 70
     0
 41
2.5
 42
0.625
 43
3.75
 44
1.25
 73
     0
 74
     0
 77
     1
 78
     8
140
2.5
141
2.5
143
0.0393700787
147
0.625
171
     3
172
     1
271
     2
272
     2
274
     3
278
    44
283
     0
284
     8
340
11
  0
ENDTAB
  0
TABLE
  2
BLOCK_RECORD
  5
1
330
0
100
AcDbSymbolTable
 70
     8
  0
BLOCK_RECORD
  5
1F
330
1
100
AcDbSymbolTableRecord
100
AcDbBlockTableRecord
  2
*Model_Space
340
22
  0
BLOCK_RECORD
  5
1B
330
1
100
AcDbSymbolTableRecord
100
AcDbBlockTableRecord
  2
*Paper_Space
340
1E
  0
BLOCK_RECORD
  5
23
330
1
100
AcDbSymbolTableRecord
100
AcDbBlockTableRecord
  2
*Paper_Space0
340
26
  0
BLOCK_RECORD
  5
30
330
1
100
AcDbSymbolTableRecord
100
AcDbBlockTableRecord
  2
注記
340
0
  0
BLOCK_RECORD
  5
36
330
1
100
AcDbSymbolTableRecord
100
AcDbBlockTableRecord
  2
KOZU0001
340
0
102
{BLKREFS
331
24F
102
}
  0
BLOCK_RECORD
  5
40
330
1
100
AcDbSymbolTableRecord
100
AcDbBlockTableRecord
  2
KOZU0002
340
0
102
{BLKREFS
331
250
102
}
  0
BLOCK_RECORD
  5
48
330
1
100
AcDbSymbolTableRecord
100
AcDbBlockTableRecord
  2
SW_NOTE_0
340
0
102
{BLKREFS
331
4E
102
}
  0
BLOCK_RECORD
  5
4F
330
1
100
AcDbSymbolTableRecord
100
AcDbBlockTableRecord
  2
KOZU0003
340
0
102
{BLKREFS
331
251
102
}
  0
BLOCK_RECORD
  5
57
330
1
100
AcDbSymbolTableRecord
100
AcDbBlockTableRecord
  2
SW_NOTE_1
340
0
102
{BLKREFS
331
5D
102
}
  0
BLOCK_RECORD
  5
5E
330
1
100
AcDbSymbolTableRecord
100
AcDbBlockTableRecord
  2
KOZU0004
340
0
102
{BLKREFS
331
252
102
}
  0
ENDTAB
  0
ENDSEC
  0
SECTION
  2
BLOCKS
  0
BLOCK
  5
20
330
1F
100
AcDbEntity
  8
0
100
AcDbBlockBegin
  2
*Model_Space
 70
     0
 71
     0
 10
0.0
 20
0.0
 30
0.0
  3
*Model_Space
  1

  0
ENDBLK
  5
21
330
1F
100
AcDbEntity
  8
0
100
AcDbBlockEnd
  0
BLOCK
  5
1C
330
1B
100
AcDbEntity
 67
     1
  8
0
100
AcDbBlockBegin
  2
*Paper_Space
 70
     0
 71
     0
 10
0.0
 20
0.0
 30
0.0
  3
*Paper_Space
  1

  0
ENDBLK
  5
1D
330
1B
100
AcDbEntity
 67
     1
  8
0
100
AcDbBlockEnd
  0
BLOCK
  5
24
330
23
100
AcDbEntity
  8
0
100
AcDbBlockBegin
  2
*Paper_Space0
 70
     0
 71
     0
 10
0.0
 20
0.0
 30
0.0
  3
*Paper_Space0
  1

  0
ENDBLK
  5
25
330
23
100
AcDbEntity
  8
0
100
AcDbBlockEnd
  0
BLOCK
  5
31
330
30
100
AcDbEntity
  8
0
100
AcDbBlockBegin
  2
注記
 70
     0
 71
     0
 10
0.0
 20
0.0
 30
0.0
  3
注記
  1

  0
MTEXT
  5
34
330
30
100
AcDbEntity
  8
0
  6
Continuous
 62
     7
370
     0
100
AcDbMText
 10
0.2636785918
 20
9.0739778448
 30
0.0
 40
3.5
 41
0.0
 71
     1
 72
     1
  1
１．特記ナキ角部ハ、バリ　カエリノ無キコト。
  7
SLDTEXTSTYLE0
 73
     1
 44
1.0
  0
MTEXT
  5
35
330
30
100
AcDbEntity
  8
0
  6
Continuous
 62
     7
370
     0
100
AcDbMText
 10
0.2636785918
 20
3.5759549983
 30
0.0
 40
3.5
 41
0.0
 71
     1
 72
     1
  1
２．特記ナキ隅部ハ、Ｒ０．４ＭＡＸトスル。
  7
SLDTEXTSTYLE0
 73
     1
 44
1.0
  0
ENDBLK
  5
32
330
30
100
AcDbEntity
  8
0
100
AcDbBlockEnd
  0
BLOCK
  5
37
330
36
100
AcDbEntity
  8
0
100
AcDbBlockBegin
  2
KOZU0001
 70
     0
 71
     0
 10
0.0
 20
0.0
 30
0.0
  3
KOZU0001
  1

  0
LINE
  5
39
330
36
100
AcDbEntity
  8
SLD-0
  6
Continuous
 62
   179
100
AcDbLine
 10
0.0
 20
0.0
 30
0.0
 11
8.6066706
 21
11.695687
 31
0.0
  0
LINE
  5
3A
330
36
100
AcDbEntity
  8
SLD-0
  6
Continuous
 62
   179
100
AcDbLine
 10
0.0
 20
0.0
 30
0.0
 11
0.97267244
 21
3.0089713
 31
0.0
  0
LINE
  5
3B
330
36
100
AcDbEntity
  8
SLD-0
  6
Continuous
 62
   179
100
AcDbLine
 10
0.0
 20
0.0
 30
0.0
 11
2.5835207
 21
1.8235735
 31
0.0
  0
LINE
  5
3C
330
36
100
AcDbEntity
  8
SLD-0
  6
Continuous
 62
   179
100
AcDbLine
 10
0.0
 20
0.0
 30
0.0
 11
8.6066706
 21
11.695687
 31
0.0
  0
LINE
  5
3D
330
36
100
AcDbEntity
  8
SLD-0
  6
Continuous
 62
   179
100
AcDbLine
 10
8.606676
 20
11.695698
 30
0.0
 11
25.329363
 21
11.695698
 31
0.0
  0
MTEXT
  5
3F
330
36
100
AcDbEntity
  8
SLD-0
100
AcDbMText
 10
11.615357
 20
15.1504175369
 30
0.0
 40
3.2
 41
0.0
 71
     1
 72
     1
  1
２－Ｍ３
  7
SLDTEXTSTYLE1
 73
     1
 44
1.0
  0
ENDBLK
  5
38
330
36
100
AcDbEntity
  8
0
100
AcDbBlockEnd
  0
BLOCK
  5
41
330
40
100
AcDbEntity
  8
0
100
AcDbBlockBegin
  2
KOZU0002
 70
     0
 71
     0
 10
0.0
 20
0.0
 30
0.0
  3
KOZU0002
  1

  0
LINE
  5
43
330
40
100
AcDbEntity
  8
SLD-0
  6
Continuous
 62
   179
100
AcDbLine
 10
0.0
 20
0.0
 30
0.0
 11
10.127726
 21
13.734636
 31
0.0
  0
LINE
  5
44
330
40
100
AcDbEntity
  8
SLD-0
  6
Continuous
 62
   179
100
AcDbLine
 10
0.0
 20
0.0
 30
0.0
 11
0.97560099
 21
3.008023
 31
0.0
  0
LINE
  5
45
330
40
100
AcDbEntity
  8
SLD-0
  6
Continuous
 62
   179
100
AcDbLine
 10
0.0
 20
0.0
 30
0.0
 11
2.5852946
 21
1.8210578
 31
0.0
  0
LINE
  5
46
330
40
100
AcDbEntity
  8
SLD-0
  6
Continuous
 62
   179
100
AcDbLine
 10
0.0
 20
0.0
 30
0.0
 11
10.127726
 21
13.734636
 31
0.0
  0
LINE
  5
47
330
40
100
AcDbEntity
  8
SLD-0
  6
Continuous
 62
   179
100
AcDbLine
 10
10.127726
 20
13.734636
 30
0.0
 11
26.13441
 21
13.734645
 31
0.0
  0
INSERT
  5
4E
330
40
100
AcDbEntity
  8
SLD-0
 62
     7
100
AcDbBlockReference
  2
SW_NOTE_0
 10
12.420412
 20
12.8990895537
 30
0.0
  0
ENDBLK
  5
42
330
40
100
AcDbEntity
  8
0
100
AcDbBlockEnd
  0
BLOCK
  5
49
330
48
100
AcDbEntity
  8
0
100
AcDbBlockBegin
  2
SW_NOTE_0
 70
     0
 71
     0
 10
0.0
 20
0.0
 30
0.0
  3
SW_NOTE_0
  1

  0
MTEXT
  5
4B
330
48
100
AcDbEntity
  8
SLD-0
100
AcDbMText
 10
0.0
 20
4.2902749832
 30
0.0
 40
3.2
 41
0.0
 71
     1
 72
     1
  1
２－
  7
SLDTEXTSTYLE1
 73
     1
 44
1.0
  0
MTEXT
  5
4C
330
48
100
AcDbEntity
  8
SLD-0
100
AcDbMText
 10
10.7244439423
 20
4.2902749832
 30
0.0
 40
3.2
 41
0.0
 71
     1
 72
     1
  1
%%c
  7
SLDTEXTSTYLE1
 73
     1
 44
1.0
  0
MTEXT
  5
4D
330
48
100
AcDbEntity
  8
SLD-0
100
AcDbMText
 10
15.909332782
 20
4.2902749832
 30
0.0
 40
3.2
 41
0.0
 71
     1
 72
     1
  1
３
  7
SLDTEXTSTYLE1
 73
     1
 44
1.0
  0
ENDBLK
  5
4A
330
48
100
AcDbEntity
  8
0
100
AcDbBlockEnd
  0
BLOCK
  5
50
330
4F
100
AcDbEntity
  8
0
100
AcDbBlockBegin
  2
KOZU0003
 70
     0
 71
     0
 10
0.0
 20
0.0
 30
0.0
  3
KOZU0003
  1

  0
LINE
  5
52
330
4F
100
AcDbEntity
  8
SLD-0
  6
Continuous
 62
   179
100
AcDbLine
 10
0.0
 20
0.0
 30
0.0
 11
6.6991643
 21
11.901164
 31
0.0
  0
LINE
  5
53
330
4F
100
AcDbEntity
  8
SLD-0
  6
Continuous
 62
   179
100
AcDbLine
 10
0.0
 20
0.0
 30
0.0
 11
0.60015129
 21
3.1048057
 31
0.0
  0
LINE
  5
54
330
4F
100
AcDbEntity
  8
SLD-0
  6
Continuous
 62
   179
100
AcDbLine
 10
0.0
 20
0.0
 30
0.0
 11
2.3430044
 21
2.1237537
 31
0.0
  0
LINE
  5
55
330
4F
100
AcDbEntity
  8
SLD-0
  6
Continuous
 62
   179
100
AcDbLine
 10
0.0
 20
0.0
 30
0.0
 11
6.6991643
 21
11.901164
 31
0.0
  0
LINE
  5
56
330
4F
100
AcDbEntity
  8
SLD-0
  6
Continuous
 62
   179
100
AcDbLine
 10
6.6991643
 20
11.901164
 30
0.0
 11
21.328267
 21
11.90116
 31
0.0
  0
INSERT
  5
5D
330
4F
100
AcDbEntity
  8
SLD-0
 62
     7
100
AcDbBlockReference
  2
SW_NOTE_1
 10
8.172717
 20
11.0656045537
 30
0.0
  0
ENDBLK
  5
51
330
4F
100
AcDbEntity
  8
0
100
AcDbBlockEnd
  0
BLOCK
  5
58
330
57
100
AcDbEntity
  8
0
100
AcDbBlockBegin
  2
SW_NOTE_1
 70
     0
 71
     0
 10
0.0
 20
0.0
 30
0.0
  3
SW_NOTE_1
  1

  0
MTEXT
  5
5A
330
57
100
AcDbEntity
  8
SLD-0
100
AcDbMText
 10
0.0
 20
4.2902749832
 30
0.0
 40
3.2
 41
0.0
 71
     1
 72
     1
  1
４－
  7
SLDTEXTSTYLE1
 73
     1
 44
1.0
  0
MTEXT
  5
5B
330
57
100
AcDbEntity
  8
SLD-0
100
AcDbMText
 10
10.7244439423
 20
4.2902749832
 30
0.0
 40
3.2
 41
0.0
 71
     1
 72
     1
  1
%%c
  7
SLDTEXTSTYLE1
 73
     1
 44
1.0
  0
MTEXT
  5
5C
330
57
100
AcDbEntity
  8
SLD-0
100
AcDbMText
 10
15.909332782
 20
4.2902749832
 30
0.0
 40
3.2
 41
0.0
 71
     1
 72
     1
  1
４
  7
SLDTEXTSTYLE1
 73
     1
 44
1.0
  0
ENDBLK
  5
59
330
57
100
AcDbEntity
  8
0
100
AcDbBlockEnd
  0
BLOCK
  5
5F
330
5E
100
AcDbEntity
  8
0
100
AcDbBlockBegin
  2
KOZU0004
 70
     0
 71
     0
 10
0.0
 20
0.0
 30
0.0
  3
KOZU0004
  1

  0
LINE
  5
61
330
5E
100
AcDbEntity
  8
SLD-0
  6
Continuous
 62
   179
100
AcDbLine
 10
0.0
 20
0.0
 30
0.0
 11
9.1153067
 21
-8.7316279
 31
0.0
  0
LINE
  5
62
330
5E
100
AcDbEntity
  8
SLD-0
  6
Continuous
 62
   179
100
AcDbLine
 10
0.0
 20
0.0
 30
0.0
 11
2.8581699
 21
-1.3530945
 31
0.0
  0
LINE
  5
63
330
5E
100
AcDbEntity
  8
SLD-0
  6
Continuous
 62
   179
100
AcDbLine
 10
0.0
 20
0.0
 30
0.0
 11
1.4746792
 21
-2.7973775
 31
0.0
  0
LINE
  5
64
330
5E
100
AcDbEntity
  8
SLD-0
  6
Continuous
 62
   179
100
AcDbLine
 10
0.0
 20
0.0
 30
0.0
 11
9.1153067
 21
-8.7316279
 31
0.0
  0
LINE
  5
65
330
5E
100
AcDbEntity
  8
SLD-0
  6
Continuous
 62
   179
100
AcDbLine
 10
9.1153067
 20
-8.7316279
 30
0.0
 11
27.117838
 21
-8.731631
 31
0.0
  0
MTEXT
  5
66
330
5E
100
AcDbEntity
  8
SLD-0
100
AcDbMText
 10
13.403839
 20
-5.2769114631
 30
0.0
 40
3.2
 41
0.0
 71
     1
 72
     1
  1
ＢＦ－５
  7
SLDTEXTSTYLE1
 73
     1
 44
1.0
  0
ENDBLK
  5
60
330
5E
100
AcDbEntity
  8
0
100
AcDbBlockEnd
  0
ENDSEC
  0
SECTION
  2
ENTITIES
  0
LINE
  5
67
330
1F
100
AcDbEntity
  8
SLD-0
  6
Continuous
 62
   179
100
AcDbLine
 10
16.45
 20
11.125
 30
0.0
 11
193.25
 21
11.125
 31
0.0
  0
LINE
  5
68
330
1F
100
AcDbEntity
  8
SLD-0
  6
Continuous
 62
   179
100
AcDbLine
 10
193.25
 20
285.625
 30
0.0
 11
193.25
 21
11.125
 31
0.0
  0
LINE
  5
69
330
1F
100
AcDbEntity
  8
SLD-0
  6
Continuous
 62
   179
100
AcDbLine
 10
16.45
 20
285.625
 30
0.0
 11
16.45
 21
11.125
 31
0.0
  0
LINE
  5
6A
330
1F
100
AcDbEntity
  8
SLD-0
  6
Continuous
 62
   179
100
AcDbLine
 10
16.45
 20
285.625
 30
0.0
 11
193.25
 21
285.625
 31
0.0
  0
LINE
  5
6B
330
1F
100
AcDbEntity
  8
SLD-0
  6
CENTER
 62
   179
100
AcDbLine
 10
150.671448
 20
175.7021
 30
0.0
 11
150.671448
 21
87.148117
 31
0.0
  0
LINE
  5
6C
330
1F
100
AcDbEntity
  8
SLD-0
  6
Continuous
 62
   179
100
AcDbLine
 10
139.671448
 20
102.240829
 30
0.0
 11
139.671448
 21
121.74083
 31
0.0
  0
LINE
  5
6D
330
1F
100
AcDbEntity
  8
SLD-0
  6
Continuous
 62
   179
100
AcDbLine
 10
139.671448
 20
121.74083
 30
0.0
 11
139.671448
 21
136.74083
 31
0.0
  0
LINE
  5
6E
330
1F
100
AcDbEntity
  8
SLD-0
  6
Continuous
 62
   179
100
AcDbLine
 10
140.671448
 20
131.74083
 30
0.0
 11
160.671448
 21
131.74083
 31
0.0
  0
LINE
  5
6F
330
1F
100
AcDbEntity
  8
SLD-0
  6
Continuous
 62
   179
100
AcDbLine
 10
161.6714480858
 20
131.7408297557
 30
0.0
 11
161.6714480858
 21
121.74083
 31
0.0
  0
LINE
  5
70
330
1F
100
AcDbEntity
  8
SLD-0
  6
Continuous
 62
   179
100
AcDbLine
 10
161.6714480858
 20
121.74083
 30
0.0
 11
161.6714480858
 21
102.240829
 31
0.0
  0
LINE
  5
71
330
1F
100
AcDbEntity
  8
SLD-0
  6
Continuous
 62
   179
100
AcDbLine
 10
161.171448
 20
101.740829
 30
0.0
 11
140.171448
 21
101.740829
 31
0.0
  0
LINE
  5
72
330
1F
100
AcDbEntity
  8
SLD-0
  6
Continuous
 62
   179
100
AcDbLine
 10
161.6714480858
 20
121.74083
 30
0.0
 11
139.671448
 21
121.74083
 31
0.0
  0
LINE
  5
73
330
1F
100
AcDbEntity
  8
SLD-0
  6
Continuous
 62
   179
100
AcDbLine
 10
153.9164470858
 20
141.7408297557
 30
0.0
 11
158.6714480858
 21
141.7408297557
 31
0.0
  0
LINE
  5
74
330
1F
100
AcDbEntity
  8
SLD-0
  6
Continuous
 62
   179
100
AcDbLine
 10
161.6714480858
 20
131.7408297557
 30
0.0
 11
161.6714480858
 21
138.7408297557
 31
0.0
  0
LINE
  5
75
330
1F
100
AcDbEntity
  8
SLD-0
  6
Continuous
 62
   179
100
AcDbLine
 10
155.47067
 20
167.77987
 30
0.0
 11
155.639104
 21
141.74084
 31
0.0
  0
LINE
  5
76
330
1F
100
AcDbEntity
  8
SLD-0
  6
Continuous
 62
   179
100
AcDbLine
 10
145.3029066445
 20
137.5408301534
 30
0.0
 11
145.1915286445
 21
137.5408301534
 31
0.0
  0
LINE
  5
77
330
1F
100
AcDbEntity
  8
SLD-0
  6
Continuous
 62
   179
100
AcDbLine
 10
145.3029087006
 20
135.940818603
 30
0.0
 11
145.1915307006
 21
135.940818603
 31
0.0
  0
LINE
  5
78
330
1F
100
AcDbEntity
  8
SLD-0
  6
Continuous
 62
   179
100
AcDbLine
 10
148.4401739804
 20
139.1196965882
 30
0.0
 11
148.5185849804
 21
139.3623465882
 31
0.0
  0
LINE
  5
79
330
1F
100
AcDbEntity
  8
SLD-0
  6
Continuous
 62
   179
100
AcDbLine
 10
148.5727267509
 20
134.4089292458
 30
0.0
 11
148.6646537509
 21
134.1710892458
 31
0.0
  0
LINE
  5
7A
330
1F
100
AcDbEntity
  8
SLD-0
  6
CENTER
 62
   179
100
AcDbLine
 10
140.864811
 20
157.19963
 30
0.0
 11
149.453208
 21
154.89837
 31
0.0
  0
LINE
  5
7B
330
1F
100
AcDbEntity
  8
SLD-0
  6
CENTER
 62
   179
100
AcDbLine
 10
141.018629
 20
148.61738
 30
0.0
 11
144.882329
 21
147.58212
 31
0.0
  0
LINE
  5
7C
330
1F
100
AcDbEntity
  8
SLD-0
  6
CENTER
 62
   179
100
AcDbLine
 10
145.289125
 20
164.55516
 30
0.0
 11
149.15283
 21
163.51989
 31
0.0
  0
LINE
  5
7D
330
1F
100
AcDbEntity
  8
SLD-0
  6
CENTER
 62
   179
100
AcDbLine
 10
144.671448
 20
133.74083
 30
0.0
 11
144.671448
 21
119.74083
 31
0.0
  0
LINE
  5
7E
330
1F
100
AcDbEntity
  8
SLD-0
  6
CENTER
 62
   179
100
AcDbLine
 10
156.671448
 20
133.74083
 30
0.0
 11
156.671448
 21
119.74083
 31
0.0
  0
LINE
  5
7F
330
1F
100
AcDbEntity
  8
SLD-0
  6
Continuous
 62
   179
100
AcDbLine
 10
149.4392142193
 20
138.5085996218
 30
0.0
 11
151.1163072193
 21
139.4768696218
 31
0.0
  0
LINE
  5
80
330
1F
100
AcDbEntity
  8
SLD-0
  6
Continuous
 62
   179
100
AcDbLine
 10
149.439206
 20
134.97306
 30
0.0
 11
151.116309
 21
134.00478
 31
0.0
  0
LINE
  5
81
330
1F
100
AcDbEntity
  8
SLD-0
  6
CENTER
 62
   179
100
AcDbLine
 10
141.171448
 20
136.74083
 30
0.0
 11
154.171448
 21
136.74083
 31
0.0
  0
LINE
  5
82
330
1F
100
AcDbEntity
  8
SLD-0
  6
CENTER
 62
   179
100
AcDbLine
 10
147.671448
 20
143.24083
 30
0.0
 11
147.671448
 21
130.24083
 31
0.0
  0
LINE
  5
83
330
1F
100
AcDbEntity
  8
SLD-0
  6
Continuous
 62
   179
100
AcDbLine
 10
95.211449
 20
237.11082
 30
0.0
 11
45.21144
 21
237.11082
 31
0.0
  0
LINE
  5
84
330
1F
100
AcDbEntity
  8
SLD-0
  6
Continuous
 62
   179
100
AcDbLine
 10
45.21144
 20
237.11082
 30
0.0
 11
45.21144
 21
215.11082
 31
0.0
  0
LINE
  5
85
330
1F
100
AcDbEntity
  8
SLD-0
  6
Continuous
 62
   179
100
AcDbLine
 10
45.21144
 20
215.11082
 30
0.0
 11
60.21144
 21
215.11082
 31
0.0
  0
LINE
  5
86
330
1F
100
AcDbEntity
  8
SLD-0
  6
Continuous
 62
   179
100
AcDbLine
 10
95.211449
 20
215.11082
 30
0.0
 11
95.211449
 21
237.11082
 31
0.0
  0
LINE
  5
87
330
1F
100
AcDbEntity
  8
SLD-0
  6
CENTER
 62
   179
100
AcDbLine
 10
53.06998
 20
223.11082
 30
0.0
 11
87.50931
 21
223.11082
 31
0.0
  0
LINE
  5
88
330
1F
100
AcDbEntity
  8
SLD-0
  6
Continuous
 62
   179
100
AcDbLine
 10
54.71144
 20
219.11082
 30
0.0
 11
54.71144
 21
227.11082
 31
0.0
  0
LINE
  5
89
330
1F
100
AcDbEntity
  8
SLD-0
  6
Continuous
 62
   179
100
AcDbLine
 10
56.21144
 20
227.11082
 30
0.0
 11
54.71144
 21
227.11082
 31
0.0
  0
LINE
  5
8A
330
1F
100
AcDbEntity
  8
SLD-0
  6
Continuous
 62
   179
100
AcDbLine
 10
56.21144
 20
219.11082
 30
0.0
 11
54.71144
 21
219.11082
 31
0.0
  0
LINE
  5
8B
330
1F
100
AcDbEntity
  8
SLD-0
  6
Continuous
 62
   179
100
AcDbLine
 10
86.21145
 20
220.61082
 30
0.0
 11
86.21145
 21
225.61082
 31
0.0
  0
LINE
  5
8C
330
1F
100
AcDbEntity
  8
SLD-0
  6
Continuous
 62
   179
100
AcDbLine
 10
85.01146
 20
219.01082
 30
0.0
 11
85.01146
 21
227.21083
 31
0.0
  0
LINE
  5
8D
330
1F
100
AcDbEntity
  8
SLD-0
  6
Continuous
 62
   179
100
AcDbLine
 10
85.01146
 20
225.61082
 30
0.0
 11
86.21145
 21
225.61082
 31
0.0
  0
LINE
  5
8E
330
1F
100
AcDbEntity
  8
SLD-0
  6
Continuous
 62
   179
100
AcDbLine
 10
85.01146
 20
220.61082
 30
0.0
 11
86.21145
 21
220.61082
 31
0.0
  0
LINE
  5
8F
330
1F
100
AcDbEntity
  8
SLD-0
  6
Continuous
 62
   179
100
AcDbLine
 10
84.21145
 20
221.01082
 30
0.0
 11
85.01146
 21
221.01082
 31
0.0
  0
LINE
  5
90
330
1F
100
AcDbEntity
  8
SLD-0
  6
Continuous
 62
   179
100
AcDbLine
 10
84.21145
 20
225.21083
 30
0.0
 11
85.01146
 21
225.21083
 31
0.0
  0
LINE
  5
91
330
1F
100
AcDbEntity
  8
SLD-0
  6
Continuous
 62
   179
100
AcDbLine
 10
60.21144
 20
229.91005
 30
0.0
 11
60.21144
 21
216.11082
 31
0.0
  0
LINE
  5
92
330
1F
100
AcDbEntity
  8
SLD-0
  6
Continuous
 62
   179
100
AcDbLine
 10
80.21145
 20
216.11082
 30
0.0
 11
80.21145
 21
229.91005
 31
0.0
  0
LINE
  5
93
330
1F
100
AcDbEntity
  8
SLD-0
  6
CENTER
 62
   179
100
AcDbLine
 10
92.21145
 20
232.11082
 30
0.0
 11
86.21145
 21
232.11082
 31
0.0
  0
LINE
  5
94
330
1F
100
AcDbEntity
  8
SLD-0
  6
CENTER
 62
   179
100
AcDbLine
 10
89.21145
 20
235.11082
 30
0.0
 11
89.21145
 21
229.11082
 31
0.0
  0
LINE
  5
95
330
1F
100
AcDbEntity
  8
SLD-0
  6
CENTER
 62
   179
100
AcDbLine
 10
54.21144
 20
232.11082
 30
0.0
 11
48.21144
 21
232.11082
 31
0.0
  0
LINE
  5
96
330
1F
100
AcDbEntity
  8
SLD-0
  6
CENTER
 62
   179
100
AcDbLine
 10
51.21144
 20
235.11082
 30
0.0
 11
51.21144
 21
229.11082
 31
0.0
  0
LINE
  5
97
330
1F
100
AcDbEntity
  8
SLD-0
  6
CENTER
 62
   179
100
AcDbLine
 10
53.21144
 20
220.11082
 30
0.0
 11
47.21144
 21
220.11082
 31
0.0
  0
LINE
  5
98
330
1F
100
AcDbEntity
  8
SLD-0
  6
CENTER
 62
   179
100
AcDbLine
 10
50.21144
 20
223.11082
 30
0.0
 11
50.21144
 21
217.11082
 31
0.0
  0
LINE
  5
99
330
1F
100
AcDbEntity
  8
SLD-0
  6
CENTER
 62
   179
100
AcDbLine
 10
93.21145
 20
220.11082
 30
0.0
 11
87.21145
 21
220.11082
 31
0.0
  0
LINE
  5
9A
330
1F
100
AcDbEntity
  8
SLD-0
  6
CENTER
 62
   179
100
AcDbLine
 10
90.21145
 20
223.11082
 30
0.0
 11
90.21145
 21
217.11082
 31
0.0
  0
LINE
  5
9B
330
1F
100
AcDbEntity
  8
SLD-0
  6
Continuous
 62
   179
100
AcDbLine
 10
56.21144
 20
237.11082
 30
0.0
 11
56.21144
 21
215.11082
 31
0.0
  0
LINE
  5
9C
330
1F
100
AcDbEntity
  8
SLD-0
  6
Continuous
 62
   179
100
AcDbLine
 10
84.21145
 20
215.11082
 30
0.0
 11
84.21145
 21
237.11082
 31
0.0
  0
LINE
  5
9D
330
1F
100
AcDbEntity
  8
SLD-0
  6
Continuous
 62
   179
100
AcDbLine
 10
60.21144
 20
216.38155
 30
0.0
 11
80.21145
 21
216.38155
 31
0.0
  0
LINE
  5
9E
330
1F
100
AcDbEntity
  8
SLD-0
  6
CENTER
 62
   179
100
AcDbLine
 10
99.625771
 20
226.11082
 30
0.0
 11
41.07608
 21
226.11082
 31
0.0
  0
LINE
  5
9F
330
1F
100
AcDbEntity
  8
SLD-0
  6
Continuous
 62
   179
100
AcDbLine
 10
61.21144
 20
230.91005
 30
0.0
 11
79.21145
 21
230.91005
 31
0.0
  0
LINE
  5
A0
330
1F
100
AcDbEntity
  8
SLD-0
  6
Continuous
 62
   179
100
AcDbLine
 10
60.21144
 20
223.6656
 30
0.0
 11
80.21145
 21
223.6656
 31
0.0
  0
LINE
  5
A1
330
1F
100
AcDbEntity
  8
SLD-0
  6
Continuous
 62
   179
100
AcDbLine
 10
61.21144
 20
215.11082
 30
0.0
 11
79.21145
 21
215.11082
 31
0.0
  0
LINE
  5
A2
330
1F
100
AcDbEntity
  8
SLD-0
  6
Continuous
 62
   179
100
AcDbLine
 10
80.21145
 20
215.11082
 30
0.0
 11
95.211449
 21
215.11082
 31
0.0
  0
LINE
  5
A3
330
1F
100
AcDbEntity
  8
SLD-0
  6
CENTER
 62
   179
100
AcDbLine
 10
70.21145
 20
240.94176
 30
0.0
 11
70.21145
 21
211.66692
 31
0.0
  0
LINE
  5
A4
330
1F
100
AcDbEntity
  8
SLD-0
  6
CENTER
 62
   179
100
AcDbLine
 10
64.21144
 20
224.16035
 30
0.0
 11
64.21144
 21
221.16035
 31
0.0
  0
LINE
  5
A5
330
1F
100
AcDbEntity
  8
SLD-0
  6
CENTER
 62
   179
100
AcDbLine
 10
62.71144
 20
222.66035
 30
0.0
 11
65.71145
 21
222.66035
 31
0.0
  0
LINE
  5
A6
330
1F
100
AcDbEntity
  8
SLD-0
  6
CENTER
 62
   179
100
AcDbLine
 10
76.21145
 20
224.16035
 30
0.0
 11
76.21145
 21
221.16035
 31
0.0
  0
LINE
  5
A7
330
1F
100
AcDbEntity
  8
SLD-0
  6
CENTER
 62
   179
100
AcDbLine
 10
74.71145
 20
222.66035
 30
0.0
 11
77.71145
 21
222.66035
 31
0.0
  0
LINE
  5
A8
330
1F
100
AcDbEntity
  8
SLD-0
  6
CENTER
 62
   179
100
AcDbLine
 10
64.21144
 20
219.88985
 30
0.0
 11
64.21144
 21
216.88985
 31
0.0
  0
LINE
  5
A9
330
1F
100
AcDbEntity
  8
SLD-0
  6
CENTER
 62
   179
100
AcDbLine
 10
62.71144
 20
218.38985
 30
0.0
 11
65.71145
 21
218.38985
 31
0.0
  0
LINE
  5
AA
330
1F
100
AcDbEntity
  8
SLD-0
  6
CENTER
 62
   179
100
AcDbLine
 10
76.21145
 20
219.88985
 30
0.0
 11
76.21145
 21
216.88985
 31
0.0
  0
LINE
  5
AB
330
1F
100
AcDbEntity
  8
SLD-0
  6
CENTER
 62
   179
100
AcDbLine
 10
74.71145
 20
218.38985
 30
0.0
 11
77.71145
 21
218.38985
 31
0.0
  0
LINE
  5
AC
330
1F
100
AcDbEntity
  8
SLD-0
  6
Continuous
 62
   179
100
AcDbLine
 10
84.21145
 20
219.01082
 30
0.0
 11
85.01146
 21
219.01082
 31
0.0
  0
LINE
  5
AD
330
1F
100
AcDbEntity
  8
SLD-0
  6
Continuous
 62
   179
100
AcDbLine
 10
84.21145
 20
227.21083
 30
0.0
 11
85.01146
 21
227.21083
 31
0.0
  0
LINE
  5
AE
330
1F
100
AcDbEntity
  8
SLD-0
  6
Continuous
 62
   179
100
AcDbLine
 10
45.21144
 20
121.74083
 30
0.0
 11
95.211449
 21
121.74083
 31
0.0
  0
LINE
  5
AF
330
1F
100
AcDbEntity
  8
SLD-0
  6
Continuous
 62
   179
100
AcDbLine
 10
45.21144
 20
131.74083
 30
0.0
 11
95.211449
 21
131.74083
 31
0.0
  0
LINE
  5
B0
330
1F
100
AcDbEntity
  8
SLD-0
  6
Continuous
 62
   179
100
AcDbLine
 10
59.21144
 20
101.740829
 30
0.0
 11
81.21145
 21
101.740829
 31
0.0
  0
LINE
  5
B1
330
1F
100
AcDbEntity
  8
SLD-0
  6
CENTER
 62
   179
100
AcDbLine
 10
70.21145
 20
171.98932
 30
0.0
 11
70.21145
 21
87.148117
 31
0.0
  0
LINE
  5
B2
330
1F
100
AcDbEntity
  8
SLD-0
  6
Continuous
 62
   179
100
AcDbLine
 10
45.21144
 20
131.74083
 30
0.0
 11
45.21144
 21
121.74083
 31
0.0
  0
LINE
  5
B3
330
1F
100
AcDbEntity
  8
SLD-0
  6
Continuous
 62
   179
100
AcDbLine
 10
95.211449
 20
131.74083
 30
0.0
 11
95.211449
 21
121.74083
 31
0.0
  0
LINE
  5
B4
330
1F
100
AcDbEntity
  8
SLD-0
  6
Continuous
 62
   179
100
AcDbLine
 10
59.21144
 20
121.74083
 30
0.0
 11
59.21144
 21
101.740829
 31
0.0
  0
LINE
  5
B5
330
1F
100
AcDbEntity
  8
SLD-0
  6
Continuous
 62
   179
100
AcDbLine
 10
81.21145
 20
121.74083
 30
0.0
 11
81.21145
 21
101.740829
 31
0.0
  0
LINE
  5
B6
330
1F
100
AcDbEntity
  8
SLD-0
  6
Continuous
 62
   179
100
AcDbLine
 10
80.21145
 20
131.74083
 30
0.0
 11
80.21145
 21
169.72101
 31
0.0
  0
LINE
  5
B7
330
1F
100
AcDbEntity
  8
SLD-0
  6
Continuous
 62
   179
100
AcDbLine
 10
80.21145
 20
169.72101
 30
0.0
 11
60.21144
 21
169.72101
 31
0.0
  0
LINE
  5
B8
330
1F
100
AcDbEntity
  8
SLD-0
  6
Continuous
 62
   179
100
AcDbLine
 10
60.21144
 20
169.72101
 30
0.0
 11
60.21144
 21
131.74083
 31
0.0
  0
LINE
  5
B9
330
1F
100
AcDbEntity
  8
SLD-0
  6
Continuous
 62
   179
100
AcDbLine
 10
56.21144
 20
131.74083
 30
0.0
 11
56.21144
 21
144.74083
 31
0.0
  0
LINE
  5
BA
330
1F
100
AcDbEntity
  8
SLD-0
  6
Continuous
 62
   179
100
AcDbLine
 10
56.21144
 20
144.74083
 30
0.0
 11
60.21144
 21
144.74083
 31
0.0
  0
LINE
  5
BB
330
1F
100
AcDbEntity
  8
SLD-0
  6
Continuous
 62
   179
100
AcDbLine
 10
84.21145
 20
131.74083
 30
0.0
 11
84.21145
 21
144.74083
 31
0.0
  0
LINE
  5
BC
330
1F
100
AcDbEntity
  8
SLD-0
  6
Continuous
 62
   179
100
AcDbLine
 10
84.21145
 20
144.74083
 30
0.0
 11
80.21145
 21
144.74083
 31
0.0
  0
LINE
  5
BD
330
1F
100
AcDbEntity
  8
SLD-0
  6
Continuous
 62
   179
100
AcDbLine
 10
80.21145
 20
167.30621
 30
0.0
 11
60.21144
 21
167.30621
 31
0.0
  0
LINE
  5
BE
330
1F
100
AcDbEntity
  8
SLD-0
  6
Continuous
 62
   179
100
AcDbLine
 10
80.21145
 20
144.60695
 30
0.0
 11
60.21144
 21
144.60695
 31
0.0
  0
LINE
  5
BF
330
1F
100
AcDbEntity
  8
SLD-0
  6
Continuous
 62
   179
100
AcDbLine
 10
54.71144
 20
132.74083
 30
0.0
 11
54.71144
 21
140.74083
 31
0.0
  0
LINE
  5
C0
330
1F
100
AcDbEntity
  8
SLD-0
  6
Continuous
 62
   179
100
AcDbLine
 10
56.21144
 20
140.74083
 30
0.0
 11
54.71144
 21
140.74083
 31
0.0
  0
LINE
  5
C1
330
1F
100
AcDbEntity
  8
SLD-0
  6
CENTER
 62
   179
100
AcDbLine
 10
53.06998
 20
136.74083
 30
0.0
 11
87.12844
 21
136.74083
 31
0.0
  0
LINE
  5
C2
330
1F
100
AcDbEntity
  8
SLD-0
  6
Continuous
 62
   179
100
AcDbLine
 10
56.21144
 20
132.74083
 30
0.0
 11
54.71144
 21
132.74083
 31
0.0
  0
LINE
  5
C3
330
1F
100
AcDbEntity
  8
SLD-0
  6
Continuous
 62
   179
100
AcDbLine
 10
85.01146
 20
139.24083
 30
0.0
 11
86.21145
 21
139.24083
 31
0.0
  0
LINE
  5
C4
330
1F
100
AcDbEntity
  8
SLD-0
  6
Continuous
 62
   179
100
AcDbLine
 10
86.21145
 20
134.24083
 30
0.0
 11
86.21145
 21
139.24083
 31
0.0
  0
LINE
  5
C5
330
1F
100
AcDbEntity
  8
SLD-0
  6
Continuous
 62
   179
100
AcDbLine
 10
85.01146
 20
134.24083
 30
0.0
 11
86.21145
 21
134.24083
 31
0.0
  0
LINE
  5
C6
330
1F
100
AcDbEntity
  8
SLD-0
  6
Continuous
 62
   179
100
AcDbLine
 10
85.01146
 20
132.64083
 30
0.0
 11
85.01146
 21
140.84084
 31
0.0
  0
LINE
  5
C7
330
1F
100
AcDbEntity
  8
SLD-0
  6
Continuous
 62
   179
100
AcDbLine
 10
84.21145
 20
138.84083
 30
0.0
 11
85.01146
 21
138.84083
 31
0.0
  0
LINE
  5
C8
330
1F
100
AcDbEntity
  8
SLD-0
  6
Continuous
 62
   179
100
AcDbLine
 10
84.21145
 20
134.64083
 30
0.0
 11
85.01146
 21
134.64083
 31
0.0
  0
LINE
  5
C9
330
1F
100
AcDbEntity
  8
SLD-0
  6
CENTER
 62
   179
100
AcDbLine
 10
89.21145
 20
133.74083
 30
0.0
 11
89.21145
 21
119.74083
 31
0.0
  0
LINE
  5
CA
330
1F
100
AcDbEntity
  8
SLD-0
  6
CENTER
 62
   179
100
AcDbLine
 10
51.21144
 20
133.74083
 30
0.0
 11
51.21144
 21
119.74083
 31
0.0
  0
LINE
  5
CB
330
1F
100
AcDbEntity
  8
SLD-0
  6
CENTER
 62
   179
100
AcDbLine
 10
90.21145
 20
133.74083
 30
0.0
 11
90.21145
 21
119.74083
 31
0.0
  0
LINE
  5
CC
330
1F
100
AcDbEntity
  8
SLD-0
  6
CENTER
 62
   179
100
AcDbLine
 10
50.21144
 20
133.74083
 30
0.0
 11
50.21144
 21
119.74083
 31
0.0
  0
LINE
  5
CD
330
1F
100
AcDbEntity
  8
SLD-0
  6
CENTER
 62
   179
100
AcDbLine
 10
78.71145
 20
164.03754
 30
0.0
 11
73.71145
 21
164.03754
 31
0.0
  0
LINE
  5
CE
330
1F
100
AcDbEntity
  8
SLD-0
  6
CENTER
 62
   179
100
AcDbLine
 10
76.21145
 20
166.53754
 30
0.0
 11
76.21145
 21
161.53754
 31
0.0
  0
LINE
  5
CF
330
1F
100
AcDbEntity
  8
SLD-0
  6
CENTER
 62
   179
100
AcDbLine
 10
66.71145
 20
164.03754
 30
0.0
 11
61.71144
 21
164.03754
 31
0.0
  0
LINE
  5
D0
330
1F
100
AcDbEntity
  8
SLD-0
  6
CENTER
 62
   179
100
AcDbLine
 10
64.21144
 20
166.53754
 30
0.0
 11
64.21144
 21
161.53754
 31
0.0
  0
LINE
  5
D1
330
1F
100
AcDbEntity
  8
SLD-0
  6
CENTER
 62
   179
100
AcDbLine
 10
66.71145
 20
148.09976
 30
0.0
 11
61.71144
 21
148.09976
 31
0.0
  0
LINE
  5
D2
330
1F
100
AcDbEntity
  8
SLD-0
  6
CENTER
 62
   179
100
AcDbLine
 10
64.21144
 20
150.59976
 30
0.0
 11
64.21144
 21
145.59976
 31
0.0
  0
LINE
  5
D3
330
1F
100
AcDbEntity
  8
SLD-0
  6
CENTER
 62
   179
100
AcDbLine
 10
78.71145
 20
148.09976
 30
0.0
 11
73.71145
 21
148.09976
 31
0.0
  0
LINE
  5
D4
330
1F
100
AcDbEntity
  8
SLD-0
  6
CENTER
 62
   179
100
AcDbLine
 10
76.21145
 20
150.59976
 30
0.0
 11
76.21145
 21
145.59976
 31
0.0
  0
LINE
  5
D5
330
1F
100
AcDbEntity
  8
SLD-0
  6
Continuous
 62
   179
100
AcDbLine
 10
152.171448
 20
92.240829
 30
0.0
 11
149.171448
 21
92.240829
 31
0.0
  0
LINE
  5
D6
330
1F
100
AcDbEntity
  8
SLD-0
  6
Continuous
 62
   179
100
AcDbLine
 10
154.721451
 20
99.240829
 30
0.0
 11
146.621445
 21
99.240829
 31
0.0
  0
LINE
  5
D7
330
1F
100
AcDbEntity
  8
SLD-0
  6
Continuous
 62
   179
100
AcDbLine
 10
84.21145
 20
140.84084
 30
0.0
 11
85.01146
 21
140.84084
 31
0.0
  0
LINE
  5
D8
330
1F
100
AcDbEntity
  8
SLD-0
  6
Continuous
 62
   179
100
AcDbLine
 10
84.21145
 20
132.64083
 30
0.0
 11
85.01146
 21
132.64083
 31
0.0
  0
LINE
  5
D9
330
1F
100
AcDbEntity
  8
SLD-0
  6
Continuous
 62
   179
100
AcDbLine
 10
148.22624
 20
169.72101
 30
0.0
 11
147.579196
 21
167.3062
 31
0.0
  0
LINE
  5
DA
330
1F
100
AcDbEntity
  8
SLD-0
  6
Continuous
 62
   179
100
AcDbLine
 10
148.062146
 20
167.17682
 30
0.0
 11
141.979915
 21
144.47754
 31
0.0
  0
LINE
  5
DB
330
1F
100
AcDbEntity
  8
SLD-0
  6
Continuous
 62
   179
100
AcDbLine
 10
147.579184
 20
167.30619
 30
0.0
 11
148.062147
 21
167.17678
 31
0.0
  0
LINE
  5
DC
330
1F
100
AcDbEntity
  8
SLD-0
  6
Continuous
 62
   179
100
AcDbLine
 10
148.226226
 20
169.721
 30
0.0
 11
155.47067
 21
167.77987
 31
0.0
  0
LINE
  5
DD
330
1F
100
AcDbEntity
  8
SLD-0
  6
Continuous
 62
   179
100
AcDbLine
 10
141.496958
 20
144.60692
 30
0.0
 11
141.979913
 21
144.47751
 31
0.0
  0
LINE
  5
DE
330
1F
100
AcDbEntity
  8
SLD-0
  6
Continuous
 62
   179
100
AcDbLine
 10
141.49695
 20
144.60695
 30
0.0
 11
139.94404
 21
138.81138
 31
0.0
  0
LINE
  5
DF
330
1F
100
AcDbEntity
  8
SLD-0
  6
HIDDEN
 62
   179
100
AcDbLine
 10
147.759804
 20
146.72989
 30
0.0
 11
155.620456
 21
144.62363
 31
0.0
  0
LINE
  5
E0
330
1F
100
AcDbEntity
  8
SLD-0
  6
HIDDEN
 62
   179
100
AcDbLine
 10
147.759804
 20
146.72989
 30
0.0
 11
152.891781
 21
165.88275
 31
0.0
  0
LINE
  5
E1
330
1F
100
AcDbEntity
  8
SLD-0
  6
HIDDEN
 62
   179
100
AcDbLine
 10
152.891781
 20
165.88275
 30
0.0
 11
155.48744
 21
165.18725
 31
0.0
  0
LINE
  5
E2
330
1F
100
AcDbEntity
  8
SLD-0
  6
PHANTOM
 62
   179
100
AcDbLine
 10
137.130782
 20
165.43133
 30
0.0
 11
136.912887
 21
167.9218
 31
0.0
  0
LINE
  5
E3
330
1F
100
AcDbEntity
  8
SLD-0
  6
PHANTOM
 62
   179
100
AcDbLine
 10
136.912885
 20
167.92181
 30
0.0
 11
144.384345
 21
168.57548
 31
0.0
  0
LINE
  5
E4
330
1F
100
AcDbEntity
  8
SLD-0
  6
PHANTOM
 62
   179
100
AcDbLine
 10
137.628863
 20
165.4749
 30
0.0
 11
139.677045
 21
142.06431
 31
0.0
  0
LINE
  5
E5
330
1F
100
AcDbEntity
  8
SLD-0
  6
PHANTOM
 62
   179
100
AcDbLine
 10
139.677045
 20
142.06431
 30
0.0
 11
139.178949
 21
142.02073
 31
0.0
  0
LINE
  5
E6
330
1F
100
AcDbEntity
  8
SLD-0
  6
PHANTOM
 62
   179
100
AcDbLine
 10
139.178949
 20
142.02073
 30
0.0
 11
139.448105
 21
138.94427
 31
0.0
  0
LINE
  5
E7
330
1F
100
AcDbEntity
  8
SLD-0
  6
PHANTOM
 62
   179
100
AcDbLine
 10
137.130782
 20
165.43133
 30
0.0
 11
137.628863
 21
165.4749
 31
0.0
  0
LINE
  5
E8
330
1F
100
AcDbEntity
  8
SLD-0
  6
Continuous
 62
   179
100
AcDbLine
 10
152.421446
 20
94.740826
 30
0.0
 11
152.171448
 21
92.240829
 31
0.0
  0
LINE
  5
E9
330
1F
100
AcDbEntity
  8
SLD-0
  6
Continuous
 62
   179
100
AcDbLine
 10
148.921438
 20
97.240836
 30
0.0
 11
149.171438
 21
94.740839
 31
0.0
  0
LINE
  5
EA
330
1F
100
AcDbEntity
  8
SLD-0
  6
Continuous
 62
   179
100
AcDbLine
 10
152.421444
 20
97.24083
 30
0.0
 11
152.171444
 21
94.740832
 31
0.0
  0
LINE
  5
EB
330
1F
100
AcDbEntity
  8
SLD-0
  6
Continuous
 62
   179
100
AcDbLine
 10
152.421446
 20
94.740826
 30
0.0
 11
148.921448
 21
94.740829
 31
0.0
  0
LINE
  5
EC
330
1F
100
AcDbEntity
  8
SLD-0
  6
Continuous
 62
   179
100
AcDbLine
 10
148.921461
 20
94.740828
 30
0.0
 11
149.171461
 21
92.240831
 31
0.0
  0
LINE
  5
ED
330
1F
100
AcDbEntity
  8
SLD-0
  6
Continuous
 62
   179
100
AcDbLine
 10
152.271454
 20
99.240829
 30
0.0
 11
152.271454
 21
97.240829
 31
0.0
  0
LINE
  5
EE
330
1F
100
AcDbEntity
  8
SLD-0
  6
Continuous
 62
   179
100
AcDbLine
 10
149.071442
 20
99.240829
 30
0.0
 11
149.071442
 21
97.240829
 31
0.0
  0
LINE
  5
EF
330
1F
100
AcDbEntity
  8
SLD-0
  6
Continuous
 62
   179
100
AcDbLine
 10
152.421444
 20
97.24083
 30
0.0
 11
148.921448
 21
97.240829
 31
0.0
  0
LINE
  5
F0
330
1F
100
AcDbEntity
  8
SLD-0
  6
Continuous
 62
   179
100
AcDbLine
 10
152.696442
 20
101.740829
 30
0.0
 11
152.696442
 21
99.240829
 31
0.0
  0
LINE
  5
F1
330
1F
100
AcDbEntity
  8
SLD-0
  6
Continuous
 62
   179
100
AcDbLine
 10
154.721451
 20
101.740829
 30
0.0
 11
154.721451
 21
99.240829
 31
0.0
  0
LINE
  5
F2
330
1F
100
AcDbEntity
  8
SLD-0
  6
Continuous
 62
   179
100
AcDbLine
 10
146.621445
 20
101.740829
 30
0.0
 11
146.621445
 21
99.240829
 31
0.0
  0
LINE
  5
F3
330
1F
100
AcDbEntity
  8
SLD-0
  6
Continuous
 62
   179
100
AcDbLine
 10
148.646454
 20
101.740829
 30
0.0
 11
148.646454
 21
99.240829
 31
0.0
  0
LINE
  5
F4
330
1F
100
AcDbEntity
  8
SLD-0
  6
Continuous
 62
   179
100
AcDbLine
 10
71.71145
 20
92.240829
 30
0.0
 11
68.71145
 21
92.240829
 31
0.0
  0
LINE
  5
F5
330
1F
100
AcDbEntity
  8
SLD-0
  6
Continuous
 62
   179
100
AcDbLine
 10
74.26145
 20
99.240829
 30
0.0
 11
66.16145
 21
99.240829
 31
0.0
  0
LINE
  5
F6
330
1F
100
AcDbEntity
  8
SLD-0
  6
Continuous
 62
   179
100
AcDbLine
 10
66.16145
 20
101.740829
 30
0.0
 11
66.16145
 21
99.240829
 31
0.0
  0
LINE
  5
F7
330
1F
100
AcDbEntity
  8
SLD-0
  6
Continuous
 62
   179
100
AcDbLine
 10
74.26145
 20
101.740829
 30
0.0
 11
74.26145
 21
99.240829
 31
0.0
  0
LINE
  5
F8
330
1F
100
AcDbEntity
  8
SLD-0
  6
Continuous
 62
   179
100
AcDbLine
 10
68.18645
 20
101.740829
 30
0.0
 11
68.18645
 21
99.240829
 31
0.0
  0
LINE
  5
F9
330
1F
100
AcDbEntity
  8
SLD-0
  6
Continuous
 62
   179
100
AcDbLine
 10
72.23644
 20
101.740829
 30
0.0
 11
72.23644
 21
99.240829
 31
0.0
  0
LINE
  5
FA
330
1F
100
AcDbEntity
  8
SLD-0
  6
Continuous
 62
   179
100
AcDbLine
 10
71.96145
 20
97.240829
 30
0.0
 11
68.46145
 21
97.240829
 31
0.0
  0
LINE
  5
FB
330
1F
100
AcDbEntity
  8
SLD-0
  6
Continuous
 62
   179
100
AcDbLine
 10
68.61144
 20
99.240829
 30
0.0
 11
68.61144
 21
97.240829
 31
0.0
  0
LINE
  5
FC
330
1F
100
AcDbEntity
  8
SLD-0
  6
Continuous
 62
   179
100
AcDbLine
 10
71.81145
 20
99.240829
 30
0.0
 11
71.81145
 21
97.240829
 31
0.0
  0
LINE
  5
FD
330
1F
100
AcDbEntity
  8
SLD-0
  6
Continuous
 62
   179
100
AcDbLine
 10
71.96145
 20
94.740829
 30
0.0
 11
68.46145
 21
94.740829
 31
0.0
  0
LINE
  5
FE
330
1F
100
AcDbEntity
  8
SLD-0
  6
Continuous
 62
   179
100
AcDbLine
 10
71.96144
 20
97.240828
 30
0.0
 11
71.71144
 21
94.74083
 31
0.0
  0
LINE
  5
FF
330
1F
100
AcDbEntity
  8
SLD-0
  6
Continuous
 62
   179
100
AcDbLine
 10
68.46143
 20
97.240833
 30
0.0
 11
68.71143
 21
94.740836
 31
0.0
  0
LINE
  5
100
330
1F
100
AcDbEntity
  8
SLD-0
  6
Continuous
 62
   179
100
AcDbLine
 10
71.96145
 20
94.740829
 30
0.0
 11
71.71145
 21
92.240829
 31
0.0
  0
LINE
  5
101
330
1F
100
AcDbEntity
  8
SLD-0
  6
Continuous
 62
   179
100
AcDbLine
 10
68.46147
 20
94.740823
 30
0.0
 11
68.71147
 21
92.240825
 31
0.0
  0
LINE
  5
102
330
1F
100
AcDbEntity
  8
SLD-0
  6
PHANTOM
 62
   179
100
AcDbLine
 10
144.384345
 20
168.57548
 30
0.0
 11
146.738266
 21
162.23602
 31
0.0
  0
LINE
  5
103
330
1F
100
AcDbEntity
  8
SLD-0
  6
Continuous
 62
   179
100
AcDbLine
 10
131.650002
 20
49.825001
 30
0.0
 11
131.650002
 21
11.125
 31
0.0
  0
LINE
  5
104
330
1F
100
AcDbEntity
  8
SLD-0
  6
Continuous
 62
   179
100
AcDbLine
 10
131.650002
 20
23.825
 30
0.0
 11
193.25
 21
23.825
 31
0.0
  0
LINE
  5
105
330
1F
100
AcDbEntity
  8
SLD-0
  6
Continuous
 62
   179
100
AcDbLine
 10
131.650002
 20
36.325001
 30
0.0
 11
193.25
 21
36.325001
 31
0.0
  0
LINE
  5
106
330
1F
100
AcDbEntity
  8
SLD-0
  6
Continuous
 62
   179
100
AcDbLine
 10
131.650002
 20
49.825001
 30
0.0
 11
193.25
 21
49.825001
 31
0.0
  0
LINE
  5
107
330
1F
100
AcDbEntity
  8
SLD-0
  6
Continuous
 62
   179
100
AcDbLine
 10
16.64999
 20
11.325
 30
0.0
 11
193.25
 21
11.325
 31
0.0
  0
LINE
  5
108
330
1F
100
AcDbEntity
  8
SLD-0
  6
Continuous
 62
   179
100
AcDbLine
 10
16.64999
 20
285.625
 30
0.0
 11
16.64999
 21
11.325
 31
0.0
  0
LINE
  5
109
330
1F
100
AcDbEntity
  8
SLD-0
  6
Continuous
 62
   179
100
AcDbLine
 10
193.45
 20
285.82501
 30
0.0
 11
193.45
 21
11.125
 31
0.0
  0
LINE
  5
10A
330
1F
100
AcDbEntity
  8
SLD-0
  6
Continuous
 62
   179
100
AcDbLine
 10
16.45
 20
285.82501
 30
0.0
 11
193.45
 21
285.82501
 31
0.0
  0
CIRCLE
  5
10B
330
1F
100
AcDbEntity
  8
SLD-0
  6
Continuous
 62
   179
100
AcDbCircle
 10
147.6714483909
 20
136.74083
 30
0.0
 40
2.500000000000004
  0
ARC
  5
10C
330
1F
100
AcDbEntity
  8
SLD-0
  6
Continuous
 62
   179
100
AcDbCircle
 10
147.6714483909
 20
136.74083
 30
0.0
 40
8.000000390937515
100
AcDbArc
 50
38.6821829701
 51
180.0
  0
ARC
  5
10D
330
1F
100
AcDbEntity
  8
SLD-0
  6
Continuous
 62
   179
100
AcDbCircle
 10
158.6714480858
 20
138.7408297557
 30
0.0
 40
3.0
100
AcDbArc
 50
0.0
 51
90.0
  0
ARC
  5
10E
330
1F
100
AcDbEntity
  8
SLD-0
  6
Continuous
 62
   179
100
AcDbCircle
 10
140.671448
 20
130.74083
 30
0.0
 40
1.000000000000015
100
AcDbArc
 50
90.0
 51
180.0
  0
ARC
  5
10F
330
1F
100
AcDbEntity
  8
SLD-0
  6
Continuous
 62
   179
100
AcDbCircle
 10
160.671448
 20
130.74083
 30
0.0
 40
1.0
100
AcDbArc
 50
0.0
 51
90.0
  0
ARC
  5
110
330
1F
100
AcDbEntity
  8
SLD-0
  6
Continuous
 62
   179
100
AcDbCircle
 10
147.6714483909
 20
136.74083
 30
0.0
 40
5.000000000000004
100
AcDbArc
 50
44.76771
 51
315.2323
  0
ARC
  5
111
330
1F
100
AcDbEntity
  8
SLD-0
  6
Continuous
 62
   179
100
AcDbCircle
 10
147.6714483909
 20
136.74083
 30
0.0
 40
3.300000000000008
100
AcDbArc
 50
82.37842
 51
152.33592
  0
ARC
  5
112
330
1F
100
AcDbEntity
  8
SLD-0
  6
Continuous
 62
   179
100
AcDbCircle
 10
147.6714483909
 20
136.74083
 30
0.0
 40
3.300000000000041
100
AcDbArc
 50
207.66408
 51
280.84494
  0
ARC
  5
113
330
1F
100
AcDbEntity
  8
SLD-0
  6
Continuous
 62
   179
100
AcDbCircle
 10
148.0428117291
 20
139.5160950537
 30
0.0
 40
0.4999987773351673
100
AcDbArc
 50
342.091506229
 51
82.3784172084
  0
ARC
  5
114
330
1F
100
AcDbEntity
  8
SLD-0
  6
Continuous
 62
   179
100
AcDbCircle
 10
145.1915286445
 20
138.0408298671
 30
0.0
 40
0.4999997137237244
100
AcDbArc
 50
152.3354627836
 51
270.0
  0
ARC
  5
115
330
1F
100
AcDbEntity
  8
SLD-0
  6
Continuous
 62
   179
100
AcDbCircle
 10
145.1915307006
 20
135.4408212107
 30
0.0
 40
0.499997392293188
100
AcDbArc
 50
90.0
 51
207.6635222899
  0
ARC
  5
116
330
1F
100
AcDbEntity
  8
SLD-0
  6
Continuous
 62
   179
100
AcDbCircle
 10
148.1982736192
 20
133.9908388084
 30
0.0
 40
0.5000006473632512
100
AcDbArc
 50
280.8448759954
 51
21.1309309658
  0
ARC
  5
117
330
1F
100
AcDbEntity
  8
SLD-0
  6
Continuous
 62
   179
100
AcDbCircle
 10
150.8663040505
 20
139.9098816462
 30
0.0
 40
0.5000009976203069
100
AcDbArc
 50
300.0003532864
 51
44.767965877
  0
ARC
  5
118
330
1F
100
AcDbEntity
  8
SLD-0
  6
Continuous
 62
   179
100
AcDbCircle
 10
150.8663035749
 20
133.5717788256
 30
0.0
 40
0.5000016675675982
100
AcDbArc
 50
315.2321341224
 51
60.000002
  0
ARC
  5
119
330
1F
100
AcDbEntity
  8
SLD-0
  6
Continuous
 62
   179
100
AcDbCircle
 10
140.171448
 20
102.240829
 30
0.0
 40
0.5
100
AcDbArc
 50
180.0
 51
270.0
  0
ARC
  5
11A
330
1F
100
AcDbEntity
  8
SLD-0
  6
Continuous
 62
   179
100
AcDbCircle
 10
161.1714480858
 20
102.240829
 30
0.0
 40
0.4999999999999931
100
AcDbArc
 50
269.9999901724
 51
0.0
  0
ARC
  5
11B
330
1F
100
AcDbEntity
  8
SLD-0
  6
Continuous
 62
   179
100
AcDbCircle
 10
79.21145
 20
216.11082
 30
0.0
 40
1.0
100
AcDbArc
 50
270.0
 51
0.0
  0
CIRCLE
  5
11C
330
1F
100
AcDbEntity
  8
SLD-0
  6
Continuous
 62
   179
100
AcDbCircle
 10
50.21144
 20
220.11082
 30
0.0
 40
2.0
  0
CIRCLE
  5
11D
330
1F
100
AcDbEntity
  8
SLD-0
  6
Continuous
 62
   179
100
AcDbCircle
 10
51.21144
 20
232.11082
 30
0.0
 40
2.0
  0
CIRCLE
  5
11E
330
1F
100
AcDbEntity
  8
SLD-0
  6
Continuous
 62
   179
100
AcDbCircle
 10
89.21145
 20
232.11082
 30
0.0
 40
2.0
  0
CIRCLE
  5
11F
330
1F
100
AcDbEntity
  8
SLD-0
  6
Continuous
 62
   179
100
AcDbCircle
 10
90.21145
 20
220.11082
 30
0.0
 40
2.0
  0
ARC
  5
120
330
1F
100
AcDbEntity
  8
SLD-0
  6
Continuous
 62
   179
100
AcDbCircle
 10
61.21144
 20
229.91005
 30
0.0
 40
1.0
100
AcDbArc
 50
90.0
 51
180.0
  0
ARC
  5
121
330
1F
100
AcDbEntity
  8
SLD-0
  6
Continuous
 62
   179
100
AcDbCircle
 10
79.21145
 20
229.91005
 30
0.0
 40
1.0
100
AcDbArc
 50
0.0
 51
90.0
  0
ARC
  5
122
330
1F
100
AcDbEntity
  8
SLD-0
  6
Continuous
 62
   179
100
AcDbCircle
 10
61.21144
 20
216.11082
 30
0.0
 40
1.0
100
AcDbArc
 50
180.0
 51
270.0
  0
ARC
  5
123
330
1F
100
AcDbEntity
  8
SLD-0
  6
Continuous
 62
   179
100
AcDbCircle
 10
76.2714494109
 20
164.0342019522
 30
0.0
 40
1.440004458082283
100
AcDbArc
 50
0.1328164107
 51
7.8119284864
  0
ARC
  5
124
330
1F
100
AcDbEntity
  8
SLD-0
  6
Continuous
 62
   179
100
AcDbCircle
 10
76.3173864591
 20
164.0405092046
 30
0.0
 40
1.393636432376689
100
AcDbArc
 50
7.8117282474
 51
15.7483552291
  0
ARC
  5
125
330
1F
100
AcDbEntity
  8
SLD-0
  6
Continuous
 62
   179
100
AcDbCircle
 10
76.2960125901
 20
164.0343812358
 30
0.0
 40
1.415871203663583
100
AcDbArc
 50
15.752272471
 51
23.5609724586
  0
ARC
  5
126
330
1F
100
AcDbEntity
  8
SLD-0
  6
Continuous
 62
   179
100
AcDbCircle
 10
76.2782121926
 20
164.0265059865
 30
0.0
 40
1.435335610728625
100
AcDbArc
 50
23.5651028326
 51
31.2728953132
  0
ARC
  5
127
330
1F
100
AcDbEntity
  8
SLD-0
  6
Continuous
 62
   179
100
AcDbCircle
 10
76.2688028578
 20
164.0209825257
 30
0.0
 40
1.446245131228302
100
AcDbArc
 50
31.2664140456
 51
38.914711181
  0
ARC
  5
128
330
1F
100
AcDbEntity
  8
SLD-0
  6
Continuous
 62
   179
100
AcDbCircle
 10
76.252006971
 20
164.0074080708
 30
0.0
 40
1.467840674948254
100
AcDbArc
 50
38.9151594972
 51
46.4505701726
  0
ARC
  5
129
330
1F
100
AcDbEntity
  8
SLD-0
  6
Continuous
 62
   179
100
AcDbCircle
 10
76.2385852547
 20
163.9931077111
 30
0.0
 40
1.487452594017928
100
AcDbArc
 50
46.455380031
 51
53.8931779093
  0
ARC
  5
12A
330
1F
100
AcDbEntity
  8
SLD-0
  6
Continuous
 62
   179
100
AcDbCircle
 10
76.2282820176
 20
163.9790638245
 30
0.0
 40
1.504870548762967
100
AcDbArc
 50
53.8913416001
 51
61.2473009902
  0
ARC
  5
12B
330
1F
100
AcDbEntity
  8
SLD-0
  6
Continuous
 62
   179
100
AcDbCircle
 10
76.2191512046
 20
163.9627739323
 30
0.0
 40
1.523544168948728
100
AcDbArc
 50
61.240941919
 51
68.5065482579
  0
ARC
  5
12C
330
1F
100
AcDbEntity
  8
SLD-0
  6
Continuous
 62
   179
100
AcDbCircle
 10
76.2141519433
 20
163.9496938879
 30
0.0
 40
1.537546330094812
100
AcDbArc
 50
68.5117970081
 51
75.7074745164
  0
ARC
  5
12D
330
1F
100
AcDbEntity
  8
SLD-0
  6
Continuous
 62
   179
100
AcDbCircle
 10
76.212511188
 20
163.94337852
 30
0.0
 40
1.5440712822104
100
AcDbArc
 50
75.706328681
 51
82.8731011356
  0
ARC
  5
12E
330
1F
100
AcDbEntity
  8
SLD-0
  6
Continuous
 62
   179
100
AcDbCircle
 10
76.2113955365
 20
163.9358422555
 30
0.0
 40
1.551687745465019
100
AcDbArc
 50
82.8667490499
 51
89.997988944
  0
ARC
  5
12F
330
1F
100
AcDbEntity
  8
SLD-0
  6
Continuous
 62
   179
100
AcDbCircle
 10
76.2114583833
 20
163.9359409513
 30
0.0
 40
1.551589048743019
100
AcDbArc
 50
90.0003095705
 51
97.1305035692
  0
ARC
  5
130
330
1F
100
AcDbEntity
  8
SLD-0
  6
Continuous
 62
   179
100
AcDbCircle
 10
76.2104575546
 20
163.9433899582
 30
0.0
 40
1.544073421360786
100
AcDbArc
 50
97.1279637965
 51
104.2851787998
  0
ARC
  5
131
330
1F
100
AcDbEntity
  8
SLD-0
  6
Continuous
 62
   179
100
AcDbCircle
 10
76.2087816939
 20
163.9497071482
 30
0.0
 40
1.537538047014049
100
AcDbArc
 50
104.2827459299
 51
111.4704495348
  0
ARC
  5
132
330
1F
100
AcDbEntity
  8
SLD-0
  6
Continuous
 62
   179
100
AcDbCircle
 10
76.2038648127
 20
163.9623996498
 30
0.0
 40
1.523926641226566
100
AcDbArc
 50
111.4730830358
 51
118.7325568671
  0
ARC
  5
133
330
1F
100
AcDbEntity
  8
SLD-0
  6
Continuous
 62
   179
100
AcDbCircle
 10
76.1939897882
 20
163.9801959189
 30
0.0
 40
1.503574434459196
100
AcDbArc
 50
118.7285904258
 51
126.0844007713
  0
ARC
  5
134
330
1F
100
AcDbEntity
  8
SLD-0
  6
Continuous
 62
   179
100
AcDbCircle
 10
76.1847716614
 20
163.992589923
 30
0.0
 40
1.488128965535347
100
AcDbArc
 50
126.078631022
 51
133.5112154334
  0
ARC
  5
135
330
1F
100
AcDbEntity
  8
SLD-0
  6
Continuous
 62
   179
100
AcDbCircle
 10
76.1717782621
 20
164.0066674205
 30
0.0
 40
1.468973520656386
100
AcDbArc
 50
133.5217067402
 51
141.0527994615
  0
ARC
  5
136
330
1F
100
AcDbEntity
  8
SLD-0
  6
Continuous
 62
   179
100
AcDbCircle
 10
76.1540893685
 20
164.0207508186
 30
0.0
 40
1.446363545536042
100
AcDbArc
 50
141.0462121072
 51
148.7039092413
  0
ARC
  5
137
330
1F
100
AcDbEntity
  8
SLD-0
  6
Continuous
 62
   179
100
AcDbCircle
 10
76.142210815
 20
164.0279349809
 30
0.0
 40
1.432481499149226
100
AcDbArc
 50
148.7026446169
 51
156.4348075715
  0
ARC
  5
138
330
1F
100
AcDbEntity
  8
SLD-0
  6
Continuous
 62
   179
100
AcDbCircle
 10
76.1299279844
 20
164.0334926525
 30
0.0
 40
1.419001083458271
100
AcDbArc
 50
156.4422214241
 51
164.2385442956
  0
ARC
  5
139
330
1F
100
AcDbEntity
  8
SLD-0
  6
Continuous
 62
   179
100
AcDbCircle
 10
76.1163503632
 20
164.0373301529
 30
0.0
 40
1.404891576775744
100
AcDbArc
 50
164.2387517075
 51
172.1154332227
  0
ARC
  5
13A
330
1F
100
AcDbEntity
  8
SLD-0
  6
Continuous
 62
   179
100
AcDbCircle
 10
76.1149784874
 20
164.0373606249
 30
0.0
 40
1.403528498828236
100
AcDbArc
 50
172.1089829588
 51
180.0
  0
ARC
  5
13B
330
1F
100
AcDbEntity
  8
SLD-0
  6
Continuous
 62
   179
100
AcDbCircle
 10
76.1151536636
 20
164.0376892636
 30
0.0
 40
1.403703671580646
100
AcDbArc
 50
180.0
 51
187.8875489751
  0
ARC
  5
13C
330
1F
100
AcDbEntity
  8
SLD-0
  6
Continuous
 62
   179
100
AcDbCircle
 10
76.1162433645
 20
164.0377762186
 30
0.0
 40
1.404794997338074
100
AcDbArc
 50
187.8849628856
 51
195.7558494754
  0
ARC
  5
13D
330
1F
100
AcDbEntity
  8
SLD-0
  6
Continuous
 62
   179
100
AcDbCircle
 10
76.1299592009
 20
164.0415355713
 30
0.0
 40
1.419016309460734
100
AcDbArc
 50
195.751558358
 51
203.5428972231
  0
ARC
  5
13E
330
1F
100
AcDbEntity
  8
SLD-0
  6
Continuous
 62
   179
100
AcDbCircle
 10
76.142535805
 20
164.0472559932
 30
0.0
 40
1.4328310100209
100
AcDbArc
 50
203.5517232674
 51
211.2729961395
  0
ARC
  5
13F
330
1F
100
AcDbEntity
  8
SLD-0
  6
Continuous
 62
   179
100
AcDbCircle
 10
76.1536044504
 20
164.0539384113
 30
0.0
 40
1.445760373775864
100
AcDbArc
 50
211.2716317524
 51
218.9226288633
  0
ARC
  5
140
330
1F
100
AcDbEntity
  8
SLD-0
  6
Continuous
 62
   179
100
AcDbCircle
 10
76.1716598382
 20
164.0683598737
 30
0.0
 40
1.468867959323325
100
AcDbArc
 50
218.9177983236
 51
226.4479313462
  0
ARC
  5
141
330
1F
100
AcDbEntity
  8
SLD-0
  6
Continuous
 62
   179
100
AcDbCircle
 10
76.1847660463
 20
164.0824914715
 30
0.0
 40
1.488140187138735
100
AcDbArc
 50
226.4571007586
 51
233.8914571818
  0
ARC
  5
142
330
1F
100
AcDbEntity
  8
SLD-0
  6
Continuous
 62
   179
100
AcDbCircle
 10
76.1937070485
 20
164.0944294618
 30
0.0
 40
1.503054008442384
100
AcDbArc
 50
233.8842832579
 51
241.2493499229
  0
ARC
  5
143
330
1F
100
AcDbEntity
  8
SLD-0
  6
Continuous
 62
   179
100
AcDbCircle
 10
76.2040104961
 20
164.1129957565
 30
0.0
 40
1.524287422997311
100
AcDbArc
 50
241.2454825096
 51
248.5073814129
  0
ARC
  5
144
330
1F
100
AcDbEntity
  8
SLD-0
  6
Continuous
 62
   179
100
AcDbCircle
 10
76.2086843925
 20
164.1253352268
 30
0.0
 40
1.537481303661809
100
AcDbArc
 50
248.5137932479
 51
255.7093054491
  0
ARC
  5
145
330
1F
100
AcDbEntity
  8
SLD-0
  6
Continuous
 62
   179
100
AcDbCircle
 10
76.2104461656
 20
164.1315776129
 30
0.0
 40
1.543965412190626
100
AcDbArc
 50
255.7031313299
 51
262.8704649632
  0
ARC
  5
146
330
1F
100
AcDbEntity
  8
SLD-0
  6
Continuous
 62
   179
100
AcDbCircle
 10
76.2115098553
 20
164.139314224
 30
0.0
 40
1.551774225180167
100
AcDbArc
 50
262.8669480173
 51
269.9977899766
  0
ARC
  5
147
330
1F
100
AcDbEntity
  8
SLD-0
  6
Continuous
 62
   179
100
AcDbCircle
 10
76.2113596448
 20
164.139161616
 30
0.0
 40
1.55162161863068
100
AcDbArc
 50
270.0033364911
 51
277.1334036452
  0
ARC
  5
148
330
1F
100
AcDbEntity
  8
SLD-0
  6
Continuous
 62
   179
100
AcDbCircle
 10
76.2123290259
 20
164.1327080588
 30
0.0
 40
1.54509764441107
100
AcDbArc
 50
277.127452859
 51
284.279848258
  0
ARC
  5
149
330
1F
100
AcDbEntity
  8
SLD-0
  6
Continuous
 62
   179
100
AcDbCircle
 10
76.2145683498
 20
164.1245459423
 30
0.0
 40
1.536635377044095
100
AcDbArc
 50
284.2739986829
 51
291.4660563751
  0
ARC
  5
14A
330
1F
100
AcDbEntity
  8
SLD-0
  6
Continuous
 62
   179
100
AcDbCircle
 10
76.2193032123
 20
164.1117733312
 30
0.0
 40
1.523016044908637
100
AcDbArc
 50
291.476127609
 51
298.7402675046
  0
ARC
  5
14B
330
1F
100
AcDbEntity
  8
SLD-0
  6
Continuous
 62
   179
100
AcDbCircle
 10
76.2282230577
 20
164.0958866164
 30
0.0
 40
1.504797433164462
100
AcDbArc
 50
298.733336623
 51
306.0828383253
  0
ARC
  5
14C
330
1F
100
AcDbEntity
  8
SLD-0
  6
Continuous
 62
   179
100
AcDbCircle
 10
76.2381389754
 20
164.0825502889
 30
0.0
 40
1.488179448306402
100
AcDbArc
 50
306.076708139
 51
313.5093365072
  0
ARC
  5
14D
330
1F
100
AcDbEntity
  8
SLD-0
  6
Continuous
 62
   179
100
AcDbCircle
 10
76.2515555761
 20
164.068091854
 30
0.0
 40
1.468456344992549
100
AcDbArc
 50
313.5180641989
 51
321.0520783678
  0
ARC
  5
14E
330
1F
100
AcDbEntity
  8
SLD-0
  6
Continuous
 62
   179
100
AcDbCircle
 10
76.2692283201
 20
164.0538354954
 30
0.0
 40
1.445750197011219
100
AcDbArc
 50
321.0512101378
 51
328.7120286948
  0
ARC
  5
14F
330
1F
100
AcDbEntity
  8
SLD-0
  6
Continuous
 62
   179
100
AcDbCircle
 10
76.2780735405
 20
164.0486128773
 30
0.0
 40
1.435479048737063
100
AcDbArc
 50
328.7068162138
 51
336.4226377361
  0
ARC
  5
150
330
1F
100
AcDbEntity
  8
SLD-0
  6
Continuous
 62
   179
100
AcDbCircle
 10
76.2961216967
 20
164.0406479855
 30
0.0
 40
1.415751687093254
100
AcDbArc
 50
336.4259143054
 51
344.2396678644
  0
ARC
  5
151
330
1F
100
AcDbEntity
  8
SLD-0
  6
Continuous
 62
   179
100
AcDbCircle
 10
76.3172951279
 20
164.0346024103
 30
0.0
 40
1.39373218283126
100
AcDbArc
 50
344.2424345017
 51
352.1841803286
  0
ARC
  5
152
330
1F
100
AcDbEntity
  8
SLD-0
  6
Continuous
 62
   179
100
AcDbCircle
 10
76.2712873154
 20
164.0408820595
 30
0.0
 40
1.440166562421924
100
AcDbArc
 50
352.1855826611
 51
359.8670389374
  0
ARC
  5
153
330
1F
100
AcDbEntity
  8
SLD-0
  6
Continuous
 62
   179
100
AcDbCircle
 10
64.2714491109
 20
164.0342019313
 30
0.0
 40
1.44000475813336
100
AcDbArc
 50
0.1328172121
 51
7.8119276852
  0
ARC
  5
154
330
1F
100
AcDbEntity
  8
SLD-0
  6
Continuous
 62
   179
100
AcDbCircle
 10
64.3173866166
 20
164.0405092375
 30
0.0
 40
1.393636271852749
100
AcDbArc
 50
7.8117277896
 51
15.748355687
  0
ARC
  5
155
330
1F
100
AcDbEntity
  8
SLD-0
  6
Continuous
 62
   179
100
AcDbCircle
 10
64.2960127466
 20
164.0343812917
 30
0.0
 40
1.415871037891864
100
AcDbArc
 50
15.7522720132
 51
23.5609729164
  0
ARC
  5
156
330
1F
100
AcDbEntity
  8
SLD-0
  6
Continuous
 62
   179
100
AcDbCircle
 10
64.2782118896
 20
164.0265058293
 30
0.0
 40
1.435335951253796
100
AcDbArc
 50
23.5651037483
 51
31.2728943975
  0
ARC
  5
157
330
1F
100
AcDbEntity
  8
SLD-0
  6
Continuous
 62
   179
100
AcDbCircle
 10
64.2688029996
 20
164.0209826253
 30
0.0
 40
1.44624495833011
100
AcDbArc
 50
31.2664135877
 51
38.9147116389
  0
ARC
  5
158
330
1F
100
AcDbEntity
  8
SLD-0
  6
Continuous
 62
   179
100
AcDbCircle
 10
64.2520070694
 20
164.0074081616
 30
0.0
 40
1.467840541356522
100
AcDbArc
 50
38.9151591538
 51
46.450570516
  0
ARC
  5
159
330
1F
100
AcDbEntity
  8
SLD-0
  6
Continuous
 62
   179
100
AcDbCircle
 10
64.2385850493
 20
163.9931074648
 30
0.0
 40
1.487452914063272
100
AcDbArc
 50
46.4553808323
 51
53.893177108
  0
ARC
  5
15A
330
1F
100
AcDbEntity
  8
SLD-0
  6
Continuous
 62
   179
100
AcDbCircle
 10
64.2281603947
 20
163.9788724042
 30
0.0
 40
1.505096872044617
100
AcDbArc
 50
53.8918954232
 51
61.246747167
  0
ARC
  5
15B
330
1F
100
AcDbEntity
  8
SLD-0
  6
Continuous
 62
   179
100
AcDbCircle
 10
64.2192368091
 20
163.9629564605
 30
0.0
 40
1.523342968854976
100
AcDbArc
 50
61.2404614615
 51
68.5070287155
  0
ARC
  5
15C
330
1F
100
AcDbEntity
  8
SLD-0
  6
Continuous
 62
   179
100
AcDbCircle
 10
64.2141568381
 20
163.9497730824
 30
0.0
 40
1.537470847380554
100
AcDbArc
 50
68.5108856545
 51
75.7065615601
  0
ARC
  5
15D
330
1F
100
AcDbEntity
  8
SLD-0
  6
Continuous
 62
   179
100
AcDbCircle
 10
64.2125428815
 20
163.9434932166
 30
0.0
 40
1.543954780281399
100
AcDbArc
 50
75.7060579369
 51
82.8733718797
  0
ARC
  5
15E
330
1F
100
AcDbEntity
  8
SLD-0
  6
Continuous
 62
   179
100
AcDbCircle
 10
64.2113890402
 20
163.9355775681
 30
0.0
 40
1.551952432779681
100
AcDbArc
 50
82.8673581903
 51
89.9981186394
  0
ARC
  5
15F
330
1F
100
AcDbEntity
  8
SLD-0
  6
Continuous
 62
   179
100
AcDbCircle
 10
64.2114412156
 20
163.9360559868
 30
0.0
 40
1.551474013185191
100
AcDbArc
 50
90.0000448912
 51
97.1307682486
  0
ARC
  5
160
330
1F
100
AcDbEntity
  8
SLD-0
  6
Continuous
 62
   179
100
AcDbCircle
 10
64.2104750352
 20
163.943351013
 30
0.0
 40
1.544115475665518
100
AcDbArc
 50
97.1287962924
 51
104.2854508024
  0
ARC
  5
161
330
1F
100
AcDbEntity
  8
SLD-0
  6
Continuous
 62
   179
100
AcDbCircle
 10
64.2087816487
 20
163.9497072881
 30
0.0
 40
1.537537900276375
100
AcDbArc
 50
104.2827455865
 51
111.4704498782
  0
ARC
  5
162
330
1F
100
AcDbEntity
  8
SLD-0
  6
Continuous
 62
   179
100
AcDbCircle
 10
64.2038649555
 20
163.9623993449
 30
0.0
 40
1.523926977213251
100
AcDbArc
 50
111.4730838371
 51
118.7325560658
  0
ARC
  5
163
330
1F
100
AcDbEntity
  8
SLD-0
  6
Continuous
 62
   179
100
AcDbCircle
 10
64.1939897129
 20
163.9801960375
 30
0.0
 40
1.503574294257368
100
AcDbArc
 50
118.7285900824
 51
126.0844011147
  0
ARC
  5
164
330
1F
100
AcDbEntity
  8
SLD-0
  6
Continuous
 62
   179
100
AcDbCircle
 10
64.1847715733
 20
163.9925900287
 30
0.0
 40
1.488128828214142
100
AcDbArc
 50
126.0786306786
 51
133.5112157768
  0
ARC
  5
165
330
1F
100
AcDbEntity
  8
SLD-0
  6
Continuous
 62
   179
100
AcDbCircle
 10
64.1715256928
 20
164.0069005888
 30
0.0
 40
1.468630520689791
100
AcDbArc
 50
133.5208260246
 51
141.053680177
  0
ARC
  5
166
330
1F
100
AcDbEntity
  8
SLD-0
  6
Continuous
 62
   179
100
AcDbCircle
 10
64.1544052944
 20
164.0206068234
 30
0.0
 40
1.44669975785845
100
AcDbArc
 50
141.0496435252
 51
148.7053299898
  0
ARC
  5
167
330
1F
100
AcDbEntity
  8
SLD-0
  6
Continuous
 62
   179
100
AcDbCircle
 10
64.1422156643
 20
164.027861071
 30
0.0
 40
1.432515494166712
100
AcDbArc
 50
148.7000116238
 51
156.4321754941
  0
ARC
  5
168
330
1F
100
AcDbEntity
  8
SLD-0
  6
Continuous
 62
   179
100
AcDbCircle
 10
64.130277392
 20
164.0333678242
 30
0.0
 40
1.419371261362772
100
AcDbArc
 50
156.4432396517
 51
164.237526068
  0
ARC
  5
169
330
1F
100
AcDbEntity
  8
SLD-0
  6
Continuous
 62
   179
100
AcDbCircle
 10
64.1163415638
 20
164.0372583221
 30
0.0
 40
1.404902621364712
100
AcDbArc
 50
164.2358349108
 51
172.1125381727
  0
ARC
  5
16A
330
1F
100
AcDbEntity
  8
SLD-0
  6
Continuous
 62
   179
100
AcDbCircle
 10
64.1146127579
 20
164.0373851828
 30
0.0
 40
1.40317276640693
100
AcDbArc
 50
172.1079820412
 51
180.0
  0
ARC
  5
16B
330
1F
100
AcDbEntity
  8
SLD-0
  6
Continuous
 62
   179
100
AcDbCircle
 10
64.1147995006
 20
164.0377377375
 30
0.0
 40
1.403359514557663
100
AcDbArc
 50
180.0
 51
187.8914936083
  0
ARC
  5
16C
330
1F
100
AcDbEntity
  8
SLD-0
  6
Continuous
 62
   179
100
AcDbCircle
 10
64.1166434149
 20
164.0378599422
 30
0.0
 40
1.405202751341991
100
AcDbArc
 50
187.8861066493
 51
195.7547057116
  0
ARC
  5
16D
330
1F
100
AcDbEntity
  8
SLD-0
  6
Continuous
 62
   179
100
AcDbCircle
 10
64.1299590437
 20
164.0415355152
 30
0.0
 40
1.419016142948622
100
AcDbArc
 50
195.7515579002
 51
203.5428976809
  0
ARC
  5
16E
330
1F
100
AcDbEntity
  8
SLD-0
  6
Continuous
 62
   179
100
AcDbCircle
 10
64.1422073953
 20
164.0472005748
 30
0.0
 40
1.43250781526055
100
AcDbArc
 50
203.5549399291
 51
211.2777861891
  0
ARC
  5
16F
330
1F
100
AcDbEntity
  8
SLD-0
  6
Continuous
 62
   179
100
AcDbCircle
 10
64.1543319141
 20
164.0543374541
 30
0.0
 40
1.446575552546135
100
AcDbArc
 50
211.2700509469
 51
218.9173797169
  0
ARC
  5
170
330
1F
100
AcDbEntity
  8
SLD-0
  6
Continuous
 62
   179
100
AcDbCircle
 10
64.1713644759
 20
164.0680719652
 30
0.0
 40
1.468455789626045
100
AcDbArc
 50
218.9168464432
 51
226.4485435548
  0
ARC
  5
171
330
1F
100
AcDbEntity
  8
SLD-0
  6
Continuous
 62
   179
100
AcDbCircle
 10
64.1846433206
 20
164.0823443059
 30
0.0
 40
1.487948967501952
100
AcDbArc
 50
226.4566223843
 51
233.8919355561
  0
ARC
  5
172
330
1F
100
AcDbEntity
  8
SLD-0
  6
Continuous
 62
   179
100
AcDbCircle
 10
64.1939554487
 20
164.0948203773
 30
0.0
 40
1.503516212839015
100
AcDbArc
 50
233.8854168869
 51
241.2482162939
  0
ARC
  5
173
330
1F
100
AcDbEntity
  8
SLD-0
  6
Continuous
 62
   179
100
AcDbCircle
 10
64.203924835
 20
164.1128130855
 30
0.0
 40
1.524086069491403
100
AcDbArc
 50
241.245002166
 51
248.5078617565
  0
ARC
  5
174
330
1F
100
AcDbEntity
  8
SLD-0
  6
Continuous
 62
   179
100
AcDbCircle
 10
64.2086696568
 20
164.1252895727
 30
0.0
 40
1.537433424804673
100
AcDbArc
 50
248.5136810588
 51
255.7094176381
  0
ARC
  5
175
330
1F
100
AcDbEntity
  8
SLD-0
  6
Continuous
 62
   179
100
AcDbCircle
 10
64.2104804916
 20
164.1317590491
 30
0.0
 40
1.54414970593515
100
AcDbArc
 50
255.7035595979
 51
262.8700366952
  0
ARC
  5
176
330
1F
100
AcDbEntity
  8
SLD-0
  6
Continuous
 62
   179
100
AcDbCircle
 10
64.2114983406
 20
164.1391294932
 30
0.0
 40
1.551589494316968
100
AcDbArc
 50
262.8665228703
 51
269.9978456484
  0
ARC
  5
177
330
1F
100
AcDbEntity
  8
SLD-0
  6
Continuous
 62
   179
100
AcDbCircle
 10
64.2113496262
 20
164.1391619146
 30
0.0
 40
1.551621917199718
100
AcDbArc
 50
270.003337178
 51
277.1334029583
  0
ARC
  5
178
330
1F
100
AcDbEntity
  8
SLD-0
  6
Continuous
 62
   179
100
AcDbCircle
 10
64.2122950042
 20
164.1328351451
 30
0.0
 40
1.54522672926752
100
AcDbArc
 50
277.1277519953
 51
284.2795491217
  0
ARC
  5
179
330
1F
100
AcDbEntity
  8
SLD-0
  6
Continuous
 62
   179
100
AcDbCircle
 10
64.2145967239
 20
164.1245219841
 30
0.0
 40
1.536602697276257
100
AcDbArc
 50
284.2728322509
 51
291.4653986865
  0
ARC
  5
17A
330
1F
100
AcDbEntity
  8
SLD-0
  6
Continuous
 62
   179
100
AcDbCircle
 10
64.2192727255
 20
164.1120015094
 30
0.0
 40
1.523239543365046
100
AcDbArc
 50
291.4740524595
 51
298.736965167
  0
ARC
  5
17B
330
1F
100
AcDbEntity
  8
SLD-0
  6
Continuous
 62
   179
100
AcDbCircle
 10
64.2284546732
 20
164.0954798711
 30
0.0
 40
1.504338195132819
100
AcDbArc
 50
298.7328655995
 51
306.0851407709
  0
ARC
  5
17C
330
1F
100
AcDbEntity
  8
SLD-0
  6
Continuous
 62
   179
100
AcDbCircle
 10
64.2379905819
 20
164.082657452
 30
0.0
 40
1.488359335012272
100
AcDbArc
 50
306.0792070406
 51
313.5106394148
  0
ARC
  5
17D
330
1F
100
AcDbEntity
  8
SLD-0
  6
Continuous
 62
   179
100
AcDbCircle
 10
64.2515553464
 20
164.0680920661
 30
0.0
 40
1.468456656895528
100
AcDbArc
 50
313.5180650002
 51
321.0520775665
  0
ARC
  5
17E
330
1F
100
AcDbEntity
  8
SLD-0
  6
Continuous
 62
   179
100
AcDbCircle
 10
64.2692284616
 20
164.0538353959
 30
0.0
 40
1.445750024456155
100
AcDbArc
 50
321.05120968
 51
328.7120291527
  0
ARC
  5
17F
330
1F
100
AcDbEntity
  8
SLD-0
  6
Continuous
 62
   179
100
AcDbCircle
 10
64.2780736919
 20
164.0486127988
 30
0.0
 40
1.435478878635689
100
AcDbArc
 50
328.706815756
 51
336.422638194
  0
ARC
  5
180
330
1F
100
AcDbEntity
  8
SLD-0
  6
Continuous
 62
   179
100
AcDbCircle
 10
64.296121384
 20
164.0406480973
 30
0.0
 40
1.415752018393177
100
AcDbArc
 50
336.425915221
 51
344.2396669488
  0
ARC
  5
181
330
1F
100
AcDbEntity
  8
SLD-0
  6
Continuous
 62
   179
100
AcDbCircle
 10
64.3172952854
 20
164.0346023775
 30
0.0
 40
1.393732022400295
100
AcDbArc
 50
344.2424340439
 51
352.1841807864
  0
ARC
  5
182
330
1F
100
AcDbEntity
  8
SLD-0
  6
Continuous
 62
   179
100
AcDbCircle
 10
64.2712874868
 20
164.0408820476
 30
0.0
 40
1.440166390997552
100
AcDbArc
 50
352.1855822032
 51
359.8670393952
  0
ARC
  5
183
330
1F
100
AcDbEntity
  8
SLD-0
  6
Continuous
 62
   179
100
AcDbCircle
 10
64.2795284159
 20
164.0348304512
 30
0.0
 40
1.03192514137766
100
AcDbArc
 50
0.1504429775
 51
7.9603795753
  0
ARC
  5
184
330
1F
100
AcDbEntity
  8
SLD-0
  6
Continuous
 62
   179
100
AcDbCircle
 10
64.3138317873
 20
164.0396527864
 30
0.0
 40
0.9972844781871961
100
AcDbArc
 50
7.958928785
 51
16.033971921
  0
ARC
  5
185
330
1F
100
AcDbEntity
  8
SLD-0
  6
Continuous
 62
   179
100
AcDbCircle
 10
64.2954684153
 20
164.0343058221
 30
0.0
 40
1.016410352571761
100
AcDbArc
 50
16.0377408988
 51
23.9563719702
  0
ARC
  5
186
330
1F
100
AcDbEntity
  8
SLD-0
  6
Continuous
 62
   179
100
AcDbCircle
 10
64.2782114873
 20
164.0265357956
 30
0.0
 40
1.035335633701765
100
AcDbArc
 50
23.9615550387
 51
31.7491004957
  0
ARC
  5
187
330
1F
100
AcDbEntity
  8
SLD-0
  6
Continuous
 62
   179
100
AcDbCircle
 10
64.2680486363
 20
164.0203409871
 30
0.0
 40
1.047237435416079
100
AcDbArc
 50
31.7447302809
 51
39.4442979705
  0
ARC
  5
188
330
1F
100
AcDbEntity
  8
SLD-0
  6
Continuous
 62
   179
100
AcDbCircle
 10
64.2506130562
 20
164.0060439995
 30
0.0
 40
1.069785206905082
100
AcDbArc
 50
39.4423396107
 51
46.9783791718
  0
ARC
  5
189
330
1F
100
AcDbEntity
  8
SLD-0
  6
Continuous
 62
   179
100
AcDbCircle
 10
64.2375699231
 20
163.9918748303
 30
0.0
 40
1.089043236352858
100
AcDbArc
 50
46.9852961439
 51
54.3894529221
  0
ARC
  5
18A
330
1F
100
AcDbEntity
  8
SLD-0
  6
Continuous
 62
   179
100
AcDbCircle
 10
64.2272909018
 20
163.9777036703
 30
0.0
 40
1.10654949641248
100
AcDbArc
 50
54.3840006317
 51
61.6742962468
  0
ARC
  5
18B
330
1F
100
AcDbEntity
  8
SLD-0
  6
Continuous
 62
   179
100
AcDbCircle
 10
64.2191176992
 20
163.9628254289
 30
0.0
 40
1.123524340497536
100
AcDbArc
 50
61.6674063282
 51
68.8460326621
  0
ARC
  5
18C
330
1F
100
AcDbEntity
  8
SLD-0
  6
Continuous
 62
   179
100
AcDbCircle
 10
64.2143978141
 20
163.950082496
 30
0.0
 40
1.137111886000229
100
AcDbArc
 50
68.855947834
 51
75.9465102402
  0
ARC
  5
18D
330
1F
100
AcDbEntity
  8
SLD-0
  6
Continuous
 62
   179
100
AcDbCircle
 10
64.2123683741
 20
163.9429778124
 30
0.0
 40
1.144496752617887
100
AcDbArc
 50
75.9343209356
 51
82.9902876634
  0
ARC
  5
18E
330
1F
100
AcDbEntity
  8
SLD-0
  6
Continuous
 62
   179
100
AcDbCircle
 10
64.2115234592
 20
163.9352612045
 30
0.0
 40
1.152258798530601
100
AcDbArc
 50
82.9954151116
 51
90.004149986
  0
ARC
  5
18F
330
1F
100
AcDbEntity
  8
SLD-0
  6
Continuous
 62
   179
100
AcDbCircle
 10
64.2113963805
 20
163.9355436494
 30
0.0
 40
1.151976351456273
100
AcDbArc
 50
89.9978304973
 51
96.9972829631
  0
ARC
  5
190
330
1F
100
AcDbEntity
  8
SLD-0
  6
Continuous
 62
   179
100
AcDbCircle
 10
64.2105004764
 20
163.9433822171
 30
0.0
 40
1.144087026708747
100
AcDbArc
 50
97.0005722542
 51
104.0444314719
  0
ARC
  5
191
330
1F
100
AcDbEntity
  8
SLD-0
  6
Continuous
 62
   179
100
AcDbCircle
 10
64.2087811816
 20
163.9493680399
 30
0.0
 40
1.137862924971266
100
AcDbArc
 50
104.0335904785
 51
111.1169570029
  0
ARC
  5
192
330
1F
100
AcDbEntity
  8
SLD-0
  6
Continuous
 62
   179
100
AcDbCircle
 10
64.2040750706
 20
163.9619635027
 30
0.0
 40
1.124417811310365
100
AcDbArc
 50
111.1244843555
 51
118.2954769815
  0
ARC
  5
193
330
1F
100
AcDbEntity
  8
SLD-0
  6
Continuous
 62
   179
100
AcDbCircle
 10
64.1952621519
 20
163.9780360632
 30
0.0
 40
1.10608820505036
100
AcDbArc
 50
118.2881622008
 51
125.5766101785
  0
ARC
  5
194
330
1F
100
AcDbEntity
  8
SLD-0
  6
Continuous
 62
   179
100
AcDbCircle
 10
64.1850648771
 20
163.9922099234
 30
0.0
 40
1.088627379595391
100
AcDbArc
 50
125.5741043901
 51
132.9800540284
  0
ARC
  5
195
330
1F
100
AcDbEntity
  8
SLD-0
  6
Continuous
 62
   179
100
AcDbCircle
 10
64.1721144484
 20
164.0063928647
 30
0.0
 40
1.069422410641806
100
AcDbArc
 50
132.9904860508
 51
140.5304861922
  0
ARC
  5
196
330
1F
100
AcDbEntity
  8
SLD-0
  6
Continuous
 62
   179
100
AcDbCircle
 10
64.1557500585
 20
164.0196921281
 30
0.0
 40
1.048335806906371
100
AcDbArc
 50
140.5230656162
 51
148.2256393127
  0
ARC
  5
197
330
1F
100
AcDbEntity
  8
SLD-0
  6
Continuous
 62
   179
100
AcDbCircle
 10
64.1430261943
 20
164.0274724828
 30
0.0
 40
1.033421948407642
100
AcDbArc
 50
148.2208837879
 51
156.0365941274
  0
ARC
  5
198
330
1F
100
AcDbEntity
  8
SLD-0
  6
Continuous
 62
   179
100
AcDbCircle
 10
64.1304871426
 20
164.0333387891
 30
0.0
 40
1.019581116380057
100
AcDbArc
 50
156.0516480741
 51
163.959859163
  0
ARC
  5
199
330
1F
100
AcDbEntity
  8
SLD-0
  6
Continuous
 62
   179
100
AcDbCircle
 10
64.1164970092
 20
164.037252056
 30
0.0
 40
1.005054369768605
100
AcDbArc
 50
163.953890063
 51
171.9688309369
  0
ARC
  5
19A
330
1F
100
AcDbEntity
  8
SLD-0
  6
Continuous
 62
   179
100
AcDbCircle
 10
64.1149591032
 20
164.0374126542
 30
0.0
 40
1.003509111237673
100
AcDbArc
 50
171.9656426966
 51
180.0
  0
ARC
  5
19B
330
1F
100
AcDbEntity
  8
SLD-0
  6
Continuous
 62
   179
100
AcDbCircle
 10
64.1147572493
 20
164.0376547619
 30
0.0
 40
1.003307255881672
100
AcDbArc
 50
180.0
 51
188.043332983
  0
ARC
  5
19C
330
1F
100
AcDbEntity
  8
SLD-0
  6
Continuous
 62
   179
100
AcDbCircle
 10
64.117409565
 20
164.0380103253
 30
0.0
 40
1.005983230807455
100
AcDbArc
 50
188.0422478891
 51
196.0440732852
  0
ARC
  5
19D
330
1F
100
AcDbEntity
  8
SLD-0
  6
Continuous
 62
   179
100
AcDbCircle
 10
64.1299781322
 20
164.0415274091
 30
0.0
 40
1.019034288894636
100
AcDbArc
 50
196.0388123771
 51
203.9371654273
  0
ARC
  5
19E
330
1F
100
AcDbEntity
  8
SLD-0
  6
Continuous
 62
   179
100
AcDbCircle
 10
64.1427233413
 20
164.047456641
 30
0.0
 40
1.033089018861294
100
AcDbArc
 50
203.9509248143
 51
211.7559232093
  0
ARC
  5
19F
330
1F
100
AcDbEntity
  8
SLD-0
  6
Continuous
 62
   179
100
AcDbCircle
 10
64.1554675764
 20
164.0552337067
 30
0.0
 40
1.048018502341978
100
AcDbArc
 50
211.7507572622
 51
219.4448969177
  0
ARC
  5
1A0
330
1F
100
AcDbEntity
  8
SLD-0
  6
Continuous
 62
   179
100
AcDbCircle
 10
64.1724297746
 20
164.0690701532
 30
0.0
 40
1.069908115974677
100
AcDbArc
 50
219.4399866949
 51
226.974791836
  0
ARC
  5
1A1
330
1F
100
AcDbEntity
  8
SLD-0
  6
Continuous
 62
   179
100
AcDbCircle
 10
64.1854695417
 20
164.0833532737
 30
0.0
 40
1.089247157819501
100
AcDbArc
 50
226.9859901877
 51
234.3887588783
  0
ARC
  5
1A2
330
1F
100
AcDbEntity
  8
SLD-0
  6
Continuous
 62
   179
100
AcDbCircle
 10
64.1951433506
 20
164.0964632867
 30
0.0
 40
1.105538335399005
100
AcDbArc
 50
234.3767898706
 51
241.6728813829
  0
ARC
  5
1A3
330
1F
100
AcDbEntity
  8
SLD-0
  6
Continuous
 62
   179
100
AcDbCircle
 10
64.2038810622
 20
164.1127963713
 30
0.0
 40
1.124061668420151
100
AcDbArc
 50
241.6758751216
 51
248.8517793688
  0
ARC
  5
1A4
330
1F
100
AcDbEntity
  8
SLD-0
  6
Continuous
 62
   179
100
AcDbCircle
 10
64.2085918771
 20
164.1250542581
 30
0.0
 40
1.137193566321638
100
AcDbArc
 50
248.8532344754
 51
255.943920751
  0
ARC
  5
1A5
330
1F
100
AcDbEntity
  8
SLD-0
  6
Continuous
 62
   179
100
AcDbCircle
 10
64.210751246
 20
164.1331110007
 30
0.0
 40
1.145533535071188
100
AcDbArc
 50
255.9370203956
 51
262.9861002792
  0
ARC
  5
1A6
330
1F
100
AcDbEntity
  8
SLD-0
  6
Continuous
 62
   179
100
AcDbCircle
 10
64.2114910846
 20
164.1388404908
 30
0.0
 40
1.151310491262072
100
AcDbArc
 50
262.9843747373
 51
269.9984530539
  0
ARC
  5
1A7
330
1F
100
AcDbEntity
  8
SLD-0
  6
Continuous
 62
   179
100
AcDbCircle
 10
64.2113974003
 20
164.1384178564
 30
0.0
 40
1.150887858129623
100
AcDbArc
 50
270.0031164607
 51
277.0087602543
  0
ARC
  5
1A8
330
1F
100
AcDbEntity
  8
SLD-0
  6
Continuous
 62
   179
100
AcDbCircle
 10
64.2120987994
 20
164.1337944226
 30
0.0
 40
1.146213395005263
100
AcDbArc
 50
277.0021618989
 51
284.0333384008
  0
ARC
  5
1A9
330
1F
100
AcDbEntity
  8
SLD-0
  6
Continuous
 62
   179
100
AcDbCircle
 10
64.2143620318
 20
164.1248275929
 30
0.0
 40
1.136965379198357
100
AcDbArc
 50
284.0322624376
 51
291.1207465386
  0
ARC
  5
1AA
330
1F
100
AcDbEntity
  8
SLD-0
  6
Continuous
 62
   179
100
AcDbCircle
 10
64.2188385801
 20
164.1131357581
 30
0.0
 40
1.124445910762631
100
AcDbArc
 50
291.122639244
 51
298.2939162368
  0
ARC
  5
1AB
330
1F
100
AcDbEntity
  8
SLD-0
  6
Continuous
 62
   179
100
AcDbCircle
 10
64.2279679337
 20
164.0962869502
 30
0.0
 40
1.105282804764748
100
AcDbArc
 50
298.2911997818
 51
305.5847998493
  0
ARC
  5
1AC
330
1F
100
AcDbEntity
  8
SLD-0
  6
Continuous
 62
   179
100
AcDbCircle
 10
64.2372909536
 20
164.0835071295
 30
0.0
 40
1.089464426483663
100
AcDbArc
 50
305.5771571503
 51
312.978150379
  0
ARC
  5
1AD
330
1F
100
AcDbEntity
  8
SLD-0
  6
Continuous
 62
   179
100
AcDbCircle
 10
64.2505010941
 20
164.0691680414
 30
0.0
 40
1.06996814932538
100
AcDbArc
 50
312.9840683285
 51
320.5198029476
  0
ARC
  5
1AE
330
1F
100
AcDbEntity
  8
SLD-0
  6
Continuous
 62
   179
100
AcDbCircle
 10
64.2682582224
 20
164.0544845429
 30
0.0
 40
1.046926473378701
100
AcDbArc
 50
320.5221666157
 51
328.2360166487
  0
ARC
  5
1AF
330
1F
100
AcDbEntity
  8
SLD-0
  6
Continuous
 62
   179
100
AcDbCircle
 10
64.277876357
 20
164.0487029138
 30
0.0
 40
1.035705343683867
100
AcDbArc
 50
328.2278561096
 51
336.0258184916
  0
ARC
  5
1B0
330
1F
100
AcDbEntity
  8
SLD-0
  6
Continuous
 62
   179
100
AcDbCircle
 10
64.2953455487
 20
164.0408581495
 30
0.0
 40
1.016555721798314
100
AcDbArc
 50
336.0297535946
 51
343.9608627352
  0
ARC
  5
1B1
330
1F
100
AcDbEntity
  8
SLD-0
  6
Continuous
 62
   179
100
AcDbCircle
 10
64.314049629
 20
164.0353845339
 30
0.0
 40
0.9970674092930284
100
AcDbArc
 50
343.9661909272
 51
352.0481861677
  0
ARC
  5
1B2
330
1F
100
AcDbEntity
  8
SLD-0
  6
Continuous
 62
   179
100
AcDbCircle
 10
64.2793443541
 20
164.0402288483
 30
0.0
 40
1.032109148370479
100
AcDbArc
 50
352.0483749426
 51
359.850733003
  0
ARC
  5
1B3
330
1F
100
AcDbEntity
  8
SLD-0
  6
Continuous
 62
   179
100
AcDbCircle
 10
64.2711622079
 20
148.0964121824
 30
0.0
 40
1.44029168289469
100
AcDbArc
 50
0.1331785728
 51
7.8111547178
  0
ARC
  5
1B4
330
1F
100
AcDbEntity
  8
SLD-0
  6
Continuous
 62
   179
100
AcDbCircle
 10
64.3177314321
 20
148.1028311745
 30
0.0
 40
1.393282160953073
100
AcDbArc
 50
7.8099094542
 51
15.7489612615
  0
ARC
  5
1B5
330
1F
100
AcDbEntity
  8
SLD-0
  6
Continuous
 62
   179
100
AcDbCircle
 10
64.2959533109
 20
148.0965688902
 30
0.0
 40
1.41594246768666
100
AcDbArc
 50
15.7536598732
 51
23.5615842894
  0
ARC
  5
1B6
330
1F
100
AcDbEntity
  8
SLD-0
  6
Continuous
 62
   179
100
AcDbCircle
 10
64.2781402742
 20
148.0886986773
 30
0.0
 40
1.435416447433734
100
AcDbArc
 50
23.5653201959
 51
31.2726779499
  0
ARC
  5
1B7
330
1F
100
AcDbEntity
  8
SLD-0
  6
Continuous
 62
   179
100
AcDbCircle
 10
64.2693889026
 20
148.0834954741
 30
0.0
 40
1.445597347690361
100
AcDbArc
 50
31.2688838394
 51
38.9205166827
  0
ARC
  5
1B8
330
1F
100
AcDbEntity
  8
SLD-0
  6
Continuous
 62
   179
100
AcDbCircle
 10
64.2516688426
 20
148.0693217609
 30
0.0
 40
1.468288398882412
100
AcDbArc
 50
38.916416502
 51
46.4489734959
  0
ARC
  5
1B9
330
1F
100
AcDbEntity
  8
SLD-0
  6
Continuous
 62
   179
100
AcDbCircle
 10
64.2381573467
 20
148.0548045886
 30
0.0
 40
1.488119319426856
100
AcDbArc
 50
46.4570485598
 51
53.8915093806
  0
ARC
  5
1BA
330
1F
100
AcDbEntity
  8
SLD-0
  6
Continuous
 62
   179
100
AcDbCircle
 10
64.2284544721
 20
148.0417999921
 30
0.0
 40
1.504343836531253
100
AcDbArc
 50
53.8848381072
 51
61.2437859424
  0
ARC
  5
1BB
330
1F
100
AcDbEntity
  8
SLD-0
  6
Continuous
 62
   179
100
AcDbCircle
 10
64.2191997105
 20
148.0251073578
 30
0.0
 40
1.523430163399177
100
AcDbArc
 50
61.2406696941
 51
68.5068204829
  0
ARC
  5
1BC
330
1F
100
AcDbEntity
  8
SLD-0
  6
Continuous
 62
   179
100
AcDbCircle
 10
64.2142670457
 20
148.0120931567
 30
0.0
 40
1.537346664211246
100
AcDbArc
 50
68.5134777448
 51
75.7096209522
  0
ARC
  5
1BD
330
1F
100
AcDbEntity
  8
SLD-0
  6
Continuous
 62
   179
100
AcDbCircle
 10
64.2124575956
 20
148.0056894107
 30
0.0
 40
1.543998907906082
100
AcDbArc
 50
75.703209176
 51
82.8703871171
  0
ARC
  5
1BE
330
1F
100
AcDbEntity
  8
SLD-0
  6
Continuous
 62
   179
100
AcDbCircle
 10
64.2113882614
 20
147.9977950764
 30
0.0
 40
1.551964924459318
100
AcDbArc
 50
82.867386925
 51
89.9980899048
  0
ARC
  5
1BF
330
1F
100
AcDbEntity
  8
SLD-0
  6
Continuous
 62
   179
100
AcDbCircle
 10
64.2115206527
 20
147.998293972
 30
0.0
 40
1.55146603007552
100
AcDbArc
 50
90.00297851
 51
97.1337616263
  0
ARC
  5
1C0
330
1F
100
AcDbEntity
  8
SLD-0
  6
Continuous
 62
   179
100
AcDbCircle
 10
64.2105779523
 20
148.0046085774
 30
0.0
 40
1.545083243556993
100
AcDbArc
 50
97.1281541322
 51
104.2802511962
  0
ARC
  5
1C1
330
1F
100
AcDbEntity
  8
SLD-0
  6
Continuous
 62
   179
100
AcDbCircle
 10
64.2084455535
 20
148.0127376295
 30
0.0
 40
1.536679385657575
100
AcDbArc
 50
104.2779634818
 51
111.46957402
  0
ARC
  5
1C2
330
1F
100
AcDbEntity
  8
SLD-0
  6
Continuous
 62
   179
100
AcDbCircle
 10
64.2036507098
 20
148.0252598164
 30
0.0
 40
1.523271145479738
100
AcDbArc
 50
111.4741278995
 51
118.736889727
  0
ARC
  5
1C3
330
1F
100
AcDbEntity
  8
SLD-0
  6
Continuous
 62
   179
100
AcDbCircle
 10
64.1944133294
 20
148.0417586919
 30
0.0
 40
1.504363110739871
100
AcDbArc
 50
118.7305212523
 51
126.0824699448
  0
ARC
  5
1C4
330
1F
100
AcDbEntity
  8
SLD-0
  6
Continuous
 62
   179
100
AcDbCircle
 10
64.1848486112
 20
148.0548149583
 30
0.0
 40
1.488178294627255
100
AcDbArc
 50
126.0809128704
 51
133.5134975107
  0
ARC
  5
1C5
330
1F
100
AcDbEntity
  8
SLD-0
  6
Continuous
 62
   179
100
AcDbCircle
 10
64.1715250036
 20
148.0691212251
 30
0.0
 40
1.468629584725732
100
AcDbArc
 50
133.5208236208
 51
141.0536825808
  0
ARC
  5
1C6
330
1F
100
AcDbEntity
  8
SLD-0
  6
Continuous
 62
   179
100
AcDbCircle
 10
64.1543319105
 20
148.0828308769
 30
0.0
 40
1.446640140251281
100
AcDbArc
 50
141.0479412473
 51
148.7036190126
  0
ARC
  5
1C7
330
1F
100
AcDbEntity
  8
SLD-0
  6
Continuous
 62
   179
100
AcDbCircle
 10
64.142213404
 20
148.0900922443
 30
0.0
 40
1.43251295332778
100
AcDbArc
 50
148.7000047561
 51
156.4321823618
  0
ARC
  5
1C8
330
1F
100
AcDbEntity
  8
SLD-0
  6
Continuous
 62
   179
100
AcDbCircle
 10
64.1304393919
 20
148.0955611718
 30
0.0
 40
1.419534409722308
100
AcDbArc
 50
156.4444967981
 51
164.2382670041
  0
ARC
  5
1C9
330
1F
100
AcDbEntity
  8
SLD-0
  6
Continuous
 62
   179
100
AcDbCircle
 10
64.1159625701
 20
148.0995372682
 30
0.0
 40
1.404521868731218
100
AcDbArc
 50
164.2339487982
 51
172.1119902823
  0
ARC
  5
1CA
330
1F
100
AcDbEntity
  8
SLD-0
  6
Continuous
 62
   179
100
AcDbCircle
 10
64.1148722636
 20
148.0996072847
 30
0.0
 40
1.403432271958469
100
AcDbArc
 50
172.1087129474
 51
180.0
  0
ARC
  5
1CB
330
1F
100
AcDbEntity
  8
SLD-0
  6
Continuous
 62
   179
100
AcDbCircle
 10
64.1147594272
 20
148.0999549706
 30
0.0
 40
1.40331944073352
100
AcDbArc
 50
180.0
 51
187.8916063475
  0
ARC
  5
1CC
330
1F
100
AcDbEntity
  8
SLD-0
  6
Continuous
 62
   179
100
AcDbCircle
 10
64.1166744503
 20
148.1000864374
 30
0.0
 40
1.405234384339686
100
AcDbArc
 50
187.8861953532
 51
195.7546170078
  0
ARC
  5
1CD
330
1F
100
AcDbEntity
  8
SLD-0
  6
Continuous
 62
   179
100
AcDbCircle
 10
64.1299075845
 20
148.1037683575
 30
0.0
 40
1.418970102635
100
AcDbArc
 50
195.7526210439
 51
203.5438328593
  0
ARC
  5
1CE
330
1F
100
AcDbEntity
  8
SLD-0
  6
Continuous
 62
   179
100
AcDbCircle
 10
64.1422434102
 20
148.1094058323
 30
0.0
 40
1.432530941999422
100
AcDbArc
 50
203.5534571327
 51
211.2765343761
  0
ARC
  5
1CF
330
1F
100
AcDbEntity
  8
SLD-0
  6
Continuous
 62
   179
100
AcDbCircle
 10
64.1542497279
 20
148.1165572719
 30
0.0
 40
1.446505211560755
100
AcDbArc
 50
211.271734554
 51
218.919110941
  0
ARC
  5
1D0
330
1F
100
AcDbEntity
  8
SLD-0
  6
Continuous
 62
   179
100
AcDbCircle
 10
64.1714954464
 20
148.1303476901
 30
0.0
 40
1.468586417075952
100
AcDbArc
 50
218.9150245569
 51
226.4463382012
  0
ARC
  5
1D1
330
1F
100
AcDbEntity
  8
SLD-0
  6
Continuous
 62
   179
100
AcDbCircle
 10
64.1848454661
 20
148.1447357352
 30
0.0
 40
1.488212487568767
100
AcDbArc
 50
226.4555279331
 51
233.8892263768
  0
ARC
  5
1D2
330
1F
100
AcDbEntity
  8
SLD-0
  6
Continuous
 62
   179
100
AcDbCircle
 10
64.1936762112
 20
148.1566166695
 30
0.0
 40
1.503015236001986
100
AcDbArc
 50
233.8841881306
 51
241.2494450502
  0
ARC
  5
1D3
330
1F
100
AcDbEntity
  8
SLD-0
  6
Continuous
 62
   179
100
AcDbCircle
 10
64.203865485
 20
148.1750327352
 30
0.0
 40
1.52406202244436
100
AcDbArc
 50
241.2466223192
 51
248.5090956658
  0
ARC
  5
1D4
330
1F
100
AcDbEntity
  8
SLD-0
  6
Continuous
 62
   179
100
AcDbCircle
 10
64.2087075299
 20
148.1875115451
 30
0.0
 40
1.537447153875376
100
AcDbArc
 50
248.5115646165
 51
255.707706908
  0
ARC
  5
1D5
330
1F
100
AcDbEntity
  8
SLD-0
  6
Continuous
 62
   179
100
AcDbCircle
 10
64.2104628017
 20
148.1939384029
 30
0.0
 40
1.544108419513194
100
AcDbArc
 50
255.703463664
 51
262.8701326291
  0
ARC
  5
1D6
330
1F
100
AcDbEntity
  8
SLD-0
  6
Continuous
 62
   179
100
AcDbCircle
 10
64.2114163581
 20
148.2014870267
 30
0.0
 40
1.551717026841635
100
AcDbArc
 50
262.8697908148
 51
270.0008729545
  0
ARC
  5
1D7
330
1F
100
AcDbEntity
  8
SLD-0
  6
Continuous
 62
   179
100
AcDbCircle
 10
64.2114280294
 20
148.2014166227
 30
0.0
 40
1.551646622701216
100
AcDbArc
 50
270.0004420247
 51
277.1303711151
  0
ARC
  5
1D8
330
1F
100
AcDbEntity
  8
SLD-0
  6
Continuous
 62
   179
100
AcDbCircle
 10
64.2123015212
 20
148.1951271289
 30
0.0
 40
1.545297348161577
100
AcDbArc
 50
277.1271810567
 51
284.2790159616
  0
ARC
  5
1D9
330
1F
100
AcDbEntity
  8
SLD-0
  6
Continuous
 62
   179
100
AcDbCircle
 10
64.2145227246
 20
148.1866657055
 30
0.0
 40
1.536549485577905
100
AcDbArc
 50
284.2765690218
 51
291.4691439289
  0
ARC
  5
1DA
330
1F
100
AcDbEntity
  8
SLD-0
  6
Continuous
 62
   179
100
AcDbCircle
 10
64.2192724605
 20
148.1742320751
 30
0.0
 40
1.523240166763013
100
AcDbArc
 50
291.4740539477
 51
298.7369636788
  0
ARC
  5
1DB
330
1F
100
AcDbEntity
  8
SLD-0
  6
Continuous
 62
   179
100
AcDbCircle
 10
64.2281159907
 20
148.1583610133
 30
0.0
 40
1.505071976316819
100
AcDbArc
 50
298.732254957
 51
306.0807362401
  0
ARC
  5
1DC
330
1F
100
AcDbEntity
  8
SLD-0
  6
Continuous
 62
   179
100
AcDbCircle
 10
64.2384947683
 20
148.1443595824
 30
0.0
 40
1.487643877489422
100
AcDbArc
 50
306.0752589145
 51
313.5100233124
  0
ARC
  5
1DD
330
1F
100
AcDbEntity
  8
SLD-0
  6
Continuous
 62
   179
100
AcDbCircle
 10
64.2515446506
 20
148.1303119411
 30
0.0
 40
1.468471182811348
100
AcDbArc
 50
313.5181023167
 51
321.0520402501
  0
ARC
  5
1DE
330
1F
100
AcDbEntity
  8
SLD-0
  6
Continuous
 62
   179
100
AcDbCircle
 10
64.2695871496
 20
148.1157149612
 30
0.0
 40
1.445263350531522
100
AcDbArc
 50
321.052458514
 51
328.7156329594
  0
ARC
  5
1DF
330
1F
100
AcDbEntity
  8
SLD-0
  6
Continuous
 62
   179
100
AcDbCircle
 10
64.2776064637
 20
148.1110699184
 30
0.0
 40
1.435997947978446
100
AcDbArc
 50
328.7078660517
 51
336.4217893402
  0
ARC
  5
1E0
330
1F
100
AcDbEntity
  8
SLD-0
  6
Continuous
 62
   179
100
AcDbCircle
 10
64.2961834969
 20
148.1028770648
 30
0.0
 40
1.415694676541593
100
AcDbArc
 50
336.4249481552
 51
344.2386348705
  0
ARC
  5
1E1
330
1F
100
AcDbEntity
  8
SLD-0
  6
Continuous
 62
   179
100
AcDbCircle
 10
64.3171883832
 20
148.0968346539
 30
0.0
 40
1.393838241083955
100
AcDbArc
 50
344.243141736
 51
352.1846856661
  0
ARC
  5
1E2
330
1F
100
AcDbEntity
  8
SLD-0
  6
Continuous
 62
   179
100
AcDbCircle
 10
64.27140661
 20
148.1031039461
 30
0.0
 40
1.440047272492432
100
AcDbArc
 50
352.1852571261
 51
359.8669528587
  0
ARC
  5
1E3
330
1F
100
AcDbEntity
  8
SLD-0
  6
Continuous
 62
   179
100
AcDbCircle
 10
76.2711622508
 20
148.0964121854
 30
0.0
 40
1.440291640015331
100
AcDbArc
 50
0.1331784581
 51
7.8111548323
  0
ARC
  5
1E4
330
1F
100
AcDbEntity
  8
SLD-0
  6
Continuous
 62
   179
100
AcDbCircle
 10
76.3177314321
 20
148.1028311745
 30
0.0
 40
1.393282160953029
100
AcDbArc
 50
7.8099094542
 51
15.7489612615
  0
ARC
  5
1E5
330
1F
100
AcDbEntity
  8
SLD-0
  6
Continuous
 62
   179
100
AcDbCircle
 10
76.2959533109
 20
148.0965688902
 30
0.0
 40
1.415942467686697
100
AcDbArc
 50
15.7536598732
 51
23.5615842894
  0
ARC
  5
1E6
330
1F
100
AcDbEntity
  8
SLD-0
  6
Continuous
 62
   179
100
AcDbCircle
 10
76.2781403121
 20
148.088698697
 30
0.0
 40
1.435416404863275
100
AcDbArc
 50
23.5653200814
 51
31.2726780643
  0
ARC
  5
1E7
330
1F
100
AcDbEntity
  8
SLD-0
  6
Continuous
 62
   179
100
AcDbCircle
 10
76.2693889026
 20
148.0834954741
 30
0.0
 40
1.445597347690289
100
AcDbArc
 50
31.2688838394
 51
38.9205166827
  0
ARC
  5
1E8
330
1F
100
AcDbEntity
  8
SLD-0
  6
Continuous
 62
   179
100
AcDbCircle
 10
76.2516688097
 20
148.0693217306
 30
0.0
 40
1.468288443443631
100
AcDbArc
 50
38.9164166165
 51
46.4489733815
  0
ARC
  5
1E9
330
1F
100
AcDbEntity
  8
SLD-0
  6
Continuous
 62
   179
100
AcDbCircle
 10
76.2381573761
 20
148.0548046238
 30
0.0
 40
1.48811927366498
100
AcDbArc
 50
46.4570484453
 51
53.891509495
  0
ARC
  5
1EA
330
1F
100
AcDbEntity
  8
SLD-0
  6
Continuous
 62
   179
100
AcDbCircle
 10
76.2285760585
 20
148.041991318
 30
0.0
 40
1.504117612811989
100
AcDbArc
 50
53.8842839413
 51
61.2443401084
  0
ARC
  5
1EB
330
1F
100
AcDbEntity
  8
SLD-0
  6
Continuous
 62
   179
100
AcDbCircle
 10
76.2191141574
 20
148.0249249392
 30
0.0
 40
1.523631242745061
100
AcDbArc
 50
61.2411498082
 51
68.5063403687
  0
ARC
  5
1EC
330
1F
100
AcDbEntity
  8
SLD-0
  6
Continuous
 62
   179
100
AcDbCircle
 10
76.2142620607
 20
148.0120136878
 30
0.0
 40
1.537422436372908
100
AcDbArc
 50
68.5143896604
 51
75.7105330967
  0
ARC
  5
1ED
330
1F
100
AcDbEntity
  8
SLD-0
  6
Continuous
 62
   179
100
AcDbCircle
 10
76.2124259136
 20
148.0055748067
 30
0.0
 40
1.544115316851978
100
AcDbArc
 50
75.7034796911
 51
82.870116602
  0
ARC
  5
1EE
330
1F
100
AcDbEntity
  8
SLD-0
  6
Continuous
 62
   179
100
AcDbCircle
 10
76.2113947671
 20
147.9980599161
 30
0.0
 40
1.551700084902099
100
AcDbArc
 50
82.8667774411
 51
89.9979605528
  0
ARC
  5
1EF
330
1F
100
AcDbEntity
  8
SLD-0
  6
Continuous
 62
   179
100
AcDbCircle
 10
76.2115378448
 20
147.9981786399
 30
0.0
 40
1.551581362626366
100
AcDbArc
 50
90.0032438762
 51
97.1334962601
  0
ARC
  5
1F0
330
1F
100
AcDbEntity
  8
SLD-0
  6
Continuous
 62
   179
100
AcDbCircle
 10
76.2105604217
 20
148.0046477689
 30
0.0
 40
1.545040938882805
100
AcDbArc
 50
97.127321436
 51
104.279979681
  0
ARC
  5
1F1
330
1F
100
AcDbEntity
  8
SLD-0
  6
Continuous
 62
   179
100
AcDbCircle
 10
76.2084455535
 20
148.0127376295
 30
0.0
 40
1.536679385657358
100
AcDbArc
 50
104.2779634818
 51
111.46957402
  0
ARC
  5
1F2
330
1F
100
AcDbEntity
  8
SLD-0
  6
Continuous
 62
   179
100
AcDbCircle
 10
76.2036506895
 20
148.0252598599
 30
0.0
 40
1.523271097524311
100
AcDbArc
 50
111.474127785
 51
118.7368898415
  0
ARC
  5
1F3
330
1F
100
AcDbEntity
  8
SLD-0
  6
Continuous
 62
   179
100
AcDbCircle
 10
76.1944133546
 20
148.0417586523
 30
0.0
 40
1.504363157523019
100
AcDbArc
 50
118.7305213668
 51
126.0824698304
  0
ARC
  5
1F4
330
1F
100
AcDbEntity
  8
SLD-0
  6
Continuous
 62
   179
100
AcDbCircle
 10
76.1848486112
 20
148.0548149583
 30
0.0
 40
1.488178294627098
100
AcDbArc
 50
126.0809128704
 51
133.5134975107
  0
ARC
  5
1F5
330
1F
100
AcDbEntity
  8
SLD-0
  6
Continuous
 62
   179
100
AcDbCircle
 10
76.171701833
 20
148.0688928449
 30
0.0
 40
1.468916956990334
100
AcDbArc
 50
133.519690768
 51
141.0507866944
  0
ARC
  5
1F6
330
1F
100
AcDbEntity
  8
SLD-0
  6
Continuous
 62
   179
100
AcDbCircle
 10
76.1540906072
 20
148.0829799473
 30
0.0
 40
1.4463650566536
100
AcDbArc
 50
141.0462161134
 51
148.703905235
  0
ARC
  5
1F7
330
1F
100
AcDbEntity
  8
SLD-0
  6
Continuous
 62
   179
100
AcDbCircle
 10
76.142208404
 20
148.0901662323
 30
0.0
 40
1.432478788985335
100
AcDbArc
 50
148.7026372914
 51
156.434814897
  0
ARC
  5
1F8
330
1F
100
AcDbEntity
  8
SLD-0
  6
Continuous
 62
   179
100
AcDbCircle
 10
76.1300901544
 20
148.0956859324
 30
0.0
 40
1.419164414271158
100
AcDbArc
 50
156.4434792571
 51
164.2392845451
  0
ARC
  5
1F9
330
1F
100
AcDbEntity
  8
SLD-0
  6
Continuous
 62
   179
100
AcDbCircle
 10
76.1159712879
 20
148.0996091038
 30
0.0
 40
1.404510741954923
100
AcDbArc
 50
164.2368656478
 51
172.1148858431
  0
ARC
  5
1FA
330
1F
100
AcDbEntity
  8
SLD-0
  6
Continuous
 62
   179
100
AcDbCircle
 10
76.115237844
 20
148.0995827396
 30
0.0
 40
1.403787855196321
100
AcDbArc
 50
172.1097131784
 51
180.0
  0
ARC
  5
1FB
330
1F
100
AcDbEntity
  8
SLD-0
  6
Continuous
 62
   179
100
AcDbCircle
 10
76.1151138552
 20
148.099906517
 30
0.0
 40
1.403663862806778
100
AcDbArc
 50
180.0
 51
187.8876609131
  0
ARC
  5
1FC
330
1F
100
AcDbEntity
  8
SLD-0
  6
Continuous
 62
   179
100
AcDbCircle
 10
76.1162742618
 20
148.1000026849
 30
0.0
 40
1.404826489533205
100
AcDbArc
 50
187.885051246
 51
195.755761115
  0
ARC
  5
1FD
330
1F
100
AcDbEntity
  8
SLD-0
  6
Continuous
 62
   179
100
AcDbCircle
 10
76.1299076238
 20
148.1037683715
 30
0.0
 40
1.418970144262358
100
AcDbArc
 50
195.7526211584
 51
203.5438327449
  0
ARC
  5
1FE
330
1F
100
AcDbEntity
  8
SLD-0
  6
Continuous
 62
   179
100
AcDbCircle
 10
76.142497991
 20
148.1094663819
 30
0.0
 40
1.432788509671593
100
AcDbArc
 50
203.551608577
 51
211.2731108299
  0
ARC
  5
1FF
330
1F
100
AcDbEntity
  8
SLD-0
  6
Continuous
 62
   179
100
AcDbCircle
 10
76.1536717517
 20
148.1161581593
 30
0.0
 40
1.445812576222576
100
AcDbArc
 50
211.2699000402
 51
218.9209454548
  0
ARC
  5
200
330
1F
100
AcDbEntity
  8
SLD-0
  6
Continuous
 62
   179
100
AcDbCircle
 10
76.1717147697
 20
148.1306305326
 30
0.0
 40
1.46894252285141
100
AcDbArc
 50
218.917989714
 51
226.4477399559
  0
ARC
  5
201
330
1F
100
AcDbEntity
  8
SLD-0
  6
Continuous
 62
   179
100
AcDbCircle
 10
76.1847274543
 20
148.1446651943
 30
0.0
 40
1.488080056770556
100
AcDbArc
 50
226.4569503437
 51
233.8916075967
  0
ARC
  5
202
330
1F
100
AcDbEntity
  8
SLD-0
  6
Continuous
 62
   179
100
AcDbCircle
 10
76.1938132577
 20
148.1568166066
 30
0.0
 40
1.503251634423903
100
AcDbArc
 50
233.8847680522
 51
241.2488651286
  0
ARC
  5
203
330
1F
100
AcDbEntity
  8
SLD-0
  6
Continuous
 62
   179
100
AcDbCircle
 10
76.203875485
 20
148.1750327352
 30
0.0
 40
1.524062022444154
100
AcDbArc
 50
241.2466223192
 51
248.5090956658
  0
ARC
  5
204
330
1F
100
AcDbEntity
  8
SLD-0
  6
Continuous
 62
   179
100
AcDbCircle
 10
76.2087125149
 20
148.1874319831
 30
0.0
 40
1.53737128521034
100
AcDbArc
 50
248.5106523471
 51
255.7067948676
  0
ARC
  5
205
330
1F
100
AcDbEntity
  8
SLD-0
  6
Continuous
 62
   179
100
AcDbCircle
 10
76.2104678017
 20
148.1940182462
 30
0.0
 40
1.544187024903864
100
AcDbArc
 50
255.7040154545
 51
262.8706844196
  0
ARC
  5
206
330
1F
100
AcDbEntity
  8
SLD-0
  6
Continuous
 62
   179
100
AcDbCircle
 10
76.2114263581
 20
148.2014870267
 30
0.0
 40
1.551717026841635
100
AcDbArc
 50
262.8697908148
 51
270.0008729545
  0
ARC
  5
207
330
1F
100
AcDbEntity
  8
SLD-0
  6
Continuous
 62
   179
100
AcDbCircle
 10
76.2114380325
 20
148.2014165729
 30
0.0
 40
1.551646572937932
100
AcDbArc
 50
270.0004419102
 51
277.1303712296
  0
ARC
  5
208
330
1F
100
AcDbEntity
  8
SLD-0
  6
Continuous
 62
   179
100
AcDbCircle
 10
76.2123305702
 20
148.1949198886
 30
0.0
 40
1.545089345780446
100
AcDbArc
 50
277.1274336264
 51
284.2798674906
  0
ARC
  5
209
330
1F
100
AcDbEntity
  8
SLD-0
  6
Continuous
 62
   179
100
AcDbCircle
 10
76.214489375
 20
148.1867691254
 30
0.0
 40
1.536657935644799
100
AcDbArc
 50
284.2768231646
 51
291.4688897861
  0
ARC
  5
20A
330
1F
100
AcDbEntity
  8
SLD-0
  6
Continuous
 62
   179
100
AcDbCircle
 10
76.2192724808
 20
148.1742320315
 30
0.0
 40
1.523240118809413
100
AcDbArc
 50
291.4740538332
 51
298.7369637933
  0
ARC
  5
20B
330
1F
100
AcDbEntity
  8
SLD-0
  6
Continuous
 62
   179
100
AcDbCircle
 10
76.2281159907
 20
148.1583610133
 30
0.0
 40
1.505071976316891
100
AcDbArc
 50
298.732254957
 51
306.0807362401
  0
ARC
  5
20C
330
1F
100
AcDbEntity
  8
SLD-0
  6
Continuous
 62
   179
100
AcDbCircle
 10
76.2384947389
 20
148.1443596176
 30
0.0
 40
1.487643923234701
100
AcDbArc
 50
306.075259029
 51
313.5100231979
  0
ARC
  5
20D
330
1F
100
AcDbEntity
  8
SLD-0
  6
Continuous
 62
   179
100
AcDbCircle
 10
76.2515446834
 20
148.1303119108
 30
0.0
 40
1.468471138252889
100
AcDbArc
 50
313.5181022022
 51
321.0520403645
  0
ARC
  5
20E
330
1F
100
AcDbEntity
  8
SLD-0
  6
Continuous
 62
   179
100
AcDbCircle
 10
76.2695871496
 20
148.1157149612
 30
0.0
 40
1.445263350531522
100
AcDbArc
 50
321.052458514
 51
328.7156329594
  0
ARC
  5
20F
330
1F
100
AcDbEntity
  8
SLD-0
  6
Continuous
 62
   179
100
AcDbCircle
 10
76.2776064637
 20
148.1110699184
 30
0.0
 40
1.435997947978446
100
AcDbArc
 50
328.7078660517
 51
336.4217893402
  0
ARC
  5
210
330
1F
100
AcDbEntity
  8
SLD-0
  6
Continuous
 62
   179
100
AcDbCircle
 10
76.296183536
 20
148.1028770509
 30
0.0
 40
1.415694635130437
100
AcDbArc
 50
336.4249480407
 51
344.238634985
  0
ARC
  5
211
330
1F
100
AcDbEntity
  8
SLD-0
  6
Continuous
 62
   179
100
AcDbCircle
 10
76.3171883832
 20
148.0968346539
 30
0.0
 40
1.393838241083969
100
AcDbArc
 50
344.243141736
 51
352.1846856661
  0
ARC
  5
212
330
1F
100
AcDbEntity
  8
SLD-0
  6
Continuous
 62
   179
100
AcDbCircle
 10
76.27140661
 20
148.1031039461
 30
0.0
 40
1.440047272492418
100
AcDbArc
 50
352.1852571261
 51
359.8669528587
  0
ARC
  5
213
330
1F
100
AcDbEntity
  8
SLD-0
  6
Continuous
 62
   179
100
AcDbCircle
 10
76.2794554084
 20
148.0970554683
 30
0.0
 40
1.031998135436269
100
AcDbArc
 50
0.1501537884
 51
7.9600922176
  0
ARC
  5
214
330
1F
100
AcDbEntity
  8
SLD-0
  6
Continuous
 62
   179
100
AcDbCircle
 10
76.3139008805
 20
148.1018774159
 30
0.0
 40
0.9972167941868123
100
AcDbArc
 50
7.9597840491
 51
16.0348127645
  0
ARC
  5
215
330
1F
100
AcDbEntity
  8
SLD-0
  6
Continuous
 62
   179
100
AcDbCircle
 10
76.2954737208
 20
148.0965277528
 30
0.0
 40
1.016404720219817
100
AcDbArc
 50
16.0377189234
 51
23.9563939455
  0
ARC
  5
216
330
1F
100
AcDbEntity
  8
SLD-0
  6
Continuous
 62
   179
100
AcDbCircle
 10
76.2781325061
 20
148.0887578783
 30
0.0
 40
1.035406962846234
100
AcDbArc
 50
23.9596747475
 51
31.7471732762
  0
ARC
  5
217
330
1F
100
AcDbEntity
  8
SLD-0
  6
Continuous
 62
   179
100
AcDbCircle
 10
76.268025046
 20
148.0825541016
 30
0.0
 40
1.047266380754907
100
AcDbArc
 50
31.7448368452
 51
39.4441914061
  0
ARC
  5
218
330
1F
100
AcDbEntity
  8
SLD-0
  6
Continuous
 62
   179
100
AcDbCircle
 10
76.2506845398
 20
148.0683411514
 30
0.0
 40
1.069687341065779
100
AcDbArc
 50
39.4419943761
 51
46.9787244063
  0
ARC
  5
219
330
1F
100
AcDbEntity
  8
SLD-0
  6
Continuous
 62
   179
100
AcDbCircle
 10
76.2373762523
 20
148.0538683173
 30
0.0
 40
1.089348289300842
100
AcDbArc
 50
46.9863342907
 51
54.3884147753
  0
ARC
  5
21A
330
1F
100
AcDbEntity
  8
SLD-0
  6
Continuous
 62
   179
100
AcDbCircle
 10
76.2282321896
 20
148.0413815509
 30
0.0
 40
1.104824302841553
100
AcDbArc
 50
54.3799574226
 51
61.680936347
  0
ARC
  5
21B
330
1F
100
AcDbEntity
  8
SLD-0
  6
Continuous
 62
   179
100
AcDbCircle
 10
76.2186978095
 20
148.0238655482
 30
0.0
 40
1.124766915891742
100
AcDbArc
 50
61.6766553378
 51
68.8475907241
  0
ARC
  5
21C
330
1F
100
AcDbEntity
  8
SLD-0
  6
Continuous
 62
   179
100
AcDbCircle
 10
76.2140501668
 20
148.01139111
 30
0.0
 40
1.138077988780022
100
AcDbArc
 50
68.855993148
 51
75.9411620785
  0
ARC
  5
21D
330
1F
100
AcDbEntity
  8
SLD-0
  6
Continuous
 62
   179
100
AcDbCircle
 10
76.2122614932
 20
148.0051180068
 30
0.0
 40
1.144597713201204
100
AcDbArc
 50
75.9305876076
 51
82.9860229054
  0
ARC
  5
21E
330
1F
100
AcDbEntity
  8
SLD-0
  6
Continuous
 62
   179
100
AcDbCircle
 10
76.2114146542
 20
147.9985531422
 30
0.0
 40
1.151216858359183
100
AcDbArc
 50
82.9840890321
 51
89.9982408476
  0
ARC
  5
21F
330
1F
100
AcDbEntity
  8
SLD-0
  6
Continuous
 62
   179
100
AcDbCircle
 10
76.2115151546
 20
147.9986771399
 30
0.0
 40
1.151092861894547
100
AcDbArc
 50
90.0032430755
 51
97.0081353927
  0
ARC
  5
220
330
1F
100
AcDbEntity
  8
SLD-0
  6
Continuous
 62
   179
100
AcDbCircle
 10
76.2106599727
 20
148.0046991534
 30
0.0
 40
1.145011504592911
100
AcDbArc
 50
97.0024286348
 51
104.0410864124
  0
ARC
  5
221
330
1F
100
AcDbEntity
  8
SLD-0
  6
Continuous
 62
   179
100
AcDbCircle
 10
76.2088689894
 20
148.0116674394
 30
0.0
 40
1.137816893925572
100
AcDbArc
 50
104.0387275765
 51
111.1220524293
  0
ARC
  5
222
330
1F
100
AcDbEntity
  8
SLD-0
  6
Continuous
 62
   179
100
AcDbCircle
 10
76.2040431308
 20
148.0241062233
 30
0.0
 40
1.124474784580499
100
AcDbArc
 50
111.1210718761
 51
118.2914872968
  0
ARC
  5
223
330
1F
100
AcDbEntity
  8
SLD-0
  6
Continuous
 62
   179
100
AcDbCircle
 10
76.1949474435
 20
148.0409079512
 30
0.0
 40
1.105369093110946
100
AcDbArc
 50
118.2891089324
 51
125.5825796426
  0
ARC
  5
224
330
1F
100
AcDbEntity
  8
SLD-0
  6
Continuous
 62
   179
100
AcDbCircle
 10
76.185495122
 20
148.0540055787
 30
0.0
 40
1.089217010167844
100
AcDbArc
 50
125.5790988697
 51
132.9813675463
  0
ARC
  5
225
330
1F
100
AcDbEntity
  8
SLD-0
  6
Continuous
 62
   179
100
AcDbCircle
 10
76.1723731654
 20
148.0683025971
 30
0.0
 40
1.069811641056929
100
AcDbArc
 50
132.9892640267
 51
140.5261259236
  0
ARC
  5
226
330
1F
100
AcDbEntity
  8
SLD-0
  6
Continuous
 62
   179
100
AcDbCircle
 10
76.1557997274
 20
148.0818540703
 30
0.0
 40
1.048403338016777
100
AcDbArc
 50
140.5219948214
 51
148.2248359015
  0
ARC
  5
227
330
1F
100
AcDbEntity
  8
SLD-0
  6
Continuous
 62
   179
100
AcDbCircle
 10
76.1427607689
 20
148.0898228479
 30
0.0
 40
1.033122391814741
100
AcDbArc
 50
148.2197489338
 51
156.0377289815
  0
ARC
  5
228
330
1F
100
AcDbEntity
  8
SLD-0
  6
Continuous
 62
   179
100
AcDbCircle
 10
76.1302377863
 20
148.0955653822
 30
0.0
 40
1.019346495021792
100
AcDbArc
 50
156.0468112194
 51
163.9570380922
  0
ARC
  5
229
330
1F
100
AcDbEntity
  8
SLD-0
  6
Continuous
 62
   179
100
AcDbCircle
 10
76.1165763572
 20
148.0994950062
 30
0.0
 40
1.005131130513412
100
AcDbArc
 50
163.9571029465
 51
171.9701938264
  0
ARC
  5
22A
330
1F
100
AcDbEntity
  8
SLD-0
  6
Continuous
 62
   179
100
AcDbCircle
 10
76.1150917392
 20
148.0996333404
 30
0.0
 40
1.003641747195458
100
AcDbArc
 50
171.9661745106
 51
180.0
  0
ARC
  5
22B
330
1F
100
AcDbEntity
  8
SLD-0
  6
Continuous
 62
   179
100
AcDbCircle
 10
76.1150310868
 20
148.0998940303
 30
0.0
 40
1.003581095753954
100
AcDbArc
 50
180.0
 51
188.0422347137
  0
ARC
  5
22C
330
1F
100
AcDbEntity
  8
SLD-0
  6
Continuous
 62
   179
100
AcDbCircle
 10
76.1169870791
 20
148.1000900413
 30
0.0
 40
1.005545276915879
100
AcDbArc
 50
188.0377010639
 51
196.0423394583
  0
ARC
  5
22D
330
1F
100
AcDbEntity
  8
SLD-0
  6
Continuous
 62
   179
100
AcDbCircle
 10
76.1300598651
 20
148.10383004
 30
0.0
 40
1.019142519067121
100
AcDbArc
 50
196.0413118433
 51
203.9395470043
  0
ARC
  5
22E
330
1F
100
AcDbEntity
  8
SLD-0
  6
Continuous
 62
   179
100
AcDbCircle
 10
76.1426884487
 20
148.1095875516
 30
0.0
 40
1.033020966718264
100
AcDbArc
 50
203.9471946528
 51
211.7524482907
  0
ARC
  5
22F
330
1F
100
AcDbEntity
  8
SLD-0
  6
Continuous
 62
   179
100
AcDbCircle
 10
76.1554138208
 20
148.1174806137
 30
0.0
 40
1.047995455045722
100
AcDbArc
 50
211.7532670024
 51
219.4471305744
  0
ARC
  5
230
330
1F
100
AcDbEntity
  8
SLD-0
  6
Continuous
 62
   179
100
AcDbCircle
 10
76.1723646235
 20
148.131319579
 30
0.0
 40
1.069877865027842
100
AcDbArc
 50
219.442666416
 51
226.9780523664
  0
ARC
  5
231
330
1F
100
AcDbEntity
  8
SLD-0
  6
Continuous
 62
   179
100
AcDbCircle
 10
76.1854822221
 20
148.1454282024
 30
0.0
 40
1.089142428090397
100
AcDbArc
 50
226.9799374187
 51
234.3833450921
  0
ARC
  5
232
330
1F
100
AcDbEntity
  8
SLD-0
  6
Continuous
 62
   179
100
AcDbCircle
 10
76.1951531706
 20
148.158916107
 30
0.0
 40
1.105739137605416
100
AcDbArc
 50
234.3829817483
 51
241.6779120213
  0
ARC
  5
233
330
1F
100
AcDbEntity
  8
SLD-0
  6
Continuous
 62
   179
100
AcDbCircle
 10
76.2039792024
 20
148.1750613023
 30
0.0
 40
1.124138983011
100
AcDbArc
 50
241.6723166334
 51
248.8479404063
  0
ARC
  5
234
330
1F
100
AcDbEntity
  8
SLD-0
  6
Continuous
 62
   179
100
AcDbCircle
 10
76.2086007664
 20
148.1873022781
 30
0.0
 40
1.137222906274195
100
AcDbArc
 50
248.853326061
 51
255.9438291655
  0
ARC
  5
235
330
1F
100
AcDbEntity
  8
SLD-0
  6
Continuous
 62
   179
100
AcDbCircle
 10
76.2106486139
 20
148.1952206355
 30
0.0
 40
1.14540154152407
100
AcDbArc
 50
255.940658961
 51
262.9904605465
  0
ARC
  5
236
330
1F
100
AcDbEntity
  8
SLD-0
  6
Continuous
 62
   179
100
AcDbCircle
 10
76.2114922116
 20
148.2010888299
 30
0.0
 40
1.151328830634073
100
AcDbArc
 50
262.9844305387
 51
269.997899341
  0
ARC
  5
237
330
1F
100
AcDbEntity
  8
SLD-0
  6
Continuous
 62
   179
100
AcDbCircle
 10
76.2113918686
 20
148.2007382186
 30
0.0
 40
1.150978220055106
100
AcDbArc
 50
270.0028937832
 51
277.008484685
  0
ARC
  5
238
330
1F
100
AcDbEntity
  8
SLD-0
  6
Continuous
 62
   179
100
AcDbCircle
 10
76.2120820877
 20
148.1961144351
 30
0.0
 40
1.146304773458488
100
AcDbArc
 50
277.0024424986
 51
284.0330578011
  0
ARC
  5
239
330
1F
100
AcDbEntity
  8
SLD-0
  6
Continuous
 62
   179
100
AcDbCircle
 10
76.2144923748
 20
148.1869924252
 30
0.0
 40
1.13687055751642
100
AcDbArc
 50
284.0266857991
 51
291.116090793
  0
ARC
  5
23A
330
1F
100
AcDbEntity
  8
SLD-0
  6
Continuous
 62
   179
100
AcDbCircle
 10
76.2189435361
 20
148.1750587459
 30
0.0
 40
1.124134635754987
100
AcDbArc
 50
291.1235799684
 51
298.2963813685
  0
ARC
  5
23B
330
1F
100
AcDbEntity
  8
SLD-0
  6
Continuous
 62
   179
100
AcDbCircle
 10
76.2278471129
 20
148.1587007703
 30
0.0
 40
1.105510736509932
100
AcDbArc
 50
298.2919526876
 51
305.5840469435
  0
ARC
  5
23C
330
1F
100
AcDbEntity
  8
SLD-0
  6
Continuous
 62
   179
100
AcDbCircle
 10
76.2372292231
 20
148.1458026094
 30
0.0
 40
1.089561731503328
100
AcDbArc
 50
305.5774880892
 51
312.9778194401
  0
ARC
  5
23D
330
1F
100
AcDbEntity
  8
SLD-0
  6
Continuous
 62
   179
100
AcDbCircle
 10
76.2504854029
 20
148.1313363909
 30
0.0
 40
1.069941063881664
100
AcDbArc
 50
312.9865688049
 51
320.5228853778
  0
ARC
  5
23E
330
1F
100
AcDbEntity
  8
SLD-0
  6
Continuous
 62
   179
100
AcDbCircle
 10
76.2683024877
 20
148.1167309668
 30
0.0
 40
1.046902749114657
100
AcDbArc
 50
320.5199325769
 51
328.2335117933
  0
ARC
  5
23F
330
1F
100
AcDbEntity
  8
SLD-0
  6
Continuous
 62
   179
100
AcDbCircle
 10
76.2779044373
 20
148.1109080628
 30
0.0
 40
1.035673651593471
100
AcDbArc
 50
328.2277366145
 51
336.0259379867
  0
ARC
  5
240
330
1F
100
AcDbEntity
  8
SLD-0
  6
Continuous
 62
   179
100
AcDbCircle
 10
76.2952627985
 20
148.1030870169
 30
0.0
 40
1.016634938137824
100
AcDbArc
 50
336.0311916099
 51
343.9622126206
  0
ARC
  5
241
330
1F
100
AcDbEntity
  8
SLD-0
  6
Continuous
 62
   179
100
AcDbCircle
 10
76.3140900234
 20
148.0976159881
 30
0.0
 40
0.9970289880284553
100
AcDbArc
 50
343.9654694501
 51
352.0472131314
  0
ARC
  5
242
330
1F
100
AcDbEntity
  8
SLD-0
  6
Continuous
 62
   179
100
AcDbCircle
 10
76.2793770008
 20
148.1024465365
 30
0.0
 40
1.032076495825768
100
AcDbArc
 50
352.0482513271
 51
359.8508566185
  0
POINT
  5
243
330
1F
100
AcDbEntity
  8
SLD-0
100
AcDbPoint
 10
193.25
 20
11.125
 30
0.0
  0
POINT
  5
244
330
1F
100
AcDbEntity
  8
SLD-0
100
AcDbPoint
 10
16.45
 20
285.625
 30
0.0
  0
POINT
  5
245
330
1F
100
AcDbEntity
  8
SLD-0
100
AcDbPoint
 10
16.45
 20
11.125
 30
0.0
  0
POINT
  5
246
330
1F
100
AcDbEntity
  8
SLD-0
100
AcDbPoint
 10
193.25
 20
11.125
 30
0.0
  0
POINT
  5
247
330
1F
100
AcDbEntity
  8
SLD-0
100
AcDbPoint
 10
193.25
 20
285.625
 30
0.0
  0
MTEXT
  5
249
330
1F
100
AcDbEntity
  8
SLD-0
 62
     7
100
AcDbMText
 10
143.098908
 20
46.4225602496
 30
0.0
 40
4.8000002
 41
0.0
 71
     1
 72
     1
  1
ミニシリンダーＨ
  7
SLDTEXTSTYLE2
 73
     1
 44
1.0
  0
MTEXT
  5
24B
330
1F
100
AcDbEntity
  8
SLD-0
 62
     7
100
AcDbMText
 10
140.815278
 20
40.2819195369
 30
0.0
 40
3.2
 41
0.0
 71
     1
 72
     1
  1
（配管用継手ＢＦ－５付属）
  7
SLDTEXTSTYLE3
 73
     1
 44
1.0
  0
MTEXT
  5
24D
330
1F
100
AcDbEntity
  8
SLD-0
 62
     7
100
AcDbMText
 10
147.292066
 20
31.0998192496
 30
0.0
 40
4.8000002
 41
0.0
 71
     1
 72
     1
  1
ＭＣＹ－ＨＳ
  7
SLDTEXTSTYLE4
 73
     1
 44
1.0
  0
MTEXT
  5
24E
330
1F
100
AcDbEntity
  8
SLD-0
 62
     7
100
AcDbMText
 10
147.443776
 20
18.5078623496
 30
0.0
 40
4.8000002
 41
0.0
 71
     1
 72
     1
  1
１２０００３
  7
SLDTEXTSTYLE4
 73
     1
 44
1.0
  0
INSERT
  5
24F
330
1F
100
AcDbEntity
  8
0
  6
Continuous
 62
     7
370
     0
100
AcDbBlockReference
  2
KOZU0001
 10
77.24794
 20
149.1479
 30
0.0
  0
INSERT
  5
250
330
1F
100
AcDbEntity
  8
0
  6
Continuous
 62
     7
370
     0
100
AcDbBlockReference
  2
KOZU0002
 10
77.35299
 20
164.97818
 30
0.0
  0
INSERT
  5
251
330
1F
100
AcDbEntity
  8
0
  6
Continuous
 62
     7
370
     0
100
AcDbBlockReference
  2
KOZU0003
 10
90.19249
 20
233.85368
 30
0.0
  0
INSERT
  5
252
330
1F
100
AcDbEntity
  8
0
  6
Continuous
 62
     7
370
     0
100
AcDbBlockReference
  2
KOZU0004
 10
71.82548
 20
95.881137
 30
0.0
  0
ENDSEC
  0
SECTION
  2
OBJECTS
  0
DICTIONARY
  5
C
330
0
100
AcDbDictionary
281
     1
  3
ACAD_GROUP
350
D
  3
ACAD_LAYOUT
350
1A
  3
ACAD_MLINESTYLE
350
17
  3
ACAD_PLOTSETTINGS
350
19
  3
ACAD_PLOTSTYLENAME
350
E
  0
DICTIONARY
  5
D
102
{ACAD_REACTORS
330
C
102
}
330
C
100
AcDbDictionary
281
     1
  0
DICTIONARY
  5
1A
102
{ACAD_REACTORS
330
C
102
}
330
C
100
AcDbDictionary
281
     1
  3
Layout1
350
1E
  3
Layout2
350
26
  3
Model
350
22
  0
DICTIONARY
  5
17
102
{ACAD_REACTORS
330
C
102
}
330
C
100
AcDbDictionary
281
     1
  3
Standard
350
18
  0
DICTIONARY
  5
19
102
{ACAD_REACTORS
330
C
102
}
330
C
100
AcDbDictionary
281
     1
  0
ACDBDICTIONARYWDFLT
  5
E
102
{ACAD_REACTORS
330
C
102
}
330
C
100
AcDbDictionary
281
     1
  3
Normal
350
F
100
AcDbDictionaryWithDefault
340
F
  0
LAYOUT
  5
1E
102
{ACAD_REACTORS
330
1A
102
}
330
1A
100
AcDbPlotSettings
  1

  2

  4

  6

 40
0.0
 41
0.0
 42
0.0
 43
0.0
 44
0.0
 45
0.0
 46
0.0
 47
0.0
 48
0.0
 49
0.0
140
0.0
141
0.0
142
1.0
143
1.0
 70
   688
 72
     0
 73
     0
 74
     5
  7

 75
    16
147
1.0
148
0.0
149
0.0
100
AcDbLayout
  1
Layout1
 70
     1
 71
     1
 10
0.0
 20
0.0
 11
0.0
 21
0.0
 12
0.0
 22
0.0
 32
0.0
 14
0.0
 24
0.0
 34
0.0
 15
0.0
 25
0.0
 35
0.0
146
0.0
 13
0.0
 23
0.0
 33
0.0
 16
1.0
 26
0.0
 36
0.0
 17
0.0
 27
1.0
 37
0.0
 76
     0
330
1B
  0
LAYOUT
  5
26
102
{ACAD_REACTORS
330
1A
102
}
330
1A
100
AcDbPlotSettings
  1

  2

  4

  6

 40
0.0
 41
0.0
 42
0.0
 43
0.0
 44
0.0
 45
0.0
 46
0.0
 47
0.0
 48
0.0
 49
0.0
140
0.0
141
0.0
142
1.0
143
1.0
 70
   688
 72
     0
 73
     0
 74
     5
  7

 75
    16
147
1.0
148
0.0
149
0.0
100
AcDbLayout
  1
Layout2
 70
     1
 71
     2
 10
0.0
 20
0.0
 11
0.0
 21
0.0
 12
0.0
 22
0.0
 32
0.0
 14
0.0
 24
0.0
 34
0.0
 15
0.0
 25
0.0
 35
0.0
146
0.0
 13
0.0
 23
0.0
 33
0.0
 16
1.0
 26
0.0
 36
0.0
 17
0.0
 27
1.0
 37
0.0
 76
     0
330
23
  0
LAYOUT
  5
22
102
{ACAD_REACTORS
330
1A
102
}
330
1A
100
AcDbPlotSettings
  1

  2

  4

  6

 40
0.0
 41
0.0
 42
0.0
 43
0.0
 44
0.0
 45
0.0
 46
0.0
 47
0.0
 48
0.0
 49
0.0
140
0.0
141
0.0
142
1.0
143
1.0
 70
  1712
 72
     0
 73
     0
 74
     0
  7

 75
     0
147
1.0
148
0.0
149
0.0
100
AcDbLayout
  1
Model
 70
     1
 71
     0
 10
0.0
 20
0.0
 11
0.0
 21
0.0
 12
0.0
 22
0.0
 32
0.0
 14
0.0
 24
0.0
 34
0.0
 15
210.0
 25
297.0
 35
0.0
146
0.0
 13
0.0
 23
0.0
 33
0.0
 16
1.0
 26
0.0
 36
0.0
 17
0.0
 27
1.0
 37
0.0
 76
     0
330
1F
  0
MLINESTYLE
  5
18
102
{ACAD_REACTORS
330
17
102
}
330
17
100
AcDbMlineStyle
  2
Standard
 70
     0
  3

 62
   256
 51
90.0
 52
90.0
 71
     2
 49
0.5
 62
   256
  6
BYLAYER
 49
-0.5
 62
   256
  6
BYLAYER
  0
ACDBPLACEHOLDER
  5
F
102
{ACAD_REACTORS
330
E
102
}
330
E
  0
ENDSEC
  0
EOF
