  0
SECTION
  2
HEADER
  9
$ACADVER
  1
AC1015
  9
$ACADMAINTVER
 70
     6
  9
$DWGCODEPAGE
  3
DOS932
  9
$INSBASE
 10
0.0
 20
0.0
 30
0.0
  9
$EXTMIN
 10
0.0
 20
0.0
 30
0.0
  9
$EXTMAX
 10
210.0
 20
297.0
 30
0.0
  9
$LIMMIN
 10
0.0
 20
0.0
  9
$LIMMAX
 10
0.0
 20
0.0
  9
$ORTHOMODE
 70
     0
  9
$REGENMODE
 70
     1
  9
$FILLMODE
 70
     1
  9
$QTEXTMODE
 70
     0
  9
$MIRRTEXT
 70
     1
  9
$LTSCALE
 40
1.0
  9
$ATTMODE
 70
     1
  9
$TEXTSIZE
 40
3.5
  9
$TRACEWID
 40
1.0
  9
$TEXTSTYLE
  7
Standard
  9
$CLAYER
  8
0
  9
$CELTYPE
  6
ByLayer
  9
$CECOLOR
 62
   256
  9
$CELTSCALE
 40
1.0
  9
$DISPSILH
 70
     0
  9
$DIMSCALE
 40
1.0
  9
$DIMASZ
 40
3.0
  9
$DIMEXO
 40
1.0
  9
$DIMDLI
 40
3.75
  9
$DIMRND
 40
0.0
  9
$DIMDLE
 40
0.0
  9
$DIMEXE
 40
1.0
  9
$DIMTP
 40
0.0
  9
$DIMTM
 40
0.0
  9
$DIMTXT
 40
3.2
  9
$DIMCEN
 40
2.5
  9
$DIMTSZ
 40
0.0
  9
$DIMTOL
 70
     0
  9
$DIMLIM
 70
     0
  9
$DIMTIH
 70
     1
  9
$DIMTOH
 70
     1
  9
$DIMSE1
 70
     0
  9
$DIMSE2
 70
     0
  9
$DIMTAD
 70
     1
  9
$DIMZIN
 70
     1
  9
$DIMBLK
  1

  9
$DIMASO
 70
     1
  9
$DIMSHO
 70
     1
  9
$DIMPOST
  1

  9
$DIMAPOST
  1

  9
$DIMALT
 70
     0
  9
$DIMALTD
 70
     3
  9
$DIMALTF
 40
0.0393700787
  9
$DIMLFAC
 40
1.0
  9
$DIMTOFL
 70
     1
  9
$DIMTVP
 40
0.0
  9
$DIMTIX
 70
     0
  9
$DIMSOXD
 70
     0
  9
$DIMSAH
 70
     0
  9
$DIMBLK1
  1

  9
$DIMBLK2
  1

  9
$DIMSTYLE
  2
ISO-25
  9
$DIMCLRD
 70
     0
  9
$DIMCLRE
 70
     0
  9
$DIMCLRT
 70
     0
  9
$DIMTFAC
 40
1.0
  9
$DIMGAP
 40
1.524
  9
$DIMJUST
 70
     0
  9
$DIMSD1
 70
     0
  9
$DIMSD2
 70
     0
  9
$DIMTOLJ
 70
     0
  9
$DIMTZIN
 70
     1
  9
$DIMALTZ
 70
     0
  9
$DIMALTTZ
 70
     0
  9
$DIMUPT
 70
     0
  9
$DIMDEC
 70
     2
  9
$DIMTDEC
 70
     2
  9
$DIMALTU
 70
     2
  9
$DIMALTTD
 70
     3
  9
$DIMTXSTY
  7
Standard
  9
$DIMAUNIT
 70
     0
  9
$DIMADEC
 70
     0
  9
$DIMALTRND
 40
0.0
  9
$DIMAZIN
 70
     0
  9
$DIMDSEP
 70
    44
  9
$DIMATFIT
 70
     3
  9
$DIMFRAC
 70
     0
  9
$DIMLDRBLK
  1

  9
$DIMLUNIT
 70
     2
  9
$DIMLWD
 70
    -2
  9
$DIMLWE
 70
    -2
  9
$DIMTMOVE
 70
     0
  9
$LUNITS
 70
     2
  9
$LUPREC
 70
     4
  9
$SKETCHINC
 40
1.0
  9
$FILLETRAD
 40
10.0
  9
$AUNITS
 70
     0
  9
$AUPREC
 70
     0
  9
$MENU
  1
.
  9
$ELEVATION
 40
0.0
  9
$PELEVATION
 40
0.0
  9
$THICKNESS
 40
0.0
  9
$LIMCHECK
 70
     0
  9
$CHAMFERA
 40
10.0
  9
$CHAMFERB
 40
10.0
  9
$CHAMFERC
 40
20.0
  9
$CHAMFERD
 40
0.0
  9
$SKPOLY
 70
     0
  9
$TDCREATE
 40
2454307.558154109
  9
$TDUCREATE
 40
2454307.183154109
  9
$TDUPDATE
 40
2454307.558154121
  9
$TDUUPDATE
 40
2454307.183154121
  9
$TDINDWG
 40
0.0000000116
  9
$TDUSRTIMER
 40
0.0000000116
  9
$USRTIMER
 70
     1
  9
$ANGBASE
 50
0.0
  9
$ANGDIR
 70
     0
  9
$PDMODE
 70
     0
  9
$PDSIZE
 40
-1.0
  9
$PLINEWID
 40
0.0
  9
$SPLFRAME
 70
     0
  9
$SPLINETYPE
 70
     6
  9
$SPLINESEGS
 70
     8
  9
$HANDSEED
  5
C5
  9
$SURFTAB1
 70
     6
  9
$SURFTAB2
 70
     6
  9
$SURFTYPE
 70
     6
  9
$SURFU
 70
     6
  9
$SURFV
 70
     6
  9
$UCSBASE
  2

  9
$UCSNAME
  2

  9
$UCSORG
 10
0.0
 20
0.0
 30
0.0
  9
$UCSXDIR
 10
1.0
 20
0.0
 30
0.0
  9
$UCSYDIR
 10
0.0
 20
1.0
 30
0.0
  9
$UCSORTHOREF
  2

  9
$UCSORTHOVIEW
 70
     0
  9
$UCSORGTOP
 10
0.0
 20
0.0
 30
0.0
  9
$UCSORGBOTTOM
 10
0.0
 20
0.0
 30
0.0
  9
$UCSORGLEFT
 10
0.0
 20
0.0
 30
0.0
  9
$UCSORGRIGHT
 10
0.0
 20
0.0
 30
0.0
  9
$UCSORGFRONT
 10
0.0
 20
0.0
 30
0.0
  9
$UCSORGBACK
 10
0.0
 20
0.0
 30
0.0
  9
$PUCSBASE
  2

  9
$PUCSNAME
  2

  9
$PUCSORG
 10
0.0
 20
0.0
 30
0.0
  9
$PUCSXDIR
 10
1.0
 20
0.0
 30
0.0
  9
$PUCSYDIR
 10
0.0
 20
1.0
 30
0.0
  9
$PUCSORTHOREF
  2

  9
$PUCSORTHOVIEW
 70
     0
  9
$PUCSORGTOP
 10
0.0
 20
0.0
 30
0.0
  9
$PUCSORGBOTTOM
 10
0.0
 20
0.0
 30
0.0
  9
$PUCSORGLEFT
 10
0.0
 20
0.0
 30
0.0
  9
$PUCSORGRIGHT
 10
0.0
 20
0.0
 30
0.0
  9
$PUCSORGFRONT
 10
0.0
 20
0.0
 30
0.0
  9
$PUCSORGBACK
 10
0.0
 20
0.0
 30
0.0
  9
$USERI1
 70
     0
  9
$USERI2
 70
     0
  9
$USERI3
 70
     0
  9
$USERI4
 70
     0
  9
$USERI5
 70
     0
  9
$USERR1
 40
0.0
  9
$USERR2
 40
0.0
  9
$USERR3
 40
0.0
  9
$USERR4
 40
0.0
  9
$USERR5
 40
0.0
  9
$WORLDVIEW
 70
     1
  9
$SHADEDGE
 70
     3
  9
$SHADEDIF
 70
    70
  9
$TILEMODE
 70
     1
  9
$MAXACTVP
 70
    64
  9
$PINSBASE
 10
0.0
 20
0.0
 30
0.0
  9
$PLIMCHECK
 70
     0
  9
$PEXTMIN
 10
1.0000000000E+20
 20
1.0000000000E+20
 30
1.0000000000E+20
  9
$PEXTMAX
 10
-1.0000000000E+20
 20
-1.0000000000E+20
 30
-1.0000000000E+20
  9
$PLIMMIN
 10
0.0
 20
0.0
  9
$PLIMMAX
 10
420.0
 20
297.0
  9
$UNITMODE
 70
     0
  9
$VISRETAIN
 70
     1
  9
$PLINEGEN
 70
     0
  9
$PSLTSCALE
 70
     1
  9
$TREEDEPTH
 70
  3020
  9
$CMLSTYLE
  2
Standard
  9
$CMLJUST
 70
     0
  9
$CMLSCALE
 40
20.0
  9
$PROXYGRAPHICS
 70
     1
  9
$MEASUREMENT
 70
     1
  9
$CELWEIGHT
370
    -1
  9
$ENDCAPS
280
     0
  9
$JOINSTYLE
280
     0
  9
$LWDISPLAY
290
     1
  9
$INSUNITS
 70
     4
  9
$HYPERLINKBASE
  1

  9
$STYLESHEET
  1

  9
$XEDIT
290
     1
  9
$CEPSNTYPE
380
     0
  9
$PSTYLEMODE
290
     1
  9
$FINGERPRINTGUID
  2
{0078BBEE-738C-47DA-B41E-2DB6957414F6}
  9
$VERSIONGUID
  2
{FAEB1C32-E019-11D5-929B-00C0DF256EC4}
  9
$EXTNAMES
290
     1
  9
$PSVPSCALE
 40
0.0
  9
$OLESTARTUP
290
     0
  0
ENDSEC
  0
SECTION
  2
CLASSES
  0
CLASS
  1
ACDBDICTIONARYWDFLT
  2
AcDbDictionaryWithDefault
  3
ObjectDBX Classes
 90
        0
280
     0
281
     0
  0
CLASS
  1
ACDBPLACEHOLDER
  2
AcDbPlaceHolder
  3
ObjectDBX Classes
 90
        0
280
     0
281
     0
  0
CLASS
  1
LAYOUT
  2
AcDbLayout
  3
ObjectDBX Classes
 90
        0
280
     0
281
     0
  0
ENDSEC
  0
SECTION
  2
TABLES
  0
TABLE
  2
VPORT
  5
8
330
0
100
AcDbSymbolTable
 70
     1
  0
VPORT
  5
29
330
8
100
AcDbSymbolTableRecord
100
AcDbViewportTableRecord
  2
*Active
 70
     0
 10
0.0
 20
0.0
 11
1.0
 21
1.0
 12
105.0
 22
148.5
 13
0.0
 23
0.0
 14
10.0
 24
10.0
 15
10.0
 25
10.0
 16
0.0
 26
0.0
 36
1.0
 17
0.0
 27
0.0
 37
0.0
 40
297.0
 41
1.9729729729
 42
50.0
 43
0.0
 44
0.0
 50
0.0
 51
0.0
 71
     0
 72
  2000
 73
     1
 74
     3
 75
     0
 76
     0
 77
     0
 78
     0
281
     0
 65
     1
110
0.0
120
0.0
130
0.0
111
1.0
121
0.0
131
0.0
112
0.0
122
1.0
132
0.0
 79
     0
146
0.0
  0
ENDTAB
  0
TABLE
  2
LTYPE
  5
5
330
0
100
AcDbSymbolTable
 70
     6
  0
LTYPE
  5
14
330
5
100
AcDbSymbolTableRecord
100
AcDbLinetypeTableRecord
  2
ByBlock
 70
     0
  3

 72
    65
 73
     0
 40
0.0
  0
LTYPE
  5
15
330
5
100
AcDbSymbolTableRecord
100
AcDbLinetypeTableRecord
  2
ByLayer
 70
     0
  3

 72
    65
 73
     0
 40
0.0
  0
LTYPE
  5
16
330
5
100
AcDbSymbolTableRecord
100
AcDbLinetypeTableRecord
  2
Continuous
 70
     0
  3
Solid line
 72
    65
 73
     0
 40
0.0
  0
LTYPE
  5
2A
330
5
100
AcDbSymbolTableRecord
100
AcDbLinetypeTableRecord
  2
HIDDEN
 70
     0
  3
Hidden __ __ __ __ __ __ __ __ __ __ __ __ __ __
 72
    65
 73
     2
 40
1.905
 49
1.27
 74
     0
 49
-0.635
 74
     0
  0
LTYPE
  5
2B
330
5
100
AcDbSymbolTableRecord
100
AcDbLinetypeTableRecord
  2
PHANTOM
 70
     0
  3
Phantom ______  __  __  ______  __  __  ______
 72
    65
 73
     6
 40
12.7
 49
6.35
 74
     0
 49
-1.27
 74
     0
 49
1.27
 74
     0
 49
-1.27
 74
     0
 49
1.27
 74
     0
 49
-1.27
 74
     0
  0
LTYPE
  5
2C
330
5
100
AcDbSymbolTableRecord
100
AcDbLinetypeTableRecord
  2
CENTER
 70
     0
  3
Center ____ _ ____ _ ____ _ ____ _ ____ _ ____
 72
    65
 73
     4
 40
10.16
 49
6.35
 74
     0
 49
-1.27
 74
     0
 49
1.27
 74
     0
 49
-1.27
 74
     0
  0
LTYPE
  5
2D
330
5
100
AcDbSymbolTableRecord
100
AcDbLinetypeTableRecord
  2
CENTERX2
 70
     0
  3
Center (2x) ________  __  ________  __  _____
 72
    65
 73
     4
 40
20.32
 49
12.7
 74
     0
 49
-2.54
 74
     0
 49
2.54
 74
     0
 49
-2.54
 74
     0
  0
LTYPE
  5
2E
330
5
100
AcDbSymbolTableRecord
100
AcDbLinetypeTableRecord
  2
DOT2
 70
     0
  3
Dot (.5x) ........................................
 72
    65
 73
     2
 40
0.635
 49
0.0
 74
     0
 49
-0.635
 74
     0
  0
ENDTAB
  0
TABLE
  2
LAYER
  5
2
330
0
100
AcDbSymbolTable
 70
     2
  0
LAYER
  5
10
330
2
100
AcDbSymbolTableRecord
100
AcDbLayerTableRecord
  2
0
 70
     0
 62
     7
  6
Continuous
370
    -3
390
F
  0
LAYER
  5
2F
330
2
100
AcDbSymbolTableRecord
100
AcDbLayerTableRecord
  2
SLD-0
 70
     0
 62
   179
  6
Continuous
370
     0
390
F
  0
ENDTAB
  0
TABLE
  2
STYLE
  5
3
330
0
100
AcDbSymbolTable
 70
     8
  0
STYLE
  5
11
330
3
100
AcDbSymbolTableRecord
100
AcDbTextStyleTableRecord
  2
Standard
 70
     0
 40
0.0
 41
1.0
 50
0.0
 71
     0
 42
2.5
  3
txt
  4
bigfont
  0
STYLE
  5
33
330
3
100
AcDbSymbolTableRecord
100
AcDbTextStyleTableRecord
  2
SLDTEXTSTYLE0
 70
     0
 40
0.0
 41
0.7
 50
0.0
 71
     0
 42
0.2
  3
TXT
  4
bigfont
  0
STYLE
  5
41
330
3
100
AcDbSymbolTableRecord
100
AcDbTextStyleTableRecord
  2
SLDTEXTSTYLE1
 70
     0
 40
0.0
 41
0.6244081126
 50
0.0
 71
     0
 42
0.2
  3
TXT
  4
bigfont
  0
STYLE
  5
49
330
3
100
AcDbSymbolTableRecord
100
AcDbTextStyleTableRecord
  2
SLDTEXTSTYLE2
 70
     0
 40
0.0
 41
0.6226035863
 50
0.0
 71
     0
 42
0.2
  3
TXT
  4
bigfont
  0
STYLE
  5
55
330
3
100
AcDbSymbolTableRecord
100
AcDbTextStyleTableRecord
  2
SLDTEXTSTYLE3
 70
     0
 40
0.0
 41
0.6369194926
 50
0.0
 71
     0
 42
0.2
  3
TXT
  4
bigfont
  0
STYLE
  5
BD
330
3
100
AcDbSymbolTableRecord
100
AcDbTextStyleTableRecord
  2
SLDTEXTSTYLE4
 70
     0
 40
0.0
 41
0.6230481453
 50
0.0
 71
     0
 42
0.2
  3
TXT
  4
bigfont
  0
STYLE
  5
BF
330
3
100
AcDbSymbolTableRecord
100
AcDbTextStyleTableRecord
  2
SLDTEXTSTYLE5
 70
     0
 40
0.0
 41
0.6222509411
 50
0.0
 71
     0
 42
0.2
  3
TXT
  4
bigfont
  0
STYLE
  5
C1
330
3
100
AcDbSymbolTableRecord
100
AcDbTextStyleTableRecord
  2
SLDTEXTSTYLE6
 70
     0
 40
0.0
 41
0.6244080758
 50
0.0
 71
     0
 42
0.2
  3
TXT
  4
bigfont
  0
ENDTAB
  0
TABLE
  2
VIEW
  5
6
330
0
100
AcDbSymbolTable
 70
     0
  0
ENDTAB
  0
TABLE
  2
UCS
  5
7
330
0
100
AcDbSymbolTable
 70
     0
  0
ENDTAB
  0
TABLE
  2
APPID
  5
9
330
0
100
AcDbSymbolTable
 70
     1
  0
APPID
  5
12
330
9
100
AcDbSymbolTableRecord
100
AcDbRegAppTableRecord
  2
ACAD
 70
     0
  0
ENDTAB
  0
TABLE
  2
DIMSTYLE
  5
A
330
0
100
AcDbSymbolTable
 70
     1
100
AcDbDimStyleTable
  0
DIMSTYLE
105
27
330
A
100
AcDbSymbolTableRecord
100
AcDbDimStyleTableRecord
  2
ISO-25
 70
     0
 41
2.5
 42
0.625
 43
3.75
 44
1.25
 73
     0
 74
     0
 77
     1
 78
     8
140
2.5
141
2.5
143
0.0393700787
147
0.625
171
     3
172
     1
271
     2
272
     2
274
     3
278
    44
283
     0
284
     8
340
11
  0
ENDTAB
  0
TABLE
  2
BLOCK_RECORD
  5
1
330
0
100
AcDbSymbolTable
 70
     6
  0
BLOCK_RECORD
  5
1F
330
1
100
AcDbSymbolTableRecord
100
AcDbBlockTableRecord
  2
*Model_Space
340
22
  0
BLOCK_RECORD
  5
1B
330
1
100
AcDbSymbolTableRecord
100
AcDbBlockTableRecord
  2
*Paper_Space
340
1E
  0
BLOCK_RECORD
  5
23
330
1
100
AcDbSymbolTableRecord
100
AcDbBlockTableRecord
  2
*Paper_Space0
340
26
  0
BLOCK_RECORD
  5
30
330
1
100
AcDbSymbolTableRecord
100
AcDbBlockTableRecord
  2
注記
340
0
  0
BLOCK_RECORD
  5
36
330
1
100
AcDbSymbolTableRecord
100
AcDbBlockTableRecord
  2
KOZU0001
340
0
102
{BLKREFS
331
C3
102
}
  0
BLOCK_RECORD
  5
3E
330
1
100
AcDbSymbolTableRecord
100
AcDbBlockTableRecord
  2
SW_NOTE_0
340
0
102
{BLKREFS
331
45
102
}
  0
BLOCK_RECORD
  5
46
330
1
100
AcDbSymbolTableRecord
100
AcDbBlockTableRecord
  2
SW_NOTE_1
340
0
102
{BLKREFS
331
4C
102
}
  0
BLOCK_RECORD
  5
4D
330
1
100
AcDbSymbolTableRecord
100
AcDbBlockTableRecord
  2
KOZU0002
340
0
102
{BLKREFS
331
C4
102
}
  0
ENDTAB
  0
ENDSEC
  0
SECTION
  2
BLOCKS
  0
BLOCK
  5
20
330
1F
100
AcDbEntity
  8
0
100
AcDbBlockBegin
  2
*Model_Space
 70
     0
 71
     0
 10
0.0
 20
0.0
 30
0.0
  3
*Model_Space
  1

  0
ENDBLK
  5
21
330
1F
100
AcDbEntity
  8
0
100
AcDbBlockEnd
  0
BLOCK
  5
1C
330
1B
100
AcDbEntity
 67
     1
  8
0
100
AcDbBlockBegin
  2
*Paper_Space
 70
     0
 71
     0
 10
0.0
 20
0.0
 30
0.0
  3
*Paper_Space
  1

  0
ENDBLK
  5
1D
330
1B
100
AcDbEntity
 67
     1
  8
0
100
AcDbBlockEnd
  0
BLOCK
  5
24
330
23
100
AcDbEntity
  8
0
100
AcDbBlockBegin
  2
*Paper_Space0
 70
     0
 71
     0
 10
0.0
 20
0.0
 30
0.0
  3
*Paper_Space0
  1

  0
ENDBLK
  5
25
330
23
100
AcDbEntity
  8
0
100
AcDbBlockEnd
  0
BLOCK
  5
31
330
30
100
AcDbEntity
  8
0
100
AcDbBlockBegin
  2
注記
 70
     0
 71
     0
 10
0.0
 20
0.0
 30
0.0
  3
注記
  1

  0
MTEXT
  5
34
330
30
100
AcDbEntity
  8
0
  6
Continuous
 62
     7
370
     0
100
AcDbMText
 10
0.2636785918
 20
9.0739778448
 30
0.0
 40
3.5
 41
0.0
 71
     1
 72
     1
  1
１．特記ナキ角部ハ、バリ　カエリノ無キコト。
  7
SLDTEXTSTYLE0
 73
     1
 44
1.0
  0
MTEXT
  5
35
330
30
100
AcDbEntity
  8
0
  6
Continuous
 62
     7
370
     0
100
AcDbMText
 10
0.2636785918
 20
3.5759549983
 30
0.0
 40
3.5
 41
0.0
 71
     1
 72
     1
  1
２．特記ナキ隅部ハ、Ｒ０．４ＭＡＸトスル。
  7
SLDTEXTSTYLE0
 73
     1
 44
1.0
  0
ENDBLK
  5
32
330
30
100
AcDbEntity
  8
0
100
AcDbBlockEnd
  0
BLOCK
  5
37
330
36
100
AcDbEntity
  8
0
100
AcDbBlockBegin
  2
KOZU0001
 70
     0
 71
     0
 10
0.0
 20
0.0
 30
0.0
  3
KOZU0001
  1

  0
LINE
  5
39
330
36
100
AcDbEntity
  8
SLD-0
  6
Continuous
 62
   179
100
AcDbLine
 10
0.0
 20
0.0
 30
0.0
 11
9.373928
 21
15.036597
 31
0.0
  0
LINE
  5
3A
330
36
100
AcDbEntity
  8
SLD-0
  6
Continuous
 62
   179
100
AcDbLine
 10
0.0
 20
0.0
 30
0.0
 11
0.73847532
 21
3.0748421
 31
0.0
  0
LINE
  5
3B
330
36
100
AcDbEntity
  8
SLD-0
  6
Continuous
 62
   179
100
AcDbLine
 10
0.0
 20
0.0
 30
0.0
 11
2.4356855
 21
2.0167885
 31
0.0
  0
LINE
  5
3C
330
36
100
AcDbEntity
  8
SLD-0
  6
Continuous
 62
   179
100
AcDbLine
 10
0.0
 20
0.0
 30
0.0
 11
9.373928
 21
15.036597
 31
0.0
  0
LINE
  5
3D
330
36
100
AcDbEntity
  8
SLD-0
  6
Continuous
 62
   179
100
AcDbLine
 10
9.373928
 20
15.036597
 30
0.0
 11
41.221671
 21
15.03659
 31
0.0
  0
INSERT
  5
45
330
36
100
AcDbEntity
  8
SLD-0
 62
     7
100
AcDbBlockReference
  2
SW_NOTE_0
 10
11.507665
 20
14.2010345537
 30
0.0
  0
INSERT
  5
4C
330
36
100
AcDbEntity
  8
SLD-0
 62
     7
100
AcDbBlockReference
  2
SW_NOTE_1
 10
11.507665
 20
8.5850345537
 30
0.0
  0
ENDBLK
  5
38
330
36
100
AcDbEntity
  8
0
100
AcDbBlockEnd
  0
BLOCK
  5
3F
330
3E
100
AcDbEntity
  8
0
100
AcDbBlockBegin
  2
SW_NOTE_0
 70
     0
 71
     0
 10
0.0
 20
0.0
 30
0.0
  3
SW_NOTE_0
  1

  0
MTEXT
  5
42
330
3E
100
AcDbEntity
  8
SLD-0
100
AcDbMText
 10
0.0
 20
4.2902749832
 30
0.0
 40
3.2
 41
0.0
 71
     1
 72
     1
  1
２－
  7
SLDTEXTSTYLE1
 73
     1
 44
1.0
  0
MTEXT
  5
43
330
3E
100
AcDbEntity
  8
SLD-0
100
AcDbMText
 10
10.6711108238
 20
4.2902749832
 30
0.0
 40
3.2
 41
0.0
 71
     1
 72
     1
  1
%%c
  7
SLDTEXTSTYLE1
 73
     1
 44
1.0
  0
MTEXT
  5
44
330
3E
100
AcDbEntity
  8
SLD-0
100
AcDbMText
 10
15.8559996635
 20
4.2902749832
 30
0.0
 40
3.2
 41
0.0
 71
     1
 72
     1
  1
４．５
  7
SLDTEXTSTYLE1
 73
     1
 44
1.0
  0
ENDBLK
  5
40
330
3E
100
AcDbEntity
  8
0
100
AcDbBlockEnd
  0
BLOCK
  5
47
330
46
100
AcDbEntity
  8
0
100
AcDbBlockBegin
  2
SW_NOTE_1
 70
     0
 71
     0
 10
0.0
 20
0.0
 30
0.0
  3
SW_NOTE_1
  1

  0
MTEXT
  5
4A
330
46
100
AcDbEntity
  8
SLD-0
100
AcDbMText
 10
0.0
 20
4.2902749832
 30
0.0
 40
3.2
 41
0.0
 71
     1
 72
     1
  1
%%c
  7
SLDTEXTSTYLE2
 73
     1
 44
1.0
  0
MTEXT
  5
4B
330
46
100
AcDbEntity
  8
SLD-0
100
AcDbMText
 10
5.1848888397
 20
4.2902749832
 30
0.0
 40
3.2
 41
0.0
 71
     1
 72
     1
  1
８ザグリ深４．８
  7
SLDTEXTSTYLE2
 73
     1
 44
1.0
  0
ENDBLK
  5
48
330
46
100
AcDbEntity
  8
0
100
AcDbBlockEnd
  0
BLOCK
  5
4E
330
4D
100
AcDbEntity
  8
0
100
AcDbBlockBegin
  2
KOZU0002
 70
     0
 71
     0
 10
0.0
 20
0.0
 30
0.0
  3
KOZU0002
  1

  0
LINE
  5
50
330
4D
100
AcDbEntity
  8
SLD-0
  6
Continuous
 62
   179
100
AcDbLine
 10
0.0
 20
0.0
 30
0.0
 11
6.485032
 21
10.979883
 31
0.0
  0
LINE
  5
51
330
4D
100
AcDbEntity
  8
SLD-0
  6
Continuous
 62
   179
100
AcDbLine
 10
0.0
 20
0.0
 30
0.0
 11
0.66461837
 21
3.0916472
 31
0.0
  0
LINE
  5
52
330
4D
100
AcDbEntity
  8
SLD-0
  6
Continuous
 62
   179
100
AcDbLine
 10
0.0
 20
0.0
 30
0.0
 11
2.386683
 21
2.0745467
 31
0.0
  0
LINE
  5
53
330
4D
100
AcDbEntity
  8
SLD-0
  6
Continuous
 62
   179
100
AcDbLine
 10
0.0
 20
0.0
 30
0.0
 11
6.485032
 21
10.979883
 31
0.0
  0
LINE
  5
54
330
4D
100
AcDbEntity
  8
SLD-0
  6
Continuous
 62
   179
100
AcDbLine
 10
6.485032
 20
10.979883
 30
0.0
 11
16.548418
 21
10.979889
 31
0.0
  0
MTEXT
  5
56
330
4D
100
AcDbEntity
  8
SLD-0
100
AcDbMText
 10
9.2344208
 20
14.4346085369
 30
0.0
 40
3.2
 41
0.0
 71
     1
 72
     1
  1
Ｍ８
  7
SLDTEXTSTYLE3
 73
     1
 44
1.0
  0
ENDBLK
  5
4F
330
4D
100
AcDbEntity
  8
0
100
AcDbBlockEnd
  0
ENDSEC
  0
SECTION
  2
ENTITIES
  0
LINE
  5
57
330
1F
100
AcDbEntity
  8
SLD-0
  6
Continuous
 62
   179
100
AcDbLine
 10
193.375
 20
285.75
 30
0.0
 11
193.375
 21
11.25
 31
0.0
  0
LINE
  5
58
330
1F
100
AcDbEntity
  8
SLD-0
  6
Continuous
 62
   179
100
AcDbLine
 10
16.575
 20
11.25
 30
0.0
 11
193.375
 21
11.25
 31
0.0
  0
LINE
  5
59
330
1F
100
AcDbEntity
  8
SLD-0
  6
Continuous
 62
   179
100
AcDbLine
 10
16.575
 20
285.75
 30
0.0
 11
193.375
 21
285.75
 31
0.0
  0
LINE
  5
5A
330
1F
100
AcDbEntity
  8
SLD-0
  6
Continuous
 62
   179
100
AcDbLine
 10
16.575
 20
285.75
 30
0.0
 11
16.575
 21
11.25
 31
0.0
  0
LINE
  5
5B
330
1F
100
AcDbEntity
  8
SLD-0
  6
Continuous
 62
   179
100
AcDbLine
 10
16.77499
 20
11.45
 30
0.0
 11
193.375
 21
11.45
 31
0.0
  0
LINE
  5
5C
330
1F
100
AcDbEntity
  8
SLD-0
  6
Continuous
 62
   179
100
AcDbLine
 10
16.77499
 20
285.75
 30
0.0
 11
16.77499
 21
11.45
 31
0.0
  0
LINE
  5
5D
330
1F
100
AcDbEntity
  8
SLD-0
  6
Continuous
 62
   179
100
AcDbLine
 10
193.175
 20
285.54999
 30
0.0
 11
193.175
 21
11.25
 31
0.0
  0
LINE
  5
5E
330
1F
100
AcDbEntity
  8
SLD-0
  6
Continuous
 62
   179
100
AcDbLine
 10
16.575
 20
285.54999
 30
0.0
 11
193.175
 21
285.54999
 31
0.0
  0
LINE
  5
5F
330
1F
100
AcDbEntity
  8
SLD-0
  6
Continuous
 62
   179
100
AcDbLine
 10
131.575001
 20
49.950001
 30
0.0
 11
131.575001
 21
11.25
 31
0.0
  0
LINE
  5
60
330
1F
100
AcDbEntity
  8
SLD-0
  6
Continuous
 62
   179
100
AcDbLine
 10
131.575001
 20
23.95
 30
0.0
 11
193.375
 21
23.95
 31
0.0
  0
LINE
  5
61
330
1F
100
AcDbEntity
  8
SLD-0
  6
Continuous
 62
   179
100
AcDbLine
 10
131.575001
 20
36.450001
 30
0.0
 11
193.375
 21
36.450001
 31
0.0
  0
LINE
  5
62
330
1F
100
AcDbEntity
  8
SLD-0
  6
Continuous
 62
   179
100
AcDbLine
 10
131.575001
 20
49.950001
 30
0.0
 11
193.375
 21
49.950001
 31
0.0
  0
LINE
  5
63
330
1F
100
AcDbEntity
  8
SLD-0
  6
CENTER
 62
   179
100
AcDbLine
 10
87.1194
 20
152.63069
 30
0.0
 11
98.511902
 21
152.63069
 31
0.0
  0
LINE
  5
64
330
1F
100
AcDbEntity
  8
SLD-0
  6
Continuous
 62
   179
100
AcDbLine
 10
145.220203
 20
173.81099
 30
0.0
 11
145.220203
 21
151.4503
 31
0.0
  0
LINE
  5
65
330
1F
100
AcDbEntity
  8
SLD-0
  6
CENTER
 62
   179
100
AcDbLine
 10
87.1194
 20
172.63066
 30
0.0
 11
98.511902
 21
172.63066
 31
0.0
  0
LINE
  5
66
330
1F
100
AcDbEntity
  8
SLD-0
  6
Continuous
 62
   179
100
AcDbLine
 10
165.220201
 20
173.81099
 30
0.0
 11
165.220201
 21
151.4503
 31
0.0
  0
LINE
  5
67
330
1F
100
AcDbEntity
  8
SLD-0
  6
CENTER
 62
   179
100
AcDbLine
 10
148.922104
 20
172.63066
 30
0.0
 11
161.976002
 21
172.63066
 31
0.0
  0
LINE
  5
68
330
1F
100
AcDbEntity
  8
SLD-0
  6
Continuous
 62
   179
100
AcDbLine
 10
120.256439
 20
166.63066
 30
0.0
 11
120.256439
 21
158.63066
 31
0.0
  0
LINE
  5
69
330
1F
100
AcDbEntity
  8
SLD-0
  6
CENTER
 62
   179
100
AcDbLine
 10
149.926201
 20
152.63069
 30
0.0
 11
161.063103
 21
152.63069
 31
0.0
  0
LINE
  5
6A
330
1F
100
AcDbEntity
  8
SLD-0
  6
Continuous
 62
   179
100
AcDbLine
 10
120.256439
 20
166.63065
 30
0.0
 11
121.256442
 21
165.63066
 31
0.0
  0
LINE
  5
6B
330
1F
100
AcDbEntity
  8
SLD-0
  6
Continuous
 62
   179
100
AcDbLine
 10
120.256439
 20
158.63066
 30
0.0
 11
121.256447
 21
159.63066
 31
0.0
  0
LINE
  5
6C
330
1F
100
AcDbEntity
  8
SLD-0
  6
Continuous
 62
   179
100
AcDbLine
 10
96.256401
 20
177.63069
 30
0.0
 11
96.256401
 21
147.63069
 31
0.0
  0
LINE
  5
6D
330
1F
100
AcDbEntity
  8
SLD-0
  6
Continuous
 62
   179
100
AcDbLine
 10
121.256442
 20
165.63066
 30
0.0
 11
121.256447
 21
159.63066
 31
0.0
  0
LINE
  5
6E
330
1F
100
AcDbEntity
  8
SLD-0
  6
Continuous
 62
   179
100
AcDbLine
 10
89.2564
 20
177.1307
 30
0.0
 11
89.7564
 21
177.6307
 31
0.0
  0
LINE
  5
6F
330
1F
100
AcDbEntity
  8
SLD-0
  6
Continuous
 62
   179
100
AcDbLine
 10
89.2564
 20
148.13069
 30
0.0
 11
89.75641
 21
147.63069
 31
0.0
  0
LINE
  5
70
330
1F
100
AcDbEntity
  8
SLD-0
  6
Continuous
 62
   179
100
AcDbLine
 10
89.7564
 20
147.63069
 30
0.0
 11
96.256401
 21
147.63069
 31
0.0
  0
LINE
  5
71
330
1F
100
AcDbEntity
  8
SLD-0
  6
Continuous
 62
   179
100
AcDbLine
 10
89.7564
 20
177.63069
 30
0.0
 11
96.256401
 21
177.63069
 31
0.0
  0
LINE
  5
72
330
1F
100
AcDbEntity
  8
SLD-0
  6
Continuous
 62
   179
100
AcDbLine
 10
96.256401
 20
159.63066
 30
0.0
 11
98.256401
 21
159.63066
 31
0.0
  0
LINE
  5
73
330
1F
100
AcDbEntity
  8
SLD-0
  6
Continuous
 62
   179
100
AcDbLine
 10
96.256401
 20
165.63066
 30
0.0
 11
98.256401
 21
165.63066
 31
0.0
  0
LINE
  5
74
330
1F
100
AcDbEntity
  8
SLD-0
  6
Continuous
 62
   179
100
AcDbLine
 10
96.256401
 20
158.63066
 30
0.0
 11
98.256401
 21
158.63066
 31
0.0
  0
LINE
  5
75
330
1F
100
AcDbEntity
  8
SLD-0
  6
Continuous
 62
   179
100
AcDbLine
 10
89.2564
 20
177.13069
 30
0.0
 11
89.2564
 21
148.13069
 31
0.0
  0
LINE
  5
76
330
1F
100
AcDbEntity
  8
SLD-0
  6
Continuous
 62
   179
100
AcDbLine
 10
96.256401
 20
166.63066
 30
0.0
 11
98.256401
 21
166.63066
 31
0.0
  0
LINE
  5
77
330
1F
100
AcDbEntity
  8
SLD-0
  6
CENTER
 62
   179
100
AcDbLine
 10
142.485104
 20
162.63066
 30
0.0
 11
168.762802
 21
162.63066
 31
0.0
  0
LINE
  5
78
330
1F
100
AcDbEntity
  8
SLD-0
  6
CENTER
 62
   179
100
AcDbLine
 10
155.220203
 20
183.84889
 30
0.0
 11
155.220203
 21
141.9487
 31
0.0
  0
LINE
  5
79
330
1F
100
AcDbEntity
  8
SLD-0
  6
CENTER
 62
   179
100
AcDbLine
 10
82.3945
 20
162.63066
 30
0.0
 11
128.221901
 21
162.63066
 31
0.0
  0
LINE
  5
7A
330
1F
100
AcDbEntity
  8
SLD-0
  6
Continuous
 62
   179
100
AcDbLine
 10
98.256401
 20
154.6307
 30
0.0
 11
98.756401
 21
154.1307
 31
0.0
  0
LINE
  5
7B
330
1F
100
AcDbEntity
  8
SLD-0
  6
Continuous
 62
   179
100
AcDbLine
 10
162.220201
 20
166.58922
 30
0.0
 11
162.220201
 21
158.67212
 31
0.0
  0
LINE
  5
7C
330
1F
100
AcDbEntity
  8
SLD-0
  6
Continuous
 62
   179
100
AcDbLine
 10
148.220207
 20
166.58921
 30
0.0
 11
155.220205
 21
170.63066
 31
0.0
  0
LINE
  5
7D
330
1F
100
AcDbEntity
  8
SLD-0
  6
Continuous
 62
   179
100
AcDbLine
 10
155.220203
 20
154.6307
 30
0.0
 11
162.220201
 21
158.67211
 31
0.0
  0
LINE
  5
7E
330
1F
100
AcDbEntity
  8
SLD-0
  6
Continuous
 62
   179
100
AcDbLine
 10
155.220205
 20
170.63066
 30
0.0
 11
162.220201
 21
166.58922
 31
0.0
  0
LINE
  5
7F
330
1F
100
AcDbEntity
  8
SLD-0
  6
Continuous
 62
   179
100
AcDbLine
 10
148.220201
 20
158.67212
 30
0.0
 11
155.220206
 21
154.63069
 31
0.0
  0
LINE
  5
80
330
1F
100
AcDbEntity
  8
SLD-0
  6
Continuous
 62
   179
100
AcDbLine
 10
148.220207
 20
166.58921
 30
0.0
 11
148.220201
 21
158.67212
 31
0.0
  0
LINE
  5
81
330
1F
100
AcDbEntity
  8
SLD-0
  6
Continuous
 62
   179
100
AcDbLine
 10
103.256401
 20
172.13066
 30
0.0
 11
103.256401
 21
153.13069
 31
0.0
  0
LINE
  5
82
330
1F
100
AcDbEntity
  8
SLD-0
  6
Continuous
 62
   179
100
AcDbLine
 10
109.756436
 20
172.63066
 30
0.0
 11
110.256441
 21
172.13067
 31
0.0
  0
LINE
  5
83
330
1F
100
AcDbEntity
  8
SLD-0
  6
Continuous
 62
   179
100
AcDbLine
 10
109.756434
 20
152.63069
 30
0.0
 11
110.256445
 21
153.13069
 31
0.0
  0
LINE
  5
84
330
1F
100
AcDbEntity
  8
SLD-0
  6
Continuous
 62
   179
100
AcDbLine
 10
103.256401
 20
153.13069
 30
0.0
 11
103.756399
 21
152.6307
 31
0.0
  0
LINE
  5
85
330
1F
100
AcDbEntity
  8
SLD-0
  6
Continuous
 62
   179
100
AcDbLine
 10
110.256432
 20
170.63066
 30
0.0
 11
117.390411
 21
170.63066
 31
0.0
  0
LINE
  5
86
330
1F
100
AcDbEntity
  8
SLD-0
  6
Continuous
 62
   179
100
AcDbLine
 10
103.256401
 20
172.13066
 30
0.0
 11
103.756407
 21
172.63066
 31
0.0
  0
LINE
  5
87
330
1F
100
AcDbEntity
  8
SLD-0
  6
Continuous
 62
   179
100
AcDbLine
 10
117.390411
 20
170.63066
 30
0.0
 11
118.256439
 21
169.13066
 31
0.0
  0
LINE
  5
88
330
1F
100
AcDbEntity
  8
SLD-0
  6
Continuous
 62
   179
100
AcDbLine
 10
110.256432
 20
172.13066
 30
0.0
 11
110.256432
 21
153.13069
 31
0.0
  0
LINE
  5
89
330
1F
100
AcDbEntity
  8
SLD-0
  6
Continuous
 62
   179
100
AcDbLine
 10
117.390424
 20
154.6307
 30
0.0
 11
118.256442
 21
156.13066
 31
0.0
  0
LINE
  5
8A
330
1F
100
AcDbEntity
  8
SLD-0
  6
Continuous
 62
   179
100
AcDbLine
 10
98.256398
 20
170.63067
 30
0.0
 11
98.756399
 21
171.13067
 31
0.0
  0
LINE
  5
8B
330
1F
100
AcDbEntity
  8
SLD-0
  6
Continuous
 62
   179
100
AcDbLine
 10
110.256432
 20
154.63069
 30
0.0
 11
117.390411
 21
154.63069
 31
0.0
  0
LINE
  5
8C
330
1F
100
AcDbEntity
  8
SLD-0
  6
Continuous
 62
   179
100
AcDbLine
 10
98.756401
 20
171.13066
 30
0.0
 11
103.256401
 21
171.13066
 31
0.0
  0
LINE
  5
8D
330
1F
100
AcDbEntity
  8
SLD-0
  6
Continuous
 62
   179
100
AcDbLine
 10
103.756401
 20
152.63069
 30
0.0
 11
109.756434
 21
152.63069
 31
0.0
  0
LINE
  5
8E
330
1F
100
AcDbEntity
  8
SLD-0
  6
Continuous
 62
   179
100
AcDbLine
 10
98.756401
 20
154.13069
 30
0.0
 11
103.256401
 21
154.13069
 31
0.0
  0
LINE
  5
8F
330
1F
100
AcDbEntity
  8
SLD-0
  6
Continuous
 62
   179
100
AcDbLine
 10
98.256401
 20
170.63066
 30
0.0
 11
98.256401
 21
154.63069
 31
0.0
  0
LINE
  5
90
330
1F
100
AcDbEntity
  8
SLD-0
  6
Continuous
 62
   179
100
AcDbLine
 10
103.756407
 20
172.63066
 30
0.0
 11
109.756436
 21
172.63066
 31
0.0
  0
LINE
  5
91
330
1F
100
AcDbEntity
  8
SLD-0
  6
Continuous
 62
   179
100
AcDbLine
 10
118.256439
 20
169.13066
 30
0.0
 11
118.256432
 21
156.13066
 31
0.0
  0
LINE
  5
92
330
1F
100
AcDbEntity
  8
SLD-0
  6
Continuous
 62
   179
100
AcDbLine
 10
98.756401
 20
154.13069
 30
0.0
 11
98.756401
 21
171.13066
 31
0.0
  0
LINE
  5
93
330
1F
100
AcDbEntity
  8
SLD-0
  6
Continuous
 62
   179
100
AcDbLine
 10
103.756407
 20
172.63066
 30
0.0
 11
103.756401
 21
152.63069
 31
0.0
  0
LINE
  5
94
330
1F
100
AcDbEntity
  8
SLD-0
  6
Continuous
 62
   179
100
AcDbLine
 10
109.756434
 20
152.63069
 30
0.0
 11
109.756436
 21
172.63066
 31
0.0
  0
LINE
  5
95
330
1F
100
AcDbEntity
  8
SLD-0
  6
Continuous
 62
   179
100
AcDbLine
 10
117.390411
 20
166.58922
 30
0.0
 11
110.256432
 21
166.58922
 31
0.0
  0
LINE
  5
96
330
1F
100
AcDbEntity
  8
SLD-0
  6
Continuous
 62
   179
100
AcDbLine
 10
117.390411
 20
158.67212
 30
0.0
 11
110.256432
 21
158.67212
 31
0.0
  0
LINE
  5
97
330
1F
100
AcDbEntity
  8
SLD-0
  6
Continuous
 62
   179
100
AcDbLine
 10
89.7564
 20
177.63069
 30
0.0
 11
89.7564
 21
173.81099
 31
0.0
  0
LINE
  5
98
330
1F
100
AcDbEntity
  8
SLD-0
  6
Continuous
 62
   179
100
AcDbLine
 10
67.2927
 20
173.81099
 30
0.0
 11
67.2927
 21
151.4503
 31
0.0
  0
LINE
  5
99
330
1F
100
AcDbEntity
  8
SLD-0
  6
Continuous
 62
   179
100
AcDbLine
 10
47.29271
 20
173.81099
 30
0.0
 11
47.29271
 21
151.4503
 31
0.0
  0
LINE
  5
9A
330
1F
100
AcDbEntity
  8
SLD-0
  6
CENTER
 62
   179
100
AcDbLine
 10
63.59081
 20
172.63066
 30
0.0
 11
50.5369
 21
172.63066
 31
0.0
  0
LINE
  5
9B
330
1F
100
AcDbEntity
  8
SLD-0
  6
CENTER
 62
   179
100
AcDbLine
 10
62.58661
 20
152.63069
 30
0.0
 11
51.4498
 21
152.63069
 31
0.0
  0
LINE
  5
9C
330
1F
100
AcDbEntity
  8
SLD-0
  6
CENTER
 62
   179
100
AcDbLine
 10
70.0277
 20
162.63066
 30
0.0
 11
43.75011
 21
162.63066
 31
0.0
  0
LINE
  5
9D
330
1F
100
AcDbEntity
  8
SLD-0
  6
CENTER
 62
   179
100
AcDbLine
 10
57.29271
 20
183.84889
 30
0.0
 11
57.29271
 21
141.9487
 31
0.0
  0
LINE
  5
9E
330
1F
100
AcDbEntity
  8
SLD-0
  6
Continuous
 62
   179
100
AcDbLine
 10
118.256432
 20
166.63066
 30
0.0
 11
120.256439
 21
166.63066
 31
0.0
  0
LINE
  5
9F
330
1F
100
AcDbEntity
  8
SLD-0
  6
Continuous
 62
   179
100
AcDbLine
 10
118.256432
 20
165.63066
 30
0.0
 11
121.256442
 21
165.63066
 31
0.0
  0
LINE
  5
A0
330
1F
100
AcDbEntity
  8
SLD-0
  6
Continuous
 62
   179
100
AcDbLine
 10
118.256432
 20
159.63066
 30
0.0
 11
121.256447
 21
159.63066
 31
0.0
  0
LINE
  5
A1
330
1F
100
AcDbEntity
  8
SLD-0
  6
Continuous
 62
   179
100
AcDbLine
 10
118.256432
 20
158.63066
 30
0.0
 11
120.256439
 21
158.63066
 31
0.0
  0
LINE
  5
A2
330
1F
100
AcDbEntity
  8
SLD-0
  6
Continuous
 62
   179
100
AcDbLine
 10
96.256401
 20
173.81099
 30
0.0
 11
89.2564
 21
173.81099
 31
0.0
  0
LINE
  5
A3
330
1F
100
AcDbEntity
  8
SLD-0
  6
Continuous
 62
   179
100
AcDbLine
 10
96.256401
 20
151.4503
 30
0.0
 11
89.2564
 21
151.4503
 31
0.0
  0
LINE
  5
A4
330
1F
100
AcDbEntity
  8
SLD-0
  6
Continuous
 62
   179
100
AcDbLine
 10
89.7564
 20
151.4503
 30
0.0
 11
89.7564
 21
147.63069
 31
0.0
  0
ARC
  5
A5
330
1F
100
AcDbEntity
  8
SLD-0
  6
Continuous
 62
   179
100
AcDbCircle
 10
155.220203
 20
162.63066
 30
0.0
 40
15.00000000000001
100
AcDbArc
 50
228.19
 51
311.81
  0
ARC
  5
A6
330
1F
100
AcDbEntity
  8
SLD-0
  6
Continuous
 62
   179
100
AcDbCircle
 10
155.220203
 20
152.63069
 30
0.0
 40
2.250000000000006
100
AcDbArc
 50
180.0
 51
0.0
  0
ARC
  5
A7
330
1F
100
AcDbEntity
  8
SLD-0
  6
Continuous
 62
   179
100
AcDbCircle
 10
155.220203
 20
172.63066
 30
0.0
 40
2.250000000000006
100
AcDbArc
 50
0.0
 51
180.0
  0
ARC
  5
A8
330
1F
100
AcDbEntity
  8
SLD-0
  6
Continuous
 62
   179
100
AcDbCircle
 10
155.220203
 20
172.63066
 30
0.0
 40
4.000000000000004
100
AcDbArc
 50
0.0
 51
180.0
  0
ARC
  5
A9
330
1F
100
AcDbEntity
  8
SLD-0
  6
Continuous
 62
   179
100
AcDbCircle
 10
155.220203
 20
152.63069
 30
0.0
 40
4.000000000000004
100
AcDbArc
 50
180.0
 51
0.0
  0
ARC
  5
AA
330
1F
100
AcDbEntity
  8
SLD-0
  6
Continuous
 62
   179
100
AcDbCircle
 10
155.220203
 20
162.63066
 30
0.0
 40
15.00000000000002
100
AcDbArc
 50
48.1897
 51
131.81
  0
CIRCLE
  5
AB
330
1F
100
AcDbEntity
  8
SLD-0
  6
Continuous
 62
   179
100
AcDbCircle
 10
155.220203
 20
162.63066
 30
0.0
 40
6.5
  0
CIRCLE
  5
AC
330
1F
100
AcDbEntity
  8
SLD-0
  6
Continuous
 62
   179
100
AcDbCircle
 10
155.220203
 20
162.63066
 30
0.0
 40
4.0
  0
CIRCLE
  5
AD
330
1F
100
AcDbEntity
  8
SLD-0
  6
Continuous
 62
   179
100
AcDbCircle
 10
155.220203
 20
162.63066
 30
0.0
 40
2.75
  0
CIRCLE
  5
AE
330
1F
100
AcDbEntity
  8
SLD-0
  6
Continuous
 62
   179
100
AcDbCircle
 10
155.220203
 20
162.63066
 30
0.0
 40
9.5
  0
CIRCLE
  5
AF
330
1F
100
AcDbEntity
  8
SLD-0
  6
Continuous
 62
   179
100
AcDbCircle
 10
155.220203
 20
162.63066
 30
0.0
 40
10.0
  0
ARC
  5
B0
330
1F
100
AcDbEntity
  8
SLD-0
  6
Continuous
 62
   179
100
AcDbCircle
 10
108.776314
 20
162.63066
 30
0.0
 40
9.480119700000012
100
AcDbArc
 50
335.319
 51
24.6808
  0
ARC
  5
B1
330
1F
100
AcDbEntity
  8
SLD-0
  6
Continuous
 62
   179
100
AcDbCircle
 10
109.39975
 20
170.73041
 30
0.0
 40
9.000000000000009
100
AcDbArc
 50
332.604
 51
349.761
  0
ARC
  5
B2
330
1F
100
AcDbEntity
  8
SLD-0
  6
Continuous
 62
   179
100
AcDbCircle
 10
109.39975
 20
154.5309
 30
0.0
 40
9.000000000000016
100
AcDbArc
 50
10.2387
 51
27.3956
  0
ARC
  5
B3
330
1F
100
AcDbEntity
  8
SLD-0
  6
Continuous
 62
   179
100
AcDbCircle
 10
57.29271
 20
162.63066
 30
0.0
 40
14.99999999999999
100
AcDbArc
 50
228.19
 51
311.81
  0
CIRCLE
  5
B4
330
1F
100
AcDbEntity
  8
SLD-0
  6
Continuous
 62
   179
100
AcDbCircle
 10
57.29271
 20
162.63066
 30
0.0
 40
3.999999999999993
  0
CIRCLE
  5
B5
330
1F
100
AcDbEntity
  8
SLD-0
  6
Continuous
 62
   179
100
AcDbCircle
 10
57.29271
 20
152.63069
 30
0.0
 40
2.25
  0
CIRCLE
  5
B6
330
1F
100
AcDbEntity
  8
SLD-0
  6
Continuous
 62
   179
100
AcDbCircle
 10
57.29271
 20
172.63066
 30
0.0
 40
2.25
  0
CIRCLE
  5
B7
330
1F
100
AcDbEntity
  8
SLD-0
  6
Continuous
 62
   179
100
AcDbCircle
 10
57.29271
 20
162.63066
 30
0.0
 40
3.0
  0
CIRCLE
  5
B8
330
1F
100
AcDbEntity
  8
SLD-0
  6
HIDDEN
 62
   179
100
AcDbCircle
 10
57.29271
 20
172.63066
 30
0.0
 40
3.999999999999993
  0
CIRCLE
  5
B9
330
1F
100
AcDbEntity
  8
SLD-0
  6
HIDDEN
 62
   179
100
AcDbCircle
 10
57.29271
 20
152.63069
 30
0.0
 40
3.999999999999993
  0
ARC
  5
BA
330
1F
100
AcDbEntity
  8
SLD-0
  6
Continuous
 62
   179
100
AcDbCircle
 10
57.29271
 20
162.63066
 30
0.0
 40
15.00000000000001
100
AcDbArc
 50
48.1897
 51
131.81
  0
ARC
  5
BB
330
1F
100
AcDbEntity
  8
SLD-0
  6
Continuous
 62
   179
100
AcDbCircle
 10
57.29271
 20
162.63066
 30
0.0
 40
14.50000000000001
100
AcDbArc
 50
48.1897
 51
131.81
  0
ARC
  5
BC
330
1F
100
AcDbEntity
  8
SLD-0
  6
Continuous
 62
   179
100
AcDbCircle
 10
57.29271
 20
162.63066
 30
0.0
 40
14.49999999999999
100
AcDbArc
 50
228.19
 51
311.81
  0
MTEXT
  5
BE
330
1F
100
AcDbEntity
  8
SLD-0
 62
     7
100
AcDbMText
 10
144.253985
 20
44.5269852496
 30
0.0
 40
4.8000002
 41
0.0
 71
     1
 72
     1
  1
ニッパー取付金具
  7
SLDTEXTSTYLE4
 73
     1
 44
1.0
  0
MTEXT
  5
C0
330
1F
100
AcDbEntity
  8
SLD-0
 62
     7
100
AcDbMText
 10
140.267086
 20
31.2951702496
 30
0.0
 40
4.8000002
 41
0.0
 71
     1
 72
     1
  1
ＮＣ／ＮＷ－１０ヨウ
  7
SLDTEXTSTYLE5
 73
     1
 44
1.0
  0
MTEXT
  5
C2
330
1F
100
AcDbEntity
  8
SLD-0
 62
     7
100
AcDbMText
 10
149.654006
 20
19.1496608496
 30
0.0
 40
4.8000002
 41
0.0
 71
     1
 72
     1
  1
１３０２１６
  7
SLDTEXTSTYLE6
 73
     1
 44
1.0
  0
INSERT
  5
C3
330
1F
100
AcDbEntity
  8
0
  6
Continuous
 62
     7
370
     0
100
AcDbBlockReference
  2
KOZU0001
 10
59.40881
 20
176.02509
 30
0.0
  0
INSERT
  5
C4
330
1F
100
AcDbEntity
  8
0
  6
Continuous
 62
     7
370
     0
100
AcDbBlockReference
  2
KOZU0002
 10
119.422675
 20
166.63066
 30
0.0
  0
ENDSEC
  0
SECTION
  2
OBJECTS
  0
DICTIONARY
  5
C
330
0
100
AcDbDictionary
281
     1
  3
ACAD_GROUP
350
D
  3
ACAD_LAYOUT
350
1A
  3
ACAD_MLINESTYLE
350
17
  3
ACAD_PLOTSETTINGS
350
19
  3
ACAD_PLOTSTYLENAME
350
E
  0
DICTIONARY
  5
D
102
{ACAD_REACTORS
330
C
102
}
330
C
100
AcDbDictionary
281
     1
  0
DICTIONARY
  5
1A
102
{ACAD_REACTORS
330
C
102
}
330
C
100
AcDbDictionary
281
     1
  3
Layout1
350
1E
  3
Layout2
350
26
  3
Model
350
22
  0
DICTIONARY
  5
17
102
{ACAD_REACTORS
330
C
102
}
330
C
100
AcDbDictionary
281
     1
  3
Standard
350
18
  0
DICTIONARY
  5
19
102
{ACAD_REACTORS
330
C
102
}
330
C
100
AcDbDictionary
281
     1
  0
ACDBDICTIONARYWDFLT
  5
E
102
{ACAD_REACTORS
330
C
102
}
330
C
100
AcDbDictionary
281
     1
  3
Normal
350
F
100
AcDbDictionaryWithDefault
340
F
  0
LAYOUT
  5
1E
102
{ACAD_REACTORS
330
1A
102
}
330
1A
100
AcDbPlotSettings
  1

  2

  4

  6

 40
0.0
 41
0.0
 42
0.0
 43
0.0
 44
0.0
 45
0.0
 46
0.0
 47
0.0
 48
0.0
 49
0.0
140
0.0
141
0.0
142
1.0
143
1.0
 70
   688
 72
     0
 73
     0
 74
     5
  7

 75
    16
147
1.0
148
0.0
149
0.0
100
AcDbLayout
  1
Layout1
 70
     1
 71
     1
 10
0.0
 20
0.0
 11
0.0
 21
0.0
 12
0.0
 22
0.0
 32
0.0
 14
0.0
 24
0.0
 34
0.0
 15
0.0
 25
0.0
 35
0.0
146
0.0
 13
0.0
 23
0.0
 33
0.0
 16
1.0
 26
0.0
 36
0.0
 17
0.0
 27
1.0
 37
0.0
 76
     0
330
1B
  0
LAYOUT
  5
26
102
{ACAD_REACTORS
330
1A
102
}
330
1A
100
AcDbPlotSettings
  1

  2

  4

  6

 40
0.0
 41
0.0
 42
0.0
 43
0.0
 44
0.0
 45
0.0
 46
0.0
 47
0.0
 48
0.0
 49
0.0
140
0.0
141
0.0
142
1.0
143
1.0
 70
   688
 72
     0
 73
     0
 74
     5
  7

 75
    16
147
1.0
148
0.0
149
0.0
100
AcDbLayout
  1
Layout2
 70
     1
 71
     2
 10
0.0
 20
0.0
 11
0.0
 21
0.0
 12
0.0
 22
0.0
 32
0.0
 14
0.0
 24
0.0
 34
0.0
 15
0.0
 25
0.0
 35
0.0
146
0.0
 13
0.0
 23
0.0
 33
0.0
 16
1.0
 26
0.0
 36
0.0
 17
0.0
 27
1.0
 37
0.0
 76
     0
330
23
  0
LAYOUT
  5
22
102
{ACAD_REACTORS
330
1A
102
}
330
1A
100
AcDbPlotSettings
  1

  2

  4

  6

 40
0.0
 41
0.0
 42
0.0
 43
0.0
 44
0.0
 45
0.0
 46
0.0
 47
0.0
 48
0.0
 49
0.0
140
0.0
141
0.0
142
1.0
143
1.0
 70
  1712
 72
     0
 73
     0
 74
     0
  7

 75
     0
147
1.0
148
0.0
149
0.0
100
AcDbLayout
  1
Model
 70
     1
 71
     0
 10
0.0
 20
0.0
 11
0.0
 21
0.0
 12
0.0
 22
0.0
 32
0.0
 14
0.0
 24
0.0
 34
0.0
 15
210.0
 25
297.0
 35
0.0
146
0.0
 13
0.0
 23
0.0
 33
0.0
 16
1.0
 26
0.0
 36
0.0
 17
0.0
 27
1.0
 37
0.0
 76
     0
330
1F
  0
MLINESTYLE
  5
18
102
{ACAD_REACTORS
330
17
102
}
330
17
100
AcDbMlineStyle
  2
Standard
 70
     0
  3

 62
   256
 51
90.0
 52
90.0
 71
     2
 49
0.5
 62
   256
  6
BYLAYER
 49
-0.5
 62
   256
  6
BYLAYER
  0
ACDBPLACEHOLDER
  5
F
102
{ACAD_REACTORS
330
E
102
}
330
E
  0
ENDSEC
  0
EOF
