  0
SECTION
  2
HEADER
  9
$ACADVER
  1
AC1015
  9
$ACADMAINTVER
 70
     6
  9
$DWGCODEPAGE
  3
DOS932
  9
$INSBASE
 10
0.0
 20
0.0
 30
0.0
  9
$EXTMIN
 10
0.0
 20
0.0
 30
0.0
  9
$EXTMAX
 10
210.0
 20
297.0
 30
0.0
  9
$LIMMIN
 10
0.0
 20
0.0
  9
$LIMMAX
 10
0.0
 20
0.0
  9
$ORTHOMODE
 70
     0
  9
$REGENMODE
 70
     1
  9
$FILLMODE
 70
     1
  9
$QTEXTMODE
 70
     0
  9
$MIRRTEXT
 70
     1
  9
$LTSCALE
 40
1.0
  9
$ATTMODE
 70
     1
  9
$TEXTSIZE
 40
3.5
  9
$TRACEWID
 40
1.0
  9
$TEXTSTYLE
  7
Standard
  9
$CLAYER
  8
0
  9
$CELTYPE
  6
ByLayer
  9
$CECOLOR
 62
   256
  9
$CELTSCALE
 40
1.0
  9
$DISPSILH
 70
     0
  9
$DIMSCALE
 40
1.0
  9
$DIMASZ
 40
3.0
  9
$DIMEXO
 40
1.0
  9
$DIMDLI
 40
3.75
  9
$DIMRND
 40
0.0
  9
$DIMDLE
 40
0.0
  9
$DIMEXE
 40
1.0
  9
$DIMTP
 40
0.0
  9
$DIMTM
 40
0.0
  9
$DIMTXT
 40
3.2
  9
$DIMCEN
 40
2.5
  9
$DIMTSZ
 40
0.0
  9
$DIMTOL
 70
     0
  9
$DIMLIM
 70
     0
  9
$DIMTIH
 70
     1
  9
$DIMTOH
 70
     1
  9
$DIMSE1
 70
     0
  9
$DIMSE2
 70
     0
  9
$DIMTAD
 70
     1
  9
$DIMZIN
 70
     1
  9
$DIMBLK
  1

  9
$DIMASO
 70
     1
  9
$DIMSHO
 70
     1
  9
$DIMPOST
  1

  9
$DIMAPOST
  1

  9
$DIMALT
 70
     0
  9
$DIMALTD
 70
     3
  9
$DIMALTF
 40
0.0393700787
  9
$DIMLFAC
 40
1.0
  9
$DIMTOFL
 70
     1
  9
$DIMTVP
 40
0.0
  9
$DIMTIX
 70
     0
  9
$DIMSOXD
 70
     0
  9
$DIMSAH
 70
     0
  9
$DIMBLK1
  1

  9
$DIMBLK2
  1

  9
$DIMSTYLE
  2
ISO-25
  9
$DIMCLRD
 70
     0
  9
$DIMCLRE
 70
     0
  9
$DIMCLRT
 70
     0
  9
$DIMTFAC
 40
1.0
  9
$DIMGAP
 40
1.524
  9
$DIMJUST
 70
     0
  9
$DIMSD1
 70
     0
  9
$DIMSD2
 70
     0
  9
$DIMTOLJ
 70
     0
  9
$DIMTZIN
 70
     1
  9
$DIMALTZ
 70
     0
  9
$DIMALTTZ
 70
     0
  9
$DIMUPT
 70
     0
  9
$DIMDEC
 70
     2
  9
$DIMTDEC
 70
     2
  9
$DIMALTU
 70
     2
  9
$DIMALTTD
 70
     3
  9
$DIMTXSTY
  7
Standard
  9
$DIMAUNIT
 70
     0
  9
$DIMADEC
 70
     0
  9
$DIMALTRND
 40
0.0
  9
$DIMAZIN
 70
     0
  9
$DIMDSEP
 70
    44
  9
$DIMATFIT
 70
     3
  9
$DIMFRAC
 70
     0
  9
$DIMLDRBLK
  1

  9
$DIMLUNIT
 70
     2
  9
$DIMLWD
 70
    -2
  9
$DIMLWE
 70
    -2
  9
$DIMTMOVE
 70
     0
  9
$LUNITS
 70
     2
  9
$LUPREC
 70
     4
  9
$SKETCHINC
 40
1.0
  9
$FILLETRAD
 40
10.0
  9
$AUNITS
 70
     0
  9
$AUPREC
 70
     0
  9
$MENU
  1
.
  9
$ELEVATION
 40
0.0
  9
$PELEVATION
 40
0.0
  9
$THICKNESS
 40
0.0
  9
$LIMCHECK
 70
     0
  9
$CHAMFERA
 40
10.0
  9
$CHAMFERB
 40
10.0
  9
$CHAMFERC
 40
20.0
  9
$CHAMFERD
 40
0.0
  9
$SKPOLY
 70
     0
  9
$TDCREATE
 40
2454307.562472141
  9
$TDUCREATE
 40
2454307.187472141
  9
$TDUPDATE
 40
2454307.562472153
  9
$TDUUPDATE
 40
2454307.187472153
  9
$TDINDWG
 40
0.0000000116
  9
$TDUSRTIMER
 40
0.0000000116
  9
$USRTIMER
 70
     1
  9
$ANGBASE
 50
0.0
  9
$ANGDIR
 70
     0
  9
$PDMODE
 70
     0
  9
$PDSIZE
 40
-1.0
  9
$PLINEWID
 40
0.0
  9
$SPLFRAME
 70
     0
  9
$SPLINETYPE
 70
     6
  9
$SPLINESEGS
 70
     8
  9
$HANDSEED
  5
108
  9
$SURFTAB1
 70
     6
  9
$SURFTAB2
 70
     6
  9
$SURFTYPE
 70
     6
  9
$SURFU
 70
     6
  9
$SURFV
 70
     6
  9
$UCSBASE
  2

  9
$UCSNAME
  2

  9
$UCSORG
 10
0.0
 20
0.0
 30
0.0
  9
$UCSXDIR
 10
1.0
 20
0.0
 30
0.0
  9
$UCSYDIR
 10
0.0
 20
1.0
 30
0.0
  9
$UCSORTHOREF
  2

  9
$UCSORTHOVIEW
 70
     0
  9
$UCSORGTOP
 10
0.0
 20
0.0
 30
0.0
  9
$UCSORGBOTTOM
 10
0.0
 20
0.0
 30
0.0
  9
$UCSORGLEFT
 10
0.0
 20
0.0
 30
0.0
  9
$UCSORGRIGHT
 10
0.0
 20
0.0
 30
0.0
  9
$UCSORGFRONT
 10
0.0
 20
0.0
 30
0.0
  9
$UCSORGBACK
 10
0.0
 20
0.0
 30
0.0
  9
$PUCSBASE
  2

  9
$PUCSNAME
  2

  9
$PUCSORG
 10
0.0
 20
0.0
 30
0.0
  9
$PUCSXDIR
 10
1.0
 20
0.0
 30
0.0
  9
$PUCSYDIR
 10
0.0
 20
1.0
 30
0.0
  9
$PUCSORTHOREF
  2

  9
$PUCSORTHOVIEW
 70
     0
  9
$PUCSORGTOP
 10
0.0
 20
0.0
 30
0.0
  9
$PUCSORGBOTTOM
 10
0.0
 20
0.0
 30
0.0
  9
$PUCSORGLEFT
 10
0.0
 20
0.0
 30
0.0
  9
$PUCSORGRIGHT
 10
0.0
 20
0.0
 30
0.0
  9
$PUCSORGFRONT
 10
0.0
 20
0.0
 30
0.0
  9
$PUCSORGBACK
 10
0.0
 20
0.0
 30
0.0
  9
$USERI1
 70
     0
  9
$USERI2
 70
     0
  9
$USERI3
 70
     0
  9
$USERI4
 70
     0
  9
$USERI5
 70
     0
  9
$USERR1
 40
0.0
  9
$USERR2
 40
0.0
  9
$USERR3
 40
0.0
  9
$USERR4
 40
0.0
  9
$USERR5
 40
0.0
  9
$WORLDVIEW
 70
     1
  9
$SHADEDGE
 70
     3
  9
$SHADEDIF
 70
    70
  9
$TILEMODE
 70
     1
  9
$MAXACTVP
 70
    64
  9
$PINSBASE
 10
0.0
 20
0.0
 30
0.0
  9
$PLIMCHECK
 70
     0
  9
$PEXTMIN
 10
1.0000000000E+20
 20
1.0000000000E+20
 30
1.0000000000E+20
  9
$PEXTMAX
 10
-1.0000000000E+20
 20
-1.0000000000E+20
 30
-1.0000000000E+20
  9
$PLIMMIN
 10
0.0
 20
0.0
  9
$PLIMMAX
 10
420.0
 20
297.0
  9
$UNITMODE
 70
     0
  9
$VISRETAIN
 70
     1
  9
$PLINEGEN
 70
     0
  9
$PSLTSCALE
 70
     1
  9
$TREEDEPTH
 70
  3020
  9
$CMLSTYLE
  2
Standard
  9
$CMLJUST
 70
     0
  9
$CMLSCALE
 40
20.0
  9
$PROXYGRAPHICS
 70
     1
  9
$MEASUREMENT
 70
     1
  9
$CELWEIGHT
370
    -1
  9
$ENDCAPS
280
     0
  9
$JOINSTYLE
280
     0
  9
$LWDISPLAY
290
     1
  9
$INSUNITS
 70
     4
  9
$HYPERLINKBASE
  1

  9
$STYLESHEET
  1

  9
$XEDIT
290
     1
  9
$CEPSNTYPE
380
     0
  9
$PSTYLEMODE
290
     1
  9
$FINGERPRINTGUID
  2
{EBA14541-038C-4925-AC4A-F741685C4807}
  9
$VERSIONGUID
  2
{FAEB1C32-E019-11D5-929B-00C0DF256EC4}
  9
$EXTNAMES
290
     1
  9
$PSVPSCALE
 40
0.0
  9
$OLESTARTUP
290
     0
  0
ENDSEC
  0
SECTION
  2
CLASSES
  0
CLASS
  1
ACDBDICTIONARYWDFLT
  2
AcDbDictionaryWithDefault
  3
ObjectDBX Classes
 90
        0
280
     0
281
     0
  0
CLASS
  1
ACDBPLACEHOLDER
  2
AcDbPlaceHolder
  3
ObjectDBX Classes
 90
        0
280
     0
281
     0
  0
CLASS
  1
LAYOUT
  2
AcDbLayout
  3
ObjectDBX Classes
 90
        0
280
     0
281
     0
  0
ENDSEC
  0
SECTION
  2
TABLES
  0
TABLE
  2
VPORT
  5
8
330
0
100
AcDbSymbolTable
 70
     1
  0
VPORT
  5
29
330
8
100
AcDbSymbolTableRecord
100
AcDbViewportTableRecord
  2
*Active
 70
     0
 10
0.0
 20
0.0
 11
1.0
 21
1.0
 12
105.0
 22
148.5
 13
0.0
 23
0.0
 14
10.0
 24
10.0
 15
10.0
 25
10.0
 16
0.0
 26
0.0
 36
1.0
 17
0.0
 27
0.0
 37
0.0
 40
297.0
 41
1.9729729729
 42
50.0
 43
0.0
 44
0.0
 50
0.0
 51
0.0
 71
     0
 72
  2000
 73
     1
 74
     3
 75
     0
 76
     0
 77
     0
 78
     0
281
     0
 65
     1
110
0.0
120
0.0
130
0.0
111
1.0
121
0.0
131
0.0
112
0.0
122
1.0
132
0.0
 79
     0
146
0.0
  0
ENDTAB
  0
TABLE
  2
LTYPE
  5
5
330
0
100
AcDbSymbolTable
 70
     6
  0
LTYPE
  5
14
330
5
100
AcDbSymbolTableRecord
100
AcDbLinetypeTableRecord
  2
ByBlock
 70
     0
  3

 72
    65
 73
     0
 40
0.0
  0
LTYPE
  5
15
330
5
100
AcDbSymbolTableRecord
100
AcDbLinetypeTableRecord
  2
ByLayer
 70
     0
  3

 72
    65
 73
     0
 40
0.0
  0
LTYPE
  5
16
330
5
100
AcDbSymbolTableRecord
100
AcDbLinetypeTableRecord
  2
Continuous
 70
     0
  3
Solid line
 72
    65
 73
     0
 40
0.0
  0
LTYPE
  5
2A
330
5
100
AcDbSymbolTableRecord
100
AcDbLinetypeTableRecord
  2
HIDDEN
 70
     0
  3
Hidden __ __ __ __ __ __ __ __ __ __ __ __ __ __
 72
    65
 73
     2
 40
1.905
 49
1.27
 74
     0
 49
-0.635
 74
     0
  0
LTYPE
  5
2B
330
5
100
AcDbSymbolTableRecord
100
AcDbLinetypeTableRecord
  2
PHANTOM
 70
     0
  3
Phantom ______  __  __  ______  __  __  ______
 72
    65
 73
     6
 40
12.7
 49
6.35
 74
     0
 49
-1.27
 74
     0
 49
1.27
 74
     0
 49
-1.27
 74
     0
 49
1.27
 74
     0
 49
-1.27
 74
     0
  0
LTYPE
  5
2C
330
5
100
AcDbSymbolTableRecord
100
AcDbLinetypeTableRecord
  2
CENTER
 70
     0
  3
Center ____ _ ____ _ ____ _ ____ _ ____ _ ____
 72
    65
 73
     4
 40
10.16
 49
6.35
 74
     0
 49
-1.27
 74
     0
 49
1.27
 74
     0
 49
-1.27
 74
     0
  0
LTYPE
  5
2D
330
5
100
AcDbSymbolTableRecord
100
AcDbLinetypeTableRecord
  2
CENTERX2
 70
     0
  3
Center (2x) ________  __  ________  __  _____
 72
    65
 73
     4
 40
20.32
 49
12.7
 74
     0
 49
-2.54
 74
     0
 49
2.54
 74
     0
 49
-2.54
 74
     0
  0
LTYPE
  5
2E
330
5
100
AcDbSymbolTableRecord
100
AcDbLinetypeTableRecord
  2
DOT2
 70
     0
  3
Dot (.5x) ........................................
 72
    65
 73
     2
 40
0.635
 49
0.0
 74
     0
 49
-0.635
 74
     0
  0
ENDTAB
  0
TABLE
  2
LAYER
  5
2
330
0
100
AcDbSymbolTable
 70
     2
  0
LAYER
  5
10
330
2
100
AcDbSymbolTableRecord
100
AcDbLayerTableRecord
  2
0
 70
     0
 62
     7
  6
Continuous
370
    -3
390
F
  0
LAYER
  5
2F
330
2
100
AcDbSymbolTableRecord
100
AcDbLayerTableRecord
  2
SLD-0
 70
     0
 62
   179
  6
Continuous
370
     0
390
F
  0
ENDTAB
  0
TABLE
  2
STYLE
  5
3
330
0
100
AcDbSymbolTable
 70
     5
  0
STYLE
  5
11
330
3
100
AcDbSymbolTableRecord
100
AcDbTextStyleTableRecord
  2
Standard
 70
     0
 40
0.0
 41
1.0
 50
0.0
 71
     0
 42
2.5
  3
txt
  4
bigfont
  0
STYLE
  5
33
330
3
100
AcDbSymbolTableRecord
100
AcDbTextStyleTableRecord
  2
SLDTEXTSTYLE0
 70
     0
 40
0.0
 41
0.7
 50
0.0
 71
     0
 42
0.2
  3
TXT
  4
bigfont
  0
STYLE
  5
102
330
3
100
AcDbSymbolTableRecord
100
AcDbTextStyleTableRecord
  2
SLDTEXTSTYLE1
 70
     0
 40
0.0
 41
0.7971972105
 50
0.0
 71
     0
 42
0.2
  3
TXT
  4
bigfont
  0
STYLE
  5
104
330
3
100
AcDbSymbolTableRecord
100
AcDbTextStyleTableRecord
  2
SLDTEXTSTYLE2
 70
     0
 40
0.0
 41
0.6255251653
 50
0.0
 71
     0
 42
0.2
  3
TXT
  4
bigfont
  0
STYLE
  5
106
330
3
100
AcDbSymbolTableRecord
100
AcDbTextStyleTableRecord
  2
SLDTEXTSTYLE3
 70
     0
 40
0.0
 41
0.6244080758
 50
0.0
 71
     0
 42
0.2
  3
TXT
  4
bigfont
  0
ENDTAB
  0
TABLE
  2
VIEW
  5
6
330
0
100
AcDbSymbolTable
 70
     0
  0
ENDTAB
  0
TABLE
  2
UCS
  5
7
330
0
100
AcDbSymbolTable
 70
     0
  0
ENDTAB
  0
TABLE
  2
APPID
  5
9
330
0
100
AcDbSymbolTable
 70
     1
  0
APPID
  5
12
330
9
100
AcDbSymbolTableRecord
100
AcDbRegAppTableRecord
  2
ACAD
 70
     0
  0
ENDTAB
  0
TABLE
  2
DIMSTYLE
  5
A
330
0
100
AcDbSymbolTable
 70
     1
100
AcDbDimStyleTable
  0
DIMSTYLE
105
27
330
A
100
AcDbSymbolTableRecord
100
AcDbDimStyleTableRecord
  2
ISO-25
 70
     0
 41
2.5
 42
0.625
 43
3.75
 44
1.25
 73
     0
 74
     0
 77
     1
 78
     8
140
2.5
141
2.5
143
0.0393700787
147
0.625
171
     3
172
     1
271
     2
272
     2
274
     3
278
    44
283
     0
284
     8
340
11
  0
ENDTAB
  0
TABLE
  2
BLOCK_RECORD
  5
1
330
0
100
AcDbSymbolTable
 70
     2
  0
BLOCK_RECORD
  5
1F
330
1
100
AcDbSymbolTableRecord
100
AcDbBlockTableRecord
  2
*Model_Space
340
22
  0
BLOCK_RECORD
  5
1B
330
1
100
AcDbSymbolTableRecord
100
AcDbBlockTableRecord
  2
*Paper_Space
340
1E
  0
BLOCK_RECORD
  5
23
330
1
100
AcDbSymbolTableRecord
100
AcDbBlockTableRecord
  2
*Paper_Space0
340
26
  0
BLOCK_RECORD
  5
30
330
1
100
AcDbSymbolTableRecord
100
AcDbBlockTableRecord
  2
注記
340
0
  0
ENDTAB
  0
ENDSEC
  0
SECTION
  2
BLOCKS
  0
BLOCK
  5
20
330
1F
100
AcDbEntity
  8
0
100
AcDbBlockBegin
  2
*Model_Space
 70
     0
 71
     0
 10
0.0
 20
0.0
 30
0.0
  3
*Model_Space
  1

  0
ENDBLK
  5
21
330
1F
100
AcDbEntity
  8
0
100
AcDbBlockEnd
  0
BLOCK
  5
1C
330
1B
100
AcDbEntity
 67
     1
  8
0
100
AcDbBlockBegin
  2
*Paper_Space
 70
     0
 71
     0
 10
0.0
 20
0.0
 30
0.0
  3
*Paper_Space
  1

  0
ENDBLK
  5
1D
330
1B
100
AcDbEntity
 67
     1
  8
0
100
AcDbBlockEnd
  0
BLOCK
  5
24
330
23
100
AcDbEntity
  8
0
100
AcDbBlockBegin
  2
*Paper_Space0
 70
     0
 71
     0
 10
0.0
 20
0.0
 30
0.0
  3
*Paper_Space0
  1

  0
ENDBLK
  5
25
330
23
100
AcDbEntity
  8
0
100
AcDbBlockEnd
  0
BLOCK
  5
31
330
30
100
AcDbEntity
  8
0
100
AcDbBlockBegin
  2
注記
 70
     0
 71
     0
 10
0.0
 20
0.0
 30
0.0
  3
注記
  1

  0
MTEXT
  5
34
330
30
100
AcDbEntity
  8
0
  6
Continuous
 62
     7
370
     0
100
AcDbMText
 10
0.2636785918
 20
9.0739778448
 30
0.0
 40
3.5
 41
0.0
 71
     1
 72
     1
  1
１．特記ナキ角部ハ、バリ　カエリノ無キコト。
  7
SLDTEXTSTYLE0
 73
     1
 44
1.0
  0
MTEXT
  5
35
330
30
100
AcDbEntity
  8
0
  6
Continuous
 62
     7
370
     0
100
AcDbMText
 10
0.2636785918
 20
3.5759549983
 30
0.0
 40
3.5
 41
0.0
 71
     1
 72
     1
  1
２．特記ナキ隅部ハ、Ｒ０．４ＭＡＸトスル。
  7
SLDTEXTSTYLE0
 73
     1
 44
1.0
  0
ENDBLK
  5
32
330
30
100
AcDbEntity
  8
0
100
AcDbBlockEnd
  0
ENDSEC
  0
SECTION
  2
ENTITIES
  0
LINE
  5
36
330
1F
100
AcDbEntity
  8
SLD-0
  6
Continuous
 62
   179
100
AcDbLine
 10
193.375
 20
285.75
 30
0.0
 11
193.375
 21
11.25
 31
0.0
  0
LINE
  5
37
330
1F
100
AcDbEntity
  8
SLD-0
  6
Continuous
 62
   179
100
AcDbLine
 10
16.575
 20
11.25
 30
0.0
 11
193.375
 21
11.25
 31
0.0
  0
LINE
  5
38
330
1F
100
AcDbEntity
  8
SLD-0
  6
Continuous
 62
   179
100
AcDbLine
 10
16.575
 20
285.75
 30
0.0
 11
16.575
 21
11.25
 31
0.0
  0
LINE
  5
39
330
1F
100
AcDbEntity
  8
SLD-0
  6
Continuous
 62
   179
100
AcDbLine
 10
16.575
 20
285.75
 30
0.0
 11
193.375
 21
285.75
 31
0.0
  0
LINE
  5
3A
330
1F
100
AcDbEntity
  8
SLD-0
  6
Continuous
 62
   179
100
AcDbLine
 10
131.744999
 20
49.75
 30
0.0
 11
131.744999
 21
11.25
 31
0.0
  0
LINE
  5
3B
330
1F
100
AcDbEntity
  8
SLD-0
  6
Continuous
 62
   179
100
AcDbLine
 10
16.575
 20
11.25
 30
0.0
 11
193.375
 21
11.25
 31
0.0
  0
LINE
  5
3C
330
1F
100
AcDbEntity
  8
SLD-0
  6
Continuous
 62
   179
100
AcDbLine
 10
131.744999
 20
23.75
 30
0.0
 11
193.375
 21
23.75
 31
0.0
  0
LINE
  5
3D
330
1F
100
AcDbEntity
  8
SLD-0
  6
Continuous
 62
   179
100
AcDbLine
 10
131.744999
 20
36.25
 30
0.0
 11
193.375
 21
36.25
 31
0.0
  0
LINE
  5
3E
330
1F
100
AcDbEntity
  8
SLD-0
  6
Continuous
 62
   179
100
AcDbLine
 10
131.744999
 20
49.75
 30
0.0
 11
193.375
 21
49.75
 31
0.0
  0
LINE
  5
3F
330
1F
100
AcDbEntity
  8
SLD-0
  6
Continuous
 62
   179
100
AcDbLine
 10
16.375
 20
285.95001
 30
0.0
 11
193.575
 21
285.95001
 31
0.0
  0
LINE
  5
40
330
1F
100
AcDbEntity
  8
SLD-0
  6
Continuous
 62
   179
100
AcDbLine
 10
193.575
 20
285.95001
 30
0.0
 11
193.575
 21
11.05
 31
0.0
  0
LINE
  5
41
330
1F
100
AcDbEntity
  8
SLD-0
  6
Continuous
 62
   179
100
AcDbLine
 10
16.375
 20
11.05
 30
0.0
 11
193.575
 21
11.05
 31
0.0
  0
LINE
  5
42
330
1F
100
AcDbEntity
  8
SLD-0
  6
Continuous
 62
   179
100
AcDbLine
 10
16.375
 20
285.95001
 30
0.0
 11
16.375
 21
11.05
 31
0.0
  0
LINE
  5
43
330
1F
100
AcDbEntity
  8
SLD-0
  6
CENTER
 62
   179
100
AcDbLine
 10
44.10112
 20
200.41507
 30
0.0
 11
163.27178
 21
200.41507
 31
0.0
  0
LINE
  5
44
330
1F
100
AcDbEntity
  8
SLD-0
  6
CENTER
 62
   179
100
AcDbLine
 10
98.271774
 20
219.41507
 30
0.0
 11
98.271774
 21
181.41507
 31
0.0
  0
LINE
  5
45
330
1F
100
AcDbEntity
  8
SLD-0
  6
Continuous
 62
   179
100
AcDbLine
 10
55.39203
 20
214.41507
 30
0.0
 11
108.271774
 21
214.41507
 31
0.0
  0
LINE
  5
46
330
1F
100
AcDbEntity
  8
SLD-0
  6
Continuous
 62
   179
100
AcDbLine
 10
55.39203
 20
186.41507
 30
0.0
 11
108.271774
 21
186.41507
 31
0.0
  0
LINE
  5
47
330
1F
100
AcDbEntity
  8
SLD-0
  6
Continuous
 62
   179
100
AcDbLine
 10
116.271774
 20
201.76506
 30
0.0
 11
158.271782
 21
201.76506
 31
0.0
  0
LINE
  5
48
330
1F
100
AcDbEntity
  8
SLD-0
  6
Continuous
 62
   179
100
AcDbLine
 10
116.268372
 20
199.06506
 30
0.0
 11
158.271782
 21
199.06506
 31
0.0
  0
LINE
  5
49
330
1F
100
AcDbEntity
  8
SLD-0
  6
Continuous
 62
   179
100
AcDbLine
 10
158.271782
 20
199.06506
 30
0.0
 11
158.271782
 21
198.18556
 31
0.0
  0
LINE
  5
4A
330
1F
100
AcDbEntity
  8
SLD-0
  6
Continuous
 62
   179
100
AcDbLine
 10
115.271774
 20
200.41507
 30
0.0
 11
115.271774
 21
200.76506
 31
0.0
  0
LINE
  5
4B
330
1F
100
AcDbEntity
  8
SLD-0
  6
Continuous
 62
   179
100
AcDbLine
 10
71.87689
 20
200.66507
 30
0.0
 11
78.44217
 21
200.66507
 31
0.0
  0
LINE
  5
4C
330
1F
100
AcDbEntity
  8
SLD-0
  6
Continuous
 62
   179
100
AcDbLine
 10
71.87689
 20
200.16507
 30
0.0
 11
79.35254
 21
200.16507
 31
0.0
  0
LINE
  5
4D
330
1F
100
AcDbEntity
  8
SLD-0
  6
Continuous
 62
   179
100
AcDbLine
 10
158.271782
 20
202.64458
 30
0.0
 11
158.271782
 21
201.76506
 31
0.0
  0
LINE
  5
4E
330
1F
100
AcDbEntity
  8
SLD-0
  6
CENTER
 62
   179
100
AcDbLine
 10
124.271774
 20
205.41507
 30
0.0
 11
124.271774
 21
195.41507
 31
0.0
  0
LINE
  5
4F
330
1F
100
AcDbEntity
  8
SLD-0
  6
Continuous
 62
   179
100
AcDbLine
 10
111.232031
 20
186.7999
 30
0.0
 11
116.951372
 21
199.06506
 31
0.0
  0
LINE
  5
50
330
1F
100
AcDbEntity
  8
SLD-0
  6
Continuous
 62
   179
100
AcDbLine
 10
79.3484787582
 20
201.2424519492
 30
0.0
 11
85.4909787582
 21
214.4150819492
 31
0.0
  0
LINE
  5
51
330
1F
100
AcDbEntity
  8
SLD-0
  6
Continuous
 62
   179
100
AcDbLine
 10
66.61134
 20
200.41508
 30
0.0
 11
67.57552
 21
202.5573
 31
0.0
  0
LINE
  5
52
330
1F
100
AcDbEntity
  8
SLD-0
  6
Continuous
 62
   179
100
AcDbLine
 10
66.61133
 20
200.41506
 30
0.0
 11
67.57585
 21
198.27208
 31
0.0
  0
LINE
  5
53
330
1F
100
AcDbEntity
  8
SLD-0
  6
Continuous
 62
   179
100
AcDbLine
 10
45.92813
 20
200.41507
 30
0.0
 11
46.8923
 21
198.27287
 31
0.0
  0
LINE
  5
54
330
1F
100
AcDbEntity
  8
SLD-0
  6
Continuous
 62
   179
100
AcDbLine
 10
45.92813
 20
200.41507
 30
0.0
 11
46.89231
 21
202.5573
 31
0.0
  0
LINE
  5
55
330
1F
100
AcDbEntity
  8
SLD-0
  6
Continuous
 62
   179
100
AcDbLine
 10
46.89231
 20
202.5573
 30
0.0
 11
67.57552
 21
202.5573
 31
0.0
  0
LINE
  5
56
330
1F
100
AcDbEntity
  8
SLD-0
  6
Continuous
 62
   179
100
AcDbLine
 10
46.89232
 20
198.27284
 30
0.0
 11
67.57552
 21
198.27284
 31
0.0
  0
LINE
  5
57
330
1F
100
AcDbEntity
  8
SLD-0
  6
Continuous
 62
   179
100
AcDbLine
 10
71.11084
 20
211.41507
 30
0.0
 11
57.57556
 21
211.41507
 31
0.0
  0
LINE
  5
58
330
1F
100
AcDbEntity
  8
SLD-0
  6
Continuous
 62
   179
100
AcDbLine
 10
71.1108449436
 20
189.4150759624
 30
0.0
 11
57.5755649436
 21
189.4150759624
 31
0.0
  0
LINE
  5
59
330
1F
100
AcDbEntity
  8
SLD-0
  6
Continuous
 62
   179
100
AcDbLine
 10
71.87689
 20
210.41507
 30
0.0
 11
71.87689
 21
190.41507
 31
0.0
  0
LINE
  5
5A
330
1F
100
AcDbEntity
  8
SLD-0
  6
Continuous
 62
   179
100
AcDbLine
 10
71.87689
 20
210.41507
 30
0.0
 11
71.87689
 21
190.41507
 31
0.0
  0
LINE
  5
5B
330
1F
100
AcDbEntity
  8
SLD-0
  6
Continuous
 62
   179
100
AcDbLine
 10
71.87689
 20
210.41507
 30
0.0
 11
71.87689
 21
190.41507
 31
0.0
  0
LINE
  5
5C
330
1F
100
AcDbEntity
  8
SLD-0
  6
Continuous
 62
   179
100
AcDbLine
 10
71.87689
 20
210.41507
 30
0.0
 11
71.87689
 21
190.41507
 31
0.0
  0
LINE
  5
5D
330
1F
100
AcDbEntity
  8
SLD-0
  6
Continuous
 62
   179
100
AcDbLine
 10
71.87689
 20
214.41507
 30
0.0
 11
71.87689
 21
186.41507
 31
0.0
  0
LINE
  5
5E
330
1F
100
AcDbEntity
  8
SLD-0
  6
Continuous
 62
   179
100
AcDbLine
 10
108.271774
 20
214.41507
 30
0.0
 11
153.045267
 21
208.5945
 31
0.0
  0
LINE
  5
5F
330
1F
100
AcDbEntity
  8
SLD-0
  6
Continuous
 62
   179
100
AcDbLine
 10
108.271774
 20
186.41507
 30
0.0
 11
153.04527
 21
192.23564
 31
0.0
  0
LINE
  5
60
330
1F
100
AcDbEntity
  8
SLD-0
  6
Continuous
 62
   179
100
AcDbLine
 10
74.27177
 20
108.415074
 30
0.0
 11
118.271766
 21
108.415064
 31
0.0
  0
LINE
  5
61
330
1F
100
AcDbEntity
  8
SLD-0
  6
Continuous
 62
   179
100
AcDbLine
 10
74.5005002846
 20
120.415070782
 30
0.0
 11
118.2717692846
 21
120.415060782
 31
0.0
  0
LINE
  5
62
330
1F
100
AcDbEntity
  8
SLD-0
  6
CENTER
 62
   179
100
AcDbLine
 10
98.271774
 20
103.41507
 30
0.0
 11
98.271774
 21
125.41507
 31
0.0
  0
LINE
  5
63
330
1F
100
AcDbEntity
  8
SLD-0
  6
Continuous
 62
   179
100
AcDbLine
 10
85.49097
 20
114.41507
 30
0.0
 11
111.513535
 21
114.41507
 31
0.0
  0
LINE
  5
64
330
1F
100
AcDbEntity
  8
SLD-0
  6
Continuous
 62
   179
100
AcDbLine
 10
111.513535
 20
120.38265
 30
0.0
 11
111.513535
 21
114.41507
 31
0.0
  0
LINE
  5
65
330
1F
100
AcDbEntity
  8
SLD-0
  6
Continuous
 62
   179
100
AcDbLine
 10
108.815811
 20
120.41507
 30
0.0
 11
108.815811
 21
114.41507
 31
0.0
  0
LINE
  5
66
330
1F
100
AcDbEntity
  8
SLD-0
  6
Continuous
 62
   179
100
AcDbLine
 10
88.62813
 20
114.41507
 30
0.0
 11
88.62813
 21
108.41507
 31
0.0
  0
LINE
  5
67
330
1F
100
AcDbEntity
  8
SLD-0
  6
Continuous
 62
   179
100
AcDbLine
 10
85.49097
 20
114.41507
 30
0.0
 11
85.49097
 21
108.41507
 31
0.0
  0
LINE
  5
68
330
1F
100
AcDbEntity
  8
SLD-0
  6
Continuous
 62
   179
100
AcDbLine
 10
45.92812
 20
132.19823
 30
0.0
 11
74.27178
 21
108.415081
 31
0.0
  0
LINE
  5
69
330
1F
100
AcDbEntity
  8
SLD-0
  6
Continuous
 62
   179
100
AcDbLine
 10
57.32204
 20
131.77544
 30
0.0
 11
68.07262
 21
122.75463
 31
0.0
  0
LINE
  5
6A
330
1F
100
AcDbEntity
  8
SLD-0
  6
Continuous
 62
   179
100
AcDbLine
 10
47.2137
 20
133.73032
 30
0.0
 11
45.92812
 21
132.19823
 31
0.0
  0
LINE
  5
6B
330
1F
100
AcDbEntity
  8
SLD-0
  6
Continuous
 62
   179
100
AcDbLine
 10
118.271781
 20
120.41507
 30
0.0
 11
152.77221
 21
119.98382
 31
0.0
  0
LINE
  5
6C
330
1F
100
AcDbEntity
  8
SLD-0
  6
Continuous
 62
   179
100
AcDbLine
 10
46.77661
 20
133.2094
 30
0.0
 11
76.32533
 21
108.41507
 31
0.0
  0
LINE
  5
6D
330
1F
100
AcDbEntity
  8
SLD-0
  6
Continuous
 62
   179
100
AcDbLine
 10
152.7722151242
 20
108.84633
 30
0.0
 11
118.2717861242
 21
108.41507
 31
0.0
  0
LINE
  5
6E
330
1F
100
AcDbEntity
  8
SLD-0
  6
CENTER
 62
   179
100
AcDbLine
 10
65.11949
 20
114.41507
 30
0.0
 11
162.096558
 21
114.41508
 31
0.0
  0
CIRCLE
  5
6F
330
1F
100
AcDbEntity
  8
SLD-0
  6
Continuous
 62
   179
100
AcDbCircle
 10
98.271774
 20
200.41507
 30
0.0
 40
2.049999999999997
  0
CIRCLE
  5
70
330
1F
100
AcDbEntity
  8
SLD-0
  6
Continuous
 62
   179
100
AcDbCircle
 10
98.271774
 20
200.41507
 30
0.0
 40
8.499999999999986
  0
ARC
  5
71
330
1F
100
AcDbEntity
  8
SLD-0
  6
Continuous
 62
   179
100
AcDbCircle
 10
98.271774
 20
200.41507
 30
0.0
 40
17.00000000000003
100
AcDbArc
 50
304.56032
 51
0.0
  0
ARC
  5
72
330
1F
100
AcDbEntity
  8
SLD-0
  6
Continuous
 62
   179
100
AcDbCircle
 10
98.271774
 20
200.41507
 30
0.0
 40
16.99999999999999
100
AcDbArc
 50
125.75203
 51
174.71527
  0
ARC
  5
73
330
1F
100
AcDbEntity
  8
SLD-0
  6
Continuous
 62
   179
100
AcDbCircle
 10
116.271774
 20
200.76506
 30
0.0
 40
1.0
100
AcDbArc
 50
90.0
 51
180.0
  0
ARC
  5
74
330
1F
100
AcDbEntity
  8
SLD-0
  6
Continuous
 62
   179
100
AcDbCircle
 10
116.268372
 20
200.06506
 30
0.0
 40
1.0
100
AcDbArc
 50
178.88585
 51
270.0
  0
ARC
  5
75
330
1F
100
AcDbEntity
  8
SLD-0
  6
Continuous
 62
   179
100
AcDbCircle
 10
78.90202
 20
202.66507
 30
0.0
 40
2.5
100
AcDbArc
 50
270.0
 51
353.37419
  0
ARC
  5
76
330
1F
100
AcDbEntity
  8
SLD-0
  6
Continuous
 62
   179
100
AcDbCircle
 10
78.44217
 20
201.6650713701
 30
0.0
 40
1.000001370123119
100
AcDbArc
 50
270.0
 51
334.9999633217
  0
ARC
  5
77
330
1F
100
AcDbEntity
  8
SLD-0
  6
Continuous
 62
   179
100
AcDbCircle
 10
58.8701844614
 20
201.8478513316
 30
0.0
 40
12.49999772304893
100
AcDbArc
 50
196.6186899789
 51
264.0552397821
  0
ARC
  5
78
330
1F
100
AcDbEntity
  8
SLD-0
  6
Continuous
 62
   179
100
AcDbCircle
 10
58.87018
 20
198.98228
 30
0.0
 40
12.5
100
AcDbArc
 50
95.94476
 51
163.38136
  0
ARC
  5
79
330
1F
100
AcDbEntity
  8
SLD-0
  6
Continuous
 62
   179
100
AcDbCircle
 10
152.271782
 20
198.18556
 30
0.0
 40
6.000000000000003
100
AcDbArc
 50
277.40691
 51
0.0
  0
ARC
  5
7A
330
1F
100
AcDbEntity
  8
SLD-0
  6
Continuous
 62
   179
100
AcDbCircle
 10
152.271782
 20
202.64458
 30
0.0
 40
6.000000000000004
100
AcDbArc
 50
0.0
 51
82.593086
  0
ARC
  5
7B
330
1F
100
AcDbEntity
  8
SLD-0
  6
Continuous
 62
   179
100
AcDbCircle
 10
74.5005002846
 20
130.4150703392
 30
0.0
 40
9.999999557200004
100
AcDbArc
 50
229.9999665491
 51
270.0
  0
ARC
  5
7C
330
1F
100
AcDbEntity
  8
SLD-0
  6
Continuous
 62
   179
100
AcDbCircle
 10
48.59836
 20
113.77829
 30
0.0
 40
20.00000000000001
100
AcDbArc
 50
64.139308
 51
93.9699
  0
ARC
  5
7D
330
1F
100
AcDbEntity
  8
SLD-0
  6
Continuous
 62
   179
100
AcDbCircle
 10
152.7026060621
 20
114.415074968
 30
0.0
 40
5.569180006057787
100
AcDbArc
 50
270.7161573737
 51
89.2838953482
  0
ARC
  5
7E
330
1F
100
AcDbEntity
  8
SLD-0
  6
Continuous
 62
   179
100
AcDbCircle
 10
57.0496852624
 20
195.4473703415
 30
0.0
 40
9.579058264101496
100
AcDbArc
 50
220.9873418368
 51
223.5751813683
  0
ARC
  5
7F
330
1F
100
AcDbEntity
  8
SLD-0
  6
Continuous
 62
   179
100
AcDbCircle
 10
56.9591770192
 20
195.3746731826
 30
0.0
 40
9.463382130676454
100
AcDbArc
 50
223.6340363418
 51
226.2218758733
  0
ARC
  5
80
330
1F
100
AcDbEntity
  8
SLD-0
  6
Continuous
 62
   179
100
AcDbCircle
 10
56.8654090672
 20
195.3058199485
 30
0.0
 40
9.348814942896365
100
AcDbArc
 50
226.344850347
 51
228.9326898785
  0
ARC
  5
81
330
1F
100
AcDbEntity
  8
SLD-0
  6
Continuous
 62
   179
100
AcDbCircle
 10
56.7686368714
 20
195.2414106393
 30
0.0
 40
9.236731108899987
100
AcDbArc
 50
229.1227939503
 51
231.7106334817
  0
ARC
  5
82
330
1F
100
AcDbEntity
  8
SLD-0
  6
Continuous
 62
   179
100
AcDbCircle
 10
56.669105897
 20
195.1815625224
 30
0.0
 40
9.128176368917444
100
AcDbArc
 50
231.9682162917
 51
234.5560558232
  0
ARC
  5
83
330
1F
100
AcDbEntity
  8
SLD-0
  6
Continuous
 62
   179
100
AcDbCircle
 10
56.567036609
 20
195.126131499
 30
0.0
 40
9.023971200963686
100
AcDbArc
 50
234.8799305163
 51
237.4677700478
  0
ARC
  5
84
330
1F
100
AcDbEntity
  8
SLD-0
  6
Continuous
 62
   179
100
AcDbCircle
 10
56.4624081061
 20
195.0753812029
 30
0.0
 40
8.925125603381654
100
AcDbArc
 50
237.8588487362
 51
240.4466882677
  0
ARC
  5
85
330
1F
100
AcDbEntity
  8
SLD-0
  6
Continuous
 62
   179
100
AcDbCircle
 10
56.3556322199
 20
195.0295352677
 30
0.0
 40
8.832858477531159
100
AcDbArc
 50
240.9025193512
 51
243.4903588826
  0
ARC
  5
86
330
1F
100
AcDbEntity
  8
SLD-0
  6
Continuous
 62
   179
100
AcDbCircle
 10
56.2471057816
 20
194.988545961
 30
0.0
 40
8.748093308065645
100
AcDbArc
 50
244.0066012145
 51
246.5944407459
  0
ARC
  5
87
330
1F
100
AcDbEntity
  8
SLD-0
  6
Continuous
 62
   179
100
AcDbCircle
 10
56.1365415238
 20
194.9523305501
 30
0.0
 40
8.671374890953954
100
AcDbArc
 50
247.1698315012
 51
249.7576710326
  0
ARC
  5
88
330
1F
100
AcDbEntity
  8
SLD-0
  6
Continuous
 62
   179
100
AcDbCircle
 10
56.0245276441
 20
194.9212090352
 30
0.0
 40
8.603936758966176
100
AcDbArc
 50
250.3858365899
 51
252.9736761213
  0
ARC
  5
89
330
1F
100
AcDbEntity
  8
SLD-0
  6
Continuous
 62
   179
100
AcDbCircle
 10
55.9114209739
 20
194.8950036836
 30
0.0
 40
8.546351746472672
100
AcDbArc
 50
253.647295113
 51
256.2351346444
  0
ARC
  5
8A
330
1F
100
AcDbEntity
  8
SLD-0
  6
Continuous
 62
   179
100
AcDbCircle
 10
55.7969142457
 20
194.8743872278
 30
0.0
 40
8.499746789770518
100
AcDbArc
 50
256.951794572
 51
259.5396341034
  0
ARC
  5
8B
330
1F
100
AcDbEntity
  8
SLD-0
  6
Continuous
 62
   179
100
AcDbCircle
 10
55.6820183897
 20
194.8586542029
 30
0.0
 40
8.464131783485463
100
AcDbArc
 50
260.2851517696
 51
262.872991301
  0
ARC
  5
8C
330
1F
100
AcDbEntity
  8
SLD-0
  6
Continuous
 62
   179
100
AcDbCircle
 10
55.5661747722
 20
194.8479396087
 30
0.0
 40
8.439892160329661
100
AcDbArc
 50
263.6443397484
 51
266.2321792798
  0
ARC
  5
8D
330
1F
100
AcDbEntity
  8
SLD-0
  6
Continuous
 62
   179
100
AcDbCircle
 10
55.450167957
 20
194.8430025442
 30
0.0
 40
8.428133066817406
100
AcDbArc
 50
267.0169263216
 51
269.6047658531
  0
ARC
  5
8E
330
1F
100
AcDbEntity
  8
SLD-0
  6
Continuous
 62
   179
100
AcDbCircle
 10
59.8724508818
 20
202.9170434003
 30
0.0
 40
13.32708664519295
100
AcDbArc
 50
138.9679717981
 51
145.0423761075
  0
ARC
  5
8F
330
1F
100
AcDbEntity
  8
SLD-0
  6
Continuous
 62
   179
100
AcDbCircle
 10
60.1235004931
 20
202.6434367638
 30
0.0
 40
13.6898454842911
100
AcDbArc
 50
144.7058887145
 51
150.7802930239
  0
ARC
  5
90
330
1F
100
AcDbEntity
  8
SLD-0
  6
Continuous
 62
   179
100
AcDbCircle
 10
60.344144379
 20
202.3446660414
 30
0.0
 40
14.02909605163435
100
AcDbArc
 50
150.1552388833
 51
156.2296431927
  0
ARC
  5
91
330
1F
100
AcDbEntity
  8
SLD-0
  6
Continuous
 62
   179
100
AcDbCircle
 10
60.5318439929
 20
202.0243334518
 30
0.0
 40
14.3316403843605
100
AcDbArc
 50
155.3600697433
 51
161.4344740527
  0
ARC
  5
92
330
1F
100
AcDbEntity
  8
SLD-0
  6
Continuous
 62
   179
100
AcDbCircle
 10
60.6846462521
 20
201.6858511597
 30
0.0
 40
14.58680013702029
100
AcDbArc
 50
160.3651648059
 51
166.4395691153
  0
ARC
  5
93
330
1F
100
AcDbEntity
  8
SLD-0
  6
Continuous
 62
   179
100
AcDbCircle
 10
60.8008108325
 20
201.333020155
 30
0.0
 40
14.78582694887296
100
AcDbArc
 50
165.2158989381
 51
171.2903032475
  0
ARC
  5
94
330
1F
100
AcDbEntity
  8
SLD-0
  6
Continuous
 62
   179
100
AcDbCircle
 10
60.8789636385
 20
200.9701429579
 30
0.0
 40
14.92206016845682
100
AcDbArc
 50
169.9583629485
 51
176.0327672579
  0
ARC
  5
95
330
1F
100
AcDbEntity
  8
SLD-0
  6
Continuous
 62
   179
100
AcDbCircle
 10
60.9183045083
 20
200.6007920345
 30
0.0
 40
14.99132286843711
100
AcDbArc
 50
174.6347805985
 51
180.7091849079
  0
ARC
  5
96
330
1F
100
AcDbEntity
  8
SLD-0
  6
Continuous
 62
   179
100
AcDbCircle
 10
60.9182895083
 20
200.2294052607
 30
0.0
 40
14.99131137137564
100
AcDbArc
 50
179.2897339868
 51
185.3641382962
  0
ARC
  5
97
330
1F
100
AcDbEntity
  8
SLD-0
  6
Continuous
 62
   179
100
AcDbCircle
 10
60.8790178735
 20
199.8601435723
 30
0.0
 40
14.92213081746332
100
AcDbArc
 50
183.9664692884
 51
190.0408735978
  0
ARC
  5
98
330
1F
100
AcDbEntity
  8
SLD-0
  6
Continuous
 62
   179
100
AcDbCircle
 10
60.8008350674
 20
199.4970679053
 30
0.0
 40
14.78584249644486
100
AcDbArc
 50
188.7081902267
 51
194.7825945361
  0
ARC
  5
99
330
1F
100
AcDbEntity
  8
SLD-0
  6
Continuous
 62
   179
100
AcDbCircle
 10
60.684640487
 20
199.1444153705
 30
0.0
 40
14.58683666218968
100
AcDbArc
 50
193.5596145584
 51
199.6340188678
  0
ARC
  5
9A
330
1F
100
AcDbEntity
  8
SLD-0
  6
Continuous
 62
   179
100
AcDbCircle
 10
60.5319124628
 20
198.8059180783
 30
0.0
 40
14.33174637814309
100
AcDbArc
 50
198.5645466233
 51
204.6389509327
  0
ARC
  5
9B
330
1F
100
AcDbEntity
  8
SLD-0
  6
Continuous
 62
   179
100
AcDbCircle
 10
60.3441928488
 20
198.4855654888
 30
0.0
 40
14.02917938626578
100
AcDbArc
 50
203.7693212185
 51
209.8437255279
  0
ARC
  5
9C
330
1F
100
AcDbEntity
  8
SLD-0
  6
Continuous
 62
   179
100
AcDbCircle
 10
60.123528963
 20
198.1867747664
 30
0.0
 40
13.68990436206498
100
AcDbArc
 50
209.2186173977
 51
215.2930217071
  0
ARC
  5
9D
330
1F
100
AcDbEntity
  8
SLD-0
  6
Continuous
 62
   179
100
AcDbCircle
 10
59.8725485866
 20
197.9130488949
 30
0.0
 40
13.32713547950181
100
AcDbArc
 50
214.9559154895
 51
221.0303197989
  0
ARC
  5
9E
330
1F
100
AcDbEntity
  8
SLD-0
  6
Continuous
 62
   179
100
AcDbCircle
 10
55.4501201509
 20
205.9871949948
 30
0.0
 40
8.42807519955592
100
AcDbArc
 50
90.3949118572
 51
92.9830410391
  0
ARC
  5
9F
330
1F
100
AcDbEntity
  8
SLD-0
  6
Continuous
 62
   179
100
AcDbCircle
 10
55.5662477696
 20
205.9820296309
 30
0.0
 40
8.440069977630456
100
AcDbArc
 50
93.7685099745
 51
96.3566391564
  0
ARC
  5
A0
330
1F
100
AcDbEntity
  8
SLD-0
  6
Continuous
 62
   179
100
AcDbCircle
 10
55.681990998
 20
205.9715225618
 30
0.0
 40
8.464093148205995
100
AcDbArc
 50
97.1274685129
 51
99.7155976949
  0
ARC
  5
A1
330
1F
100
AcDbEntity
  8
SLD-0
  6
Continuous
 62
   179
100
AcDbCircle
 10
55.7970181285
 20
205.9559901287
 30
0.0
 40
8.499536177455893
100
AcDbArc
 50
100.4622312811
 51
103.050360463
  0
ARC
  5
A2
330
1F
100
AcDbEntity
  8
SLD-0
  6
Continuous
 62
   179
100
AcDbCircle
 10
55.9114301366
 20
205.9349033074
 30
0.0
 40
8.546579463401745
100
AcDbArc
 50
103.76565897
 51
106.353788152
  0
ARC
  5
A3
330
1F
100
AcDbEntity
  8
SLD-0
  6
Continuous
 62
   179
100
AcDbCircle
 10
56.0246589735
 20
205.9088847807
 30
0.0
 40
8.604023499941087
100
AcDbArc
 50
107.0285241694
 51
109.6166533514
  0
ARC
  5
A4
330
1F
100
AcDbEntity
  8
SLD-0
  6
Continuous
 62
   179
100
AcDbCircle
 10
56.1368006146
 20
205.8777168658
 30
0.0
 40
8.671553469609117
100
AcDbArc
 50
110.2454790369
 51
112.8336082189
  0
ARC
  5
A5
330
1F
100
AcDbEntity
  8
SLD-0
  6
Continuous
 62
   179
100
AcDbCircle
 10
56.2470556695
 20
205.8416745625
 30
0.0
 40
8.747995404913359
100
AcDbArc
 50
113.4075488668
 51
115.9956780488
  0
ARC
  5
A6
330
1F
100
AcDbEntity
  8
SLD-0
  6
Continuous
 62
   179
100
AcDbCircle
 10
56.3557214553
 20
205.8006351879
 30
0.0
 40
8.832870719662578
100
AcDbArc
 50
116.5125680107
 51
119.1006971926
  0
ARC
  5
A7
330
1F
100
AcDbEntity
  8
SLD-0
  6
Continuous
 62
   179
100
AcDbCircle
 10
56.4626376061
 20
205.7547274006
 30
0.0
 40
8.925264783652068
100
AcDbArc
 50
119.5570816901
 51
122.145210872
  0
ARC
  5
A8
330
1F
100
AcDbEntity
  8
SLD-0
  6
Continuous
 62
   179
100
AcDbCircle
 10
56.5669647312
 20
205.7039135175
 30
0.0
 40
9.024006214950923
100
AcDbArc
 50
122.5344086275
 51
125.1225378095
  0
ARC
  5
A9
330
1F
100
AcDbEntity
  8
SLD-0
  6
Continuous
 62
   179
100
AcDbCircle
 10
56.6693978309
 20
205.6484121971
 30
0.0
 40
9.128481840592675
100
AcDbArc
 50
125.4479874298
 51
128.0361166118
  0
ARC
  5
AA
330
1F
100
AcDbEntity
  8
SLD-0
  6
Continuous
 62
   179
100
AcDbCircle
 10
56.7686348316
 20
205.5887084395
 30
0.0
 40
9.236744208804126
100
AcDbArc
 50
128.2927636645
 51
130.8808928465
  0
ARC
  5
AB
330
1F
100
AcDbEntity
  8
SLD-0
  6
Continuous
 62
   179
100
AcDbCircle
 10
56.8655620749
 20
205.5242205372
 30
0.0
 40
9.348991130956208
100
AcDbArc
 50
131.071352347
 51
133.6594815289
  0
ARC
  5
AC
330
1F
100
AcDbEntity
  8
SLD-0
  6
Continuous
 62
   179
100
AcDbCircle
 10
56.9592651704
 20
205.4552821488
 30
0.0
 40
9.46357643914512
100
AcDbArc
 50
133.7817610448
 51
136.3698902268
  0
ARC
  5
AD
330
1F
100
AcDbEntity
  8
SLD-0
  6
Continuous
 62
   179
100
AcDbCircle
 10
57.049936435
 20
205.3827146156
 30
0.0
 40
9.579282006980012
100
AcDbArc
 50
136.4299303926
 51
139.0180595746
  0
ARC
  5
AE
330
1F
100
AcDbEntity
  8
SLD-0
  6
Continuous
 62
   179
100
AcDbCircle
 10
70.8774185273
 20
210.4266259394
 30
0.0
 40
0.9995282763448203
100
AcDbArc
 50
359.3375662071
 51
4.9625661822
  0
ARC
  5
AF
330
1F
100
AcDbEntity
  8
SLD-0
  6
Continuous
 62
   179
100
AcDbCircle
 10
70.8797273744
 20
210.4492628182
 30
0.0
 40
0.9955208520606816
100
AcDbArc
 50
3.6760036058
 51
9.3010035808
  0
ARC
  5
B0
330
1F
100
AcDbEntity
  8
SLD-0
  6
Continuous
 62
   179
100
AcDbCircle
 10
70.8842115141
 20
210.4719095798
 30
0.0
 40
0.9876722228557479
100
AcDbArc
 50
8.0464582455
 51
13.6714582206
  0
ARC
  5
B1
330
1F
100
AcDbEntity
  8
SLD-0
  6
Continuous
 62
   179
100
AcDbCircle
 10
70.8908123915
 20
210.4937480014
 30
0.0
 40
0.9762947276326097
100
AcDbArc
 50
12.5176220732
 51
18.1426220483
  0
ARC
  5
B2
330
1F
100
AcDbEntity
  8
SLD-0
  6
Continuous
 62
   179
100
AcDbCircle
 10
70.8995314521
 20
210.5149976338
 30
0.0
 40
0.9615512222598782
100
AcDbArc
 50
17.1010930014
 51
22.7260929765
  0
ARC
  5
B3
330
1F
100
AcDbEntity
  8
SLD-0
  6
Continuous
 62
   179
100
AcDbCircle
 10
70.9104451412
 20
210.5351855864
 30
0.0
 40
0.9437956410637999
100
AcDbArc
 50
21.8516015506
 51
27.4766015257
  0
ARC
  5
B4
330
1F
100
AcDbEntity
  8
SLD-0
  6
Continuous
 62
   179
100
AcDbCircle
 10
70.9231810173
 20
210.5542910779
 30
0.0
 40
0.9237477508419431
100
AcDbArc
 50
26.7897026799
 51
32.414702655
  0
ARC
  5
B5
330
1F
100
AcDbEntity
  8
SLD-0
  6
Continuous
 62
   179
100
AcDbCircle
 10
70.9376351939
 20
210.5720479949
 30
0.0
 40
0.9020562671557124
100
AcDbArc
 50
31.9546989532
 51
37.5796989283
  0
ARC
  5
B6
330
1F
100
AcDbEntity
  8
SLD-0
  6
Continuous
 62
   179
100
AcDbCircle
 10
70.9539523388
 20
210.5881284468
 30
0.0
 40
0.8793223747840923
100
AcDbArc
 50
37.3977352129
 51
43.022735188
  0
ARC
  5
B7
330
1F
100
AcDbEntity
  8
SLD-0
  6
Continuous
 62
   179
100
AcDbCircle
 10
70.9716296787
 20
210.6027784297
 30
0.0
 40
0.8564043217993841
100
AcDbArc
 50
43.1131002032
 51
48.7381001783
  0
ARC
  5
B8
330
1F
100
AcDbEntity
  8
SLD-0
  6
Continuous
 62
   179
100
AcDbCircle
 10
70.9907233269
 20
210.6155047209
 30
0.0
 40
0.834266921683033
100
AcDbArc
 50
49.1474063736
 51
54.7724063487
  0
ARC
  5
B9
330
1F
100
AcDbEntity
  8
SLD-0
  6
Continuous
 62
   179
100
AcDbCircle
 10
71.0109122873
 20
210.626291207
 30
0.0
 40
0.813875078494863
100
AcDbArc
 50
55.4954048267
 51
61.1204048017
  0
ARC
  5
BA
330
1F
100
AcDbEntity
  8
SLD-0
  6
Continuous
 62
   179
100
AcDbCircle
 10
71.0321241187
 20
210.6350999976
 30
0.0
 40
0.7960458904161349
100
AcDbArc
 50
62.1511109408
 51
67.7761109158
  0
ARC
  5
BB
330
1F
100
AcDbEntity
  8
SLD-0
  6
Continuous
 62
   179
100
AcDbCircle
 10
71.0541128248
 20
210.6417696471
 30
0.0
 40
0.7817584065399764
100
AcDbArc
 50
69.0831909294
 51
74.7081909045
  0
ARC
  5
BC
330
1F
100
AcDbEntity
  8
SLD-0
  6
Continuous
 62
   179
100
AcDbCircle
 10
71.0765506324
 20
210.6462337103
 30
0.0
 40
0.7718061524181977
100
AcDbArc
 50
76.227687571
 51
81.8526875461
  0
ARC
  5
BD
330
1F
100
AcDbEntity
  8
SLD-0
  6
Continuous
 62
   179
100
AcDbCircle
 10
71.0993283228
 20
210.6484139646
 30
0.0
 40
0.7667424569496462
100
AcDbArc
 50
83.5147433715
 51
89.1397433465
  0
ARC
  5
BE
330
1F
100
AcDbEntity
  8
SLD-0
  6
Continuous
 62
   179
100
AcDbCircle
 10
71.0994350457
 20
190.1817269666
 30
0.0
 40
0.7667359050018342
100
AcDbArc
 50
270.8526575035
 51
276.4776577076
  0
ARC
  5
BF
330
1F
100
AcDbEntity
  8
SLD-0
  6
Continuous
 62
   179
100
AcDbCircle
 10
71.076555582
 20
190.1839022212
 30
0.0
 40
0.7718061210161711
100
AcDbArc
 50
278.1473123394
 51
283.7723125435
  0
ARC
  5
C0
330
1F
100
AcDbEntity
  8
SLD-0
  6
Continuous
 62
   179
100
AcDbCircle
 10
71.054016001
 20
190.188371285
 30
0.0
 40
0.7817900459692718
100
AcDbArc
 50
285.2989073021
 51
290.9239075062
  0
ARC
  5
C1
330
1F
100
AcDbEntity
  8
SLD-0
  6
Continuous
 62
   179
100
AcDbCircle
 10
71.032129076
 20
190.1950459355
 30
0.0
 40
0.7960458580280455
100
AcDbArc
 50
292.2238889697
 51
297.8488891738
  0
ARC
  5
C2
330
1F
100
AcDbEntity
  8
SLD-0
  6
Continuous
 62
   179
100
AcDbCircle
 10
71.0109172483
 20
190.2038547272
 30
0.0
 40
0.8138750453810757
100
AcDbArc
 50
298.8795950838
 51
304.5045952879
  0
ARC
  5
C3
330
1F
100
AcDbEntity
  8
SLD-0
  6
Continuous
 62
   179
100
AcDbCircle
 10
70.9907282914
 20
190.2146412148
 30
0.0
 40
0.8342668877397075
100
AcDbArc
 50
305.2275935368
 51
310.8525937409
  0
ARC
  5
C4
330
1F
100
AcDbEntity
  8
SLD-0
  6
Continuous
 62
   179
100
AcDbCircle
 10
70.9716346465
 20
190.2273675077
 30
0.0
 40
0.8564042869555654
100
AcDbArc
 50
311.2618997072
 51
316.8868999113
  0
ARC
  5
C5
330
1F
100
AcDbEntity
  8
SLD-0
  6
Continuous
 62
   179
100
AcDbCircle
 10
70.9539573097
 20
190.2420174925
 30
0.0
 40
0.8793223390074241
100
AcDbArc
 50
316.9772646975
 51
322.6022649016
  0
ARC
  5
C6
330
1F
100
AcDbEntity
  8
SLD-0
  6
Continuous
 62
   179
100
AcDbCircle
 10
70.9376401676
 20
190.2580979466
 30
0.0
 40
0.9020562304545313
100
AcDbArc
 50
322.4203009572
 51
328.0453011613
  0
ARC
  5
C7
330
1F
100
AcDbEntity
  8
SLD-0
  6
Continuous
 62
   179
100
AcDbCircle
 10
70.9231859936
 20
190.275854866
 30
0.0
 40
0.923747713257977
100
AcDbArc
 50
327.5852972305
 51
333.2102974346
  0
ARC
  5
C8
330
1F
100
AcDbEntity
  8
SLD-0
  6
Continuous
 62
   179
100
AcDbCircle
 10
70.9104501197
 20
190.29496036
 30
0.0
 40
0.9437956026641342
100
AcDbArc
 50
332.5233983598
 51
338.1483985639
  0
ARC
  5
C9
330
1F
100
AcDbEntity
  8
SLD-0
  6
Continuous
 62
   179
100
AcDbCircle
 10
70.8995364326
 20
190.3151483153
 30
0.0
 40
0.9615511831375465
100
AcDbArc
 50
337.273906909
 51
342.8989071131
  0
ARC
  5
CA
330
1F
100
AcDbEntity
  8
SLD-0
  6
Continuous
 62
   179
100
AcDbCircle
 10
70.8909191508
 20
190.3363929505
 30
0.0
 40
0.9761964139564852
100
AcDbArc
 50
341.8557966302
 51
347.4807968343
  0
ARC
  5
CB
330
1F
100
AcDbEntity
  8
SLD-0
  6
Continuous
 62
   179
100
AcDbCircle
 10
70.8841147199
 20
190.3582313751
 30
0.0
 40
0.9877722583032205
100
AcDbArc
 50
346.3296551971
 51
351.9546554012
  0
ARC
  5
CC
330
1F
100
AcDbEntity
  8
SLD-0
  6
Continuous
 62
   179
100
AcDbCircle
 10
70.8797323583
 20
190.3808831396
 30
0.0
 40
0.9955208115564957
100
AcDbArc
 50
350.6989963047
 51
356.3239965088
  0
ARC
  5
CD
330
1F
100
AcDbEntity
  8
SLD-0
  6
Continuous
 62
   179
100
AcDbCircle
 10
70.8774235115
 20
190.4035200215
 30
0.0
 40
0.9995282356773189
100
AcDbArc
 50
355.0374337033
 51
0.6624339074
  0
ARC
  5
CE
330
1F
100
AcDbEntity
  8
SLD-0
  6
Continuous
 62
   179
100
AcDbCircle
 10
78.1103819625
 20
204.6474480556
 30
0.0
 40
9.736226105349545
100
AcDbArc
 50
135.9566176373
 51
139.0384855172
  0
ARC
  5
CF
330
1F
100
AcDbEntity
  8
SLD-0
  6
Continuous
 62
   179
100
AcDbCircle
 10
78.3031008508
 20
204.5043097987
 30
0.0
 40
9.975609039742178
100
AcDbArc
 50
139.14328522
 51
142.2251531
  0
ARC
  5
D0
330
1F
100
AcDbEntity
  8
SLD-0
  6
Continuous
 62
   179
100
AcDbCircle
 10
78.4878606169
 20
204.3511424426
 30
0.0
 40
10.21547485453939
100
AcDbArc
 50
142.1808963825
 51
145.2627642625
  0
ARC
  5
D1
330
1F
100
AcDbEntity
  8
SLD-0
  6
Continuous
 62
   179
100
AcDbCircle
 10
78.6641343194
 20
204.1880707812
 30
0.0
 40
10.45330633731629
100
AcDbArc
 50
145.0787910492
 51
148.1606589292
  0
ARC
  5
D2
330
1F
100
AcDbEntity
  8
SLD-0
  6
Continuous
 62
   179
100
AcDbCircle
 10
78.8315358845
 20
204.0158522113
 30
0.0
 40
10.68652851658687
100
AcDbArc
 50
147.8497224666
 51
150.9315903465
  0
ARC
  5
D3
330
1F
100
AcDbEntity
  8
SLD-0
  6
Continuous
 62
   179
100
AcDbCircle
 10
78.9890866353
 20
203.8351432624
 30
0.0
 40
10.91233590158686
100
AcDbArc
 50
150.5041899269
 51
153.5860578069
  0
ARC
  5
D4
330
1F
100
AcDbEntity
  8
SLD-0
  6
Continuous
 62
   179
100
AcDbCircle
 10
79.1370439689
 20
203.6457361251
 30
0.0
 40
11.12958955979996
100
AcDbArc
 50
153.0516073373
 51
156.1334752173
  0
ARC
  5
D5
330
1F
100
AcDbEntity
  8
SLD-0
  6
Continuous
 62
   179
100
AcDbCircle
 10
79.2745050759
 20
203.4491557996
 30
0.0
 40
11.33551420213398
100
AcDbArc
 50
155.5059263699
 51
158.5877942499
  0
ARC
  5
D6
330
1F
100
AcDbEntity
  8
SLD-0
  6
Continuous
 62
   179
100
AcDbCircle
 10
79.4010697504
 20
203.2449577412
 30
0.0
 40
11.5287888474055
100
AcDbArc
 50
157.8726298517
 51
160.9544977317
  0
ARC
  5
D7
330
1F
100
AcDbEntity
  8
SLD-0
  6
Continuous
 62
   179
100
AcDbCircle
 10
79.5164636538
 20
203.0346110823
 30
0.0
 40
11.70761565976468
100
AcDbArc
 50
160.1656903209
 51
163.2475582008
  0
ARC
  5
D8
330
1F
100
AcDbEntity
  8
SLD-0
  6
Continuous
 62
   179
100
AcDbCircle
 10
79.6205533155
 20
202.8183288815
 30
0.0
 40
11.87094934774341
100
AcDbArc
 50
162.3927414136
 51
165.4746092936
  0
ARC
  5
D9
330
1F
100
AcDbEntity
  8
SLD-0
  6
Continuous
 62
   179
100
AcDbCircle
 10
79.7127585294
 20
202.5965600649
 30
0.0
 40
12.0173557551059
100
AcDbArc
 50
164.561286478
 51
167.643154358
  0
ARC
  5
DA
330
1F
100
AcDbEntity
  8
SLD-0
  6
Continuous
 62
   179
100
AcDbCircle
 10
79.7930016923
 20
202.3703561617
 30
0.0
 40
12.14585733862039
100
AcDbArc
 50
166.6817610277
 51
169.7636289076
  0
ARC
  5
DB
330
1F
100
AcDbEntity
  8
SLD-0
  6
Continuous
 62
   179
100
AcDbCircle
 10
79.8609593336
 20
202.1400602306
 30
0.0
 40
12.25553726814757
100
AcDbArc
 50
168.7605196061
 51
171.8423874861
  0
ARC
  5
DC
330
1F
100
AcDbEntity
  8
SLD-0
  6
Continuous
 62
   179
100
AcDbCircle
 10
79.9162429826
 20
201.9066129331
 30
0.0
 40
12.34540550171101
100
AcDbArc
 50
170.806257823
 51
173.888125703
  0
ARC
  5
DD
330
1F
100
AcDbEntity
  8
SLD-0
  6
Continuous
 62
   179
100
AcDbCircle
 10
79.9591376391
 20
201.67023146
 30
0.0
 40
12.41536325061249
100
AcDbArc
 50
172.8244624284
 51
175.9063303084
  0
ARC
  5
DE
330
1F
100
AcDbEntity
  8
SLD-0
  6
Continuous
 62
   179
100
AcDbCircle
 10
79.9590185594
 20
199.1595943435
 30
0.0
 40
12.41521003311197
100
AcDbArc
 50
184.0953665214
 51
187.1765373523
  0
ARC
  5
DF
330
1F
100
AcDbEntity
  8
SLD-0
  6
Continuous
 62
   179
100
AcDbCircle
 10
79.9162826782
 20
198.9234640398
 30
0.0
 40
12.34543291013976
100
AcDbArc
 50
186.1139469629
 51
189.1951177939
  0
ARC
  5
E0
330
1F
100
AcDbEntity
  8
SLD-0
  6
Continuous
 62
   179
100
AcDbCircle
 10
79.8609539439
 20
198.6898900826
 30
0.0
 40
12.25549670819168
100
AcDbArc
 50
188.1584440685
 51
191.2396148994
  0
ARC
  5
E1
330
1F
100
AcDbEntity
  8
SLD-0
  6
Continuous
 62
   179
100
AcDbCircle
 10
79.7929332661
 20
198.459837923
 30
0.0
 40
12.14579757178047
100
AcDbArc
 50
190.2376879344
 51
193.3188587654
  0
ARC
  5
E2
330
1F
100
AcDbEntity
  8
SLD-0
  6
Continuous
 62
   179
100
AcDbCircle
 10
79.7127951937
 20
198.2334993732
 30
0.0
 40
12.01736763317773
100
AcDbArc
 50
192.3567328767
 51
195.4379037076
  0
ARC
  5
E3
330
1F
100
AcDbEntity
  8
SLD-0
  6
Continuous
 62
   179
100
AcDbCircle
 10
79.6204865462
 20
198.0117748846
 30
0.0
 40
11.87087492124059
100
AcDbArc
 50
194.5249042421
 51
197.6060750731
  0
ARC
  5
E4
330
1F
100
AcDbEntity
  8
SLD-0
  6
Continuous
 62
   179
100
AcDbCircle
 10
79.5166527821
 20
197.795710818
 30
0.0
 40
11.7078528091866
100
AcDbArc
 50
196.7518977417
 51
199.8330685726
  0
ARC
  5
E5
330
1F
100
AcDbEntity
  8
SLD-0
  6
Continuous
 62
   179
100
AcDbCircle
 10
79.4011257209
 20
197.585198076
 30
0.0
 40
11.52884940398816
100
AcDbArc
 50
199.0436939691
 51
202.1248648
  0
ARC
  5
E6
330
1F
100
AcDbEntity
  8
SLD-0
  6
Continuous
 62
   179
100
AcDbCircle
 10
79.2746017308
 20
197.3813839293
 30
0.0
 40
11.33575906921799
100
AcDbArc
 50
201.4113931917
 51
204.4925640227
  0
ARC
  5
E7
330
1F
100
AcDbEntity
  8
SLD-0
  6
Continuous
 62
   179
100
AcDbCircle
 10
79.137164451
 20
197.1844310998
 30
0.0
 40
11.12970877014622
100
AcDbArc
 50
203.8631978215
 51
206.9443686524
  0
ARC
  5
E8
330
1F
100
AcDbEntity
  8
SLD-0
  6
Continuous
 62
   179
100
AcDbCircle
 10
78.9894002496
 20
196.9953768584
 30
0.0
 40
10.91279234098815
100
AcDbArc
 50
206.4110525195
 51
209.4922233504
  0
ARC
  5
E9
330
1F
100
AcDbEntity
  8
SLD-0
  6
Continuous
 62
   179
100
AcDbCircle
 10
78.8316595852
 20
196.8144498366
 30
0.0
 40
10.68671810258326
100
AcDbArc
 50
209.0642382012
 51
212.1454090322
  0
ARC
  5
EA
330
1F
100
AcDbEntity
  8
SLD-0
  6
Continuous
 62
   179
100
AcDbCircle
 10
78.664423826
 20
196.6423713956
 30
0.0
 40
10.4537156272078
100
AcDbArc
 50
211.8345428241
 51
214.915713655
  0
ARC
  5
EB
330
1F
100
AcDbEntity
  8
SLD-0
  6
Continuous
 62
   179
100
AcDbCircle
 10
78.4883102502
 20
196.4794160768
 30
0.0
 40
10.21608524376966
100
AcDbArc
 50
214.7316444979
 51
217.8128153289
  0
ARC
  5
EC
330
1F
100
AcDbEntity
  8
SLD-0
  6
Continuous
 62
   179
100
AcDbCircle
 10
78.3035143162
 20
196.3261602411
 30
0.0
 40
9.976137514737369
100
AcDbArc
 50
217.7681356521
 51
220.8493064831
  0
ARC
  5
ED
330
1F
100
AcDbEntity
  8
SLD-0
  6
Continuous
 62
   179
100
AcDbCircle
 10
78.1109301214
 20
196.1829143398
 30
0.0
 40
9.736783393623963
100
AcDbArc
 50
220.9529204722
 51
224.0340913032
  0
ARC
  5
EE
330
1F
100
AcDbEntity
  8
SLD-0
  6
Continuous
 62
   179
100
AcDbCircle
 10
78.9942875973
 20
203.3973599351
 30
0.0
 40
9.88622458913116
100
AcDbArc
 50
136.0516903148
 51
142.978795764
  0
ARC
  5
EF
330
1F
100
AcDbEntity
  8
SLD-0
  6
Continuous
 62
   179
100
AcDbCircle
 10
79.4041910121
 20
203.0480597055
 30
0.0
 40
10.42386340588574
100
AcDbArc
 50
142.8024724324
 51
149.7295778816
  0
ARC
  5
F0
330
1F
100
AcDbEntity
  8
SLD-0
  6
Continuous
 62
   179
100
AcDbCircle
 10
79.7688209677
 20
202.6518709858
 30
0.0
 40
10.93963611575759
100
AcDbArc
 50
148.9001079292
 51
155.8272133785
  0
ARC
  5
F1
330
1F
100
AcDbEntity
  8
SLD-0
  6
Continuous
 62
   179
100
AcDbCircle
 10
80.0832128113
 20
202.2144920946
 30
0.0
 40
11.40876475501736
100
AcDbArc
 50
154.4696824669
 51
161.3967879162
  0
ARC
  5
F2
330
1F
100
AcDbEntity
  8
SLD-0
  6
Continuous
 62
   179
100
AcDbCircle
 10
80.3423210647
 20
201.7424802338
 30
0.0
 40
11.81054427149342
100
AcDbArc
 50
159.6273045372
 51
166.5544099865
  0
ARC
  5
F3
330
1F
100
AcDbEntity
  8
SLD-0
  6
Continuous
 62
   179
100
AcDbCircle
 10
80.5427944932
 20
201.2425734304
 30
0.0
 40
12.12973038034445
100
AcDbArc
 50
164.4775133496
 51
171.4046187989
  0
ARC
  5
F4
330
1F
100
AcDbEntity
  8
SLD-0
  6
Continuous
 62
   179
100
AcDbCircle
 10
80.6814767069
 20
200.7223042644
 30
0.0
 40
12.35448045626999
100
AcDbArc
 50
169.1144054046
 51
176.0415108539
  0
ARC
  5
F5
330
1F
100
AcDbEntity
  8
SLD-0
  6
Continuous
 62
   179
100
AcDbCircle
 10
80.7563075009
 20
200.188903753
 30
0.0
 40
12.47708827736293
100
AcDbArc
 50
173.6209388924
 51
180.5480443416
  0
ARC
  5
F6
330
1F
100
AcDbEntity
  8
SLD-0
  6
Continuous
 62
   179
100
AcDbCircle
 10
80.766360467
 20
199.6505359714
 30
0.0
 40
12.49359928775763
100
AcDbArc
 50
178.077990888
 51
185.0050963372
  0
ARC
  5
F7
330
1F
100
AcDbEntity
  8
SLD-0
  6
Continuous
 62
   179
100
AcDbCircle
 10
80.7113273235
 20
199.1148314899
 30
0.0
 40
12.40331887001535
100
AcDbArc
 50
182.5613421452
 51
189.4884475944
  0
ARC
  5
F8
330
1F
100
AcDbEntity
  8
SLD-0
  6
Continuous
 62
   179
100
AcDbCircle
 10
80.5921538087
 20
198.5896413255
 30
0.0
 40
12.20937404541238
100
AcDbArc
 50
187.1491120347
 51
194.0762174839
  0
ARC
  5
F9
330
1F
100
AcDbEntity
  8
SLD-0
  6
Continuous
 62
   179
100
AcDbCircle
 10
80.4105013991
 20
198.0827119417
 30
0.0
 40
11.91828980506769
100
AcDbArc
 50
191.9242745876
 51
198.8513800369
  0
ARC
  5
FA
330
1F
100
AcDbEntity
  8
SLD-0
  6
Continuous
 62
   179
100
AcDbCircle
 10
80.1690301447
 20
197.6012976373
 30
0.0
 40
11.54039729018563
100
AcDbArc
 50
196.9764937176
 51
203.9035991669
  0
ARC
  5
FB
330
1F
100
AcDbEntity
  8
SLD-0
  6
Continuous
 62
   179
100
AcDbCircle
 10
79.8711482218
 20
197.1526866623
 30
0.0
 40
11.09006589262074
100
AcDbArc
 50
202.408108932
 51
209.3352143812
  0
ARC
  5
FC
330
1F
100
AcDbEntity
  8
SLD-0
  6
Continuous
 62
   179
100
AcDbCircle
 10
79.5215876036
 20
196.7430651022
 30
0.0
 40
10.58628020080958
100
AcDbArc
 50
208.3293526406
 51
215.2564580898
  0
ARC
  5
FD
330
1F
100
AcDbEntity
  8
SLD-0
  6
Continuous
 62
   179
100
AcDbCircle
 10
79.1248718265
 20
196.378763887
 30
0.0
 40
10.05227645890956
100
AcDbArc
 50
214.8661300871
 51
221.7932355364
  0
POINT
  5
FE
330
1F
100
AcDbEntity
  8
SLD-0
100
AcDbPoint
 10
16.575
 20
11.25
 30
0.0
  0
POINT
  5
FF
330
1F
100
AcDbEntity
  8
SLD-0
100
AcDbPoint
 10
16.575
 20
285.75
 30
0.0
  0
POINT
  5
100
330
1F
100
AcDbEntity
  8
SLD-0
100
AcDbPoint
 10
193.375
 20
285.75
 30
0.0
  0
POINT
  5
101
330
1F
100
AcDbEntity
  8
SLD-0
100
AcDbPoint
 10
193.375
 20
11.25
 30
0.0
  0
MTEXT
  5
103
330
1F
100
AcDbEntity
  8
SLD-0
 62
     7
100
AcDbMText
 10
152.481155
 20
44.7184452496
 30
0.0
 40
4.8000002
 41
0.0
 71
     1
 72
     1
  1
替　刃
  7
SLDTEXTSTYLE1
 73
     1
 44
1.0
  0
MTEXT
  5
105
330
1F
100
AcDbEntity
  8
SLD-0
 62
     7
100
AcDbMText
 10
151.710096
 20
31.2511962496
 30
0.0
 40
4.8000002
 41
0.0
 71
     1
 72
     1
  1
Ｎ２０３Ｓ
  7
SLDTEXTSTYLE2
 73
     1
 44
1.0
  0
MTEXT
  5
107
330
1F
100
AcDbEntity
  8
SLD-0
 62
     7
100
AcDbMText
 10
148.778495
 20
18.8471495496
 30
0.0
 40
4.8000002
 41
0.0
 71
     1
 72
     1
  1
１３０２２２
  7
SLDTEXTSTYLE3
 73
     1
 44
1.0
  0
ENDSEC
  0
SECTION
  2
OBJECTS
  0
DICTIONARY
  5
C
330
0
100
AcDbDictionary
281
     1
  3
ACAD_GROUP
350
D
  3
ACAD_LAYOUT
350
1A
  3
ACAD_MLINESTYLE
350
17
  3
ACAD_PLOTSETTINGS
350
19
  3
ACAD_PLOTSTYLENAME
350
E
  0
DICTIONARY
  5
D
102
{ACAD_REACTORS
330
C
102
}
330
C
100
AcDbDictionary
281
     1
  0
DICTIONARY
  5
1A
102
{ACAD_REACTORS
330
C
102
}
330
C
100
AcDbDictionary
281
     1
  3
Layout1
350
1E
  3
Layout2
350
26
  3
Model
350
22
  0
DICTIONARY
  5
17
102
{ACAD_REACTORS
330
C
102
}
330
C
100
AcDbDictionary
281
     1
  3
Standard
350
18
  0
DICTIONARY
  5
19
102
{ACAD_REACTORS
330
C
102
}
330
C
100
AcDbDictionary
281
     1
  0
ACDBDICTIONARYWDFLT
  5
E
102
{ACAD_REACTORS
330
C
102
}
330
C
100
AcDbDictionary
281
     1
  3
Normal
350
F
100
AcDbDictionaryWithDefault
340
F
  0
LAYOUT
  5
1E
102
{ACAD_REACTORS
330
1A
102
}
330
1A
100
AcDbPlotSettings
  1

  2

  4

  6

 40
0.0
 41
0.0
 42
0.0
 43
0.0
 44
0.0
 45
0.0
 46
0.0
 47
0.0
 48
0.0
 49
0.0
140
0.0
141
0.0
142
1.0
143
1.0
 70
   688
 72
     0
 73
     0
 74
     5
  7

 75
    16
147
1.0
148
0.0
149
0.0
100
AcDbLayout
  1
Layout1
 70
     1
 71
     1
 10
0.0
 20
0.0
 11
0.0
 21
0.0
 12
0.0
 22
0.0
 32
0.0
 14
0.0
 24
0.0
 34
0.0
 15
0.0
 25
0.0
 35
0.0
146
0.0
 13
0.0
 23
0.0
 33
0.0
 16
1.0
 26
0.0
 36
0.0
 17
0.0
 27
1.0
 37
0.0
 76
     0
330
1B
  0
LAYOUT
  5
26
102
{ACAD_REACTORS
330
1A
102
}
330
1A
100
AcDbPlotSettings
  1

  2

  4

  6

 40
0.0
 41
0.0
 42
0.0
 43
0.0
 44
0.0
 45
0.0
 46
0.0
 47
0.0
 48
0.0
 49
0.0
140
0.0
141
0.0
142
1.0
143
1.0
 70
   688
 72
     0
 73
     0
 74
     5
  7

 75
    16
147
1.0
148
0.0
149
0.0
100
AcDbLayout
  1
Layout2
 70
     1
 71
     2
 10
0.0
 20
0.0
 11
0.0
 21
0.0
 12
0.0
 22
0.0
 32
0.0
 14
0.0
 24
0.0
 34
0.0
 15
0.0
 25
0.0
 35
0.0
146
0.0
 13
0.0
 23
0.0
 33
0.0
 16
1.0
 26
0.0
 36
0.0
 17
0.0
 27
1.0
 37
0.0
 76
     0
330
23
  0
LAYOUT
  5
22
102
{ACAD_REACTORS
330
1A
102
}
330
1A
100
AcDbPlotSettings
  1

  2

  4

  6

 40
0.0
 41
0.0
 42
0.0
 43
0.0
 44
0.0
 45
0.0
 46
0.0
 47
0.0
 48
0.0
 49
0.0
140
0.0
141
0.0
142
1.0
143
1.0
 70
  1712
 72
     0
 73
     0
 74
     0
  7

 75
     0
147
1.0
148
0.0
149
0.0
100
AcDbLayout
  1
Model
 70
     1
 71
     0
 10
0.0
 20
0.0
 11
0.0
 21
0.0
 12
0.0
 22
0.0
 32
0.0
 14
0.0
 24
0.0
 34
0.0
 15
210.0
 25
297.0
 35
0.0
146
0.0
 13
0.0
 23
0.0
 33
0.0
 16
1.0
 26
0.0
 36
0.0
 17
0.0
 27
1.0
 37
0.0
 76
     0
330
1F
  0
MLINESTYLE
  5
18
102
{ACAD_REACTORS
330
17
102
}
330
17
100
AcDbMlineStyle
  2
Standard
 70
     0
  3

 62
   256
 51
90.0
 52
90.0
 71
     2
 49
0.5
 62
   256
  6
BYLAYER
 49
-0.5
 62
   256
  6
BYLAYER
  0
ACDBPLACEHOLDER
  5
F
102
{ACAD_REACTORS
330
E
102
}
330
E
  0
ENDSEC
  0
EOF
