  0
SECTION
  2
HEADER
  9
$ACADVER
  1
AC1015
  9
$ACADMAINTVER
 70
     6
  9
$DWGCODEPAGE
  3
DOS932
  9
$INSBASE
 10
0.0
 20
0.0
 30
0.0
  9
$EXTMIN
 10
0.0
 20
0.0
 30
0.0
  9
$EXTMAX
 10
420.0
 20
297.0
 30
0.0
  9
$LIMMIN
 10
0.0
 20
0.0
  9
$LIMMAX
 10
0.0
 20
0.0
  9
$ORTHOMODE
 70
     0
  9
$REGENMODE
 70
     1
  9
$FILLMODE
 70
     1
  9
$QTEXTMODE
 70
     0
  9
$MIRRTEXT
 70
     1
  9
$LTSCALE
 40
1.0
  9
$ATTMODE
 70
     1
  9
$TEXTSIZE
 40
3.5
  9
$TRACEWID
 40
1.0
  9
$TEXTSTYLE
  7
Standard
  9
$CLAYER
  8
0
  9
$CELTYPE
  6
ByLayer
  9
$CECOLOR
 62
   256
  9
$CELTSCALE
 40
1.0
  9
$DISPSILH
 70
     0
  9
$DIMSCALE
 40
1.0
  9
$DIMASZ
 40
3.0
  9
$DIMEXO
 40
1.0
  9
$DIMDLI
 40
3.75
  9
$DIMRND
 40
0.0
  9
$DIMDLE
 40
0.0
  9
$DIMEXE
 40
1.0
  9
$DIMTP
 40
0.0
  9
$DIMTM
 40
0.0
  9
$DIMTXT
 40
3.2000000477
  9
$DIMCEN
 40
2.5
  9
$DIMTSZ
 40
0.0
  9
$DIMTOL
 70
     0
  9
$DIMLIM
 70
     0
  9
$DIMTIH
 70
     1
  9
$DIMTOH
 70
     1
  9
$DIMSE1
 70
     0
  9
$DIMSE2
 70
     0
  9
$DIMTAD
 70
     1
  9
$DIMZIN
 70
     1
  9
$DIMBLK
  1

  9
$DIMASO
 70
     1
  9
$DIMSHO
 70
     1
  9
$DIMPOST
  1

  9
$DIMAPOST
  1

  9
$DIMALT
 70
     0
  9
$DIMALTD
 70
     3
  9
$DIMALTF
 40
0.0393700787
  9
$DIMLFAC
 40
1.0
  9
$DIMTOFL
 70
     1
  9
$DIMTVP
 40
0.0
  9
$DIMTIX
 70
     0
  9
$DIMSOXD
 70
     0
  9
$DIMSAH
 70
     0
  9
$DIMBLK1
  1

  9
$DIMBLK2
  1

  9
$DIMSTYLE
  2
ISO-25
  9
$DIMCLRD
 70
     0
  9
$DIMCLRE
 70
     0
  9
$DIMCLRT
 70
     0
  9
$DIMTFAC
 40
1.0
  9
$DIMGAP
 40
1.524
  9
$DIMJUST
 70
     0
  9
$DIMSD1
 70
     0
  9
$DIMSD2
 70
     0
  9
$DIMTOLJ
 70
     0
  9
$DIMTZIN
 70
     1
  9
$DIMALTZ
 70
     0
  9
$DIMALTTZ
 70
     0
  9
$DIMUPT
 70
     0
  9
$DIMDEC
 70
     2
  9
$DIMTDEC
 70
     2
  9
$DIMALTU
 70
     2
  9
$DIMALTTD
 70
     3
  9
$DIMTXSTY
  7
Standard
  9
$DIMAUNIT
 70
     0
  9
$DIMADEC
 70
     0
  9
$DIMALTRND
 40
0.0
  9
$DIMAZIN
 70
     0
  9
$DIMDSEP
 70
    44
  9
$DIMATFIT
 70
     3
  9
$DIMFRAC
 70
     0
  9
$DIMLDRBLK
  1

  9
$DIMLUNIT
 70
     2
  9
$DIMLWD
 70
    -2
  9
$DIMLWE
 70
    -2
  9
$DIMTMOVE
 70
     0
  9
$LUNITS
 70
     2
  9
$LUPREC
 70
     4
  9
$SKETCHINC
 40
1.0
  9
$FILLETRAD
 40
10.0
  9
$AUNITS
 70
     0
  9
$AUPREC
 70
     0
  9
$MENU
  1
.
  9
$ELEVATION
 40
0.0
  9
$PELEVATION
 40
0.0
  9
$THICKNESS
 40
0.0
  9
$LIMCHECK
 70
     0
  9
$CHAMFERA
 40
10.0
  9
$CHAMFERB
 40
10.0
  9
$CHAMFERC
 40
20.0
  9
$CHAMFERD
 40
0.0
  9
$SKPOLY
 70
     0
  9
$TDCREATE
 40
2454307.565339445
  9
$TDUCREATE
 40
2454307.190339445
  9
$TDUPDATE
 40
2454307.565339456
  9
$TDUUPDATE
 40
2454307.190339456
  9
$TDINDWG
 40
0.0000000116
  9
$TDUSRTIMER
 40
0.0000000116
  9
$USRTIMER
 70
     1
  9
$ANGBASE
 50
0.0
  9
$ANGDIR
 70
     0
  9
$PDMODE
 70
     0
  9
$PDSIZE
 40
-1.0
  9
$PLINEWID
 40
0.0
  9
$SPLFRAME
 70
     0
  9
$SPLINETYPE
 70
     6
  9
$SPLINESEGS
 70
     8
  9
$HANDSEED
  5
399
  9
$SURFTAB1
 70
     6
  9
$SURFTAB2
 70
     6
  9
$SURFTYPE
 70
     6
  9
$SURFU
 70
     6
  9
$SURFV
 70
     6
  9
$UCSBASE
  2

  9
$UCSNAME
  2

  9
$UCSORG
 10
0.0
 20
0.0
 30
0.0
  9
$UCSXDIR
 10
1.0
 20
0.0
 30
0.0
  9
$UCSYDIR
 10
0.0
 20
1.0
 30
0.0
  9
$UCSORTHOREF
  2

  9
$UCSORTHOVIEW
 70
     0
  9
$UCSORGTOP
 10
0.0
 20
0.0
 30
0.0
  9
$UCSORGBOTTOM
 10
0.0
 20
0.0
 30
0.0
  9
$UCSORGLEFT
 10
0.0
 20
0.0
 30
0.0
  9
$UCSORGRIGHT
 10
0.0
 20
0.0
 30
0.0
  9
$UCSORGFRONT
 10
0.0
 20
0.0
 30
0.0
  9
$UCSORGBACK
 10
0.0
 20
0.0
 30
0.0
  9
$PUCSBASE
  2

  9
$PUCSNAME
  2

  9
$PUCSORG
 10
0.0
 20
0.0
 30
0.0
  9
$PUCSXDIR
 10
1.0
 20
0.0
 30
0.0
  9
$PUCSYDIR
 10
0.0
 20
1.0
 30
0.0
  9
$PUCSORTHOREF
  2

  9
$PUCSORTHOVIEW
 70
     0
  9
$PUCSORGTOP
 10
0.0
 20
0.0
 30
0.0
  9
$PUCSORGBOTTOM
 10
0.0
 20
0.0
 30
0.0
  9
$PUCSORGLEFT
 10
0.0
 20
0.0
 30
0.0
  9
$PUCSORGRIGHT
 10
0.0
 20
0.0
 30
0.0
  9
$PUCSORGFRONT
 10
0.0
 20
0.0
 30
0.0
  9
$PUCSORGBACK
 10
0.0
 20
0.0
 30
0.0
  9
$USERI1
 70
     0
  9
$USERI2
 70
     0
  9
$USERI3
 70
     0
  9
$USERI4
 70
     0
  9
$USERI5
 70
     0
  9
$USERR1
 40
0.0
  9
$USERR2
 40
0.0
  9
$USERR3
 40
0.0
  9
$USERR4
 40
0.0
  9
$USERR5
 40
0.0
  9
$WORLDVIEW
 70
     1
  9
$SHADEDGE
 70
     3
  9
$SHADEDIF
 70
    70
  9
$TILEMODE
 70
     1
  9
$MAXACTVP
 70
    64
  9
$PINSBASE
 10
0.0
 20
0.0
 30
0.0
  9
$PLIMCHECK
 70
     0
  9
$PEXTMIN
 10
1.0000000000E+20
 20
1.0000000000E+20
 30
1.0000000000E+20
  9
$PEXTMAX
 10
-1.0000000000E+20
 20
-1.0000000000E+20
 30
-1.0000000000E+20
  9
$PLIMMIN
 10
0.0
 20
0.0
  9
$PLIMMAX
 10
420.0
 20
297.0
  9
$UNITMODE
 70
     0
  9
$VISRETAIN
 70
     1
  9
$PLINEGEN
 70
     0
  9
$PSLTSCALE
 70
     1
  9
$TREEDEPTH
 70
  3020
  9
$CMLSTYLE
  2
Standard
  9
$CMLJUST
 70
     0
  9
$CMLSCALE
 40
20.0
  9
$PROXYGRAPHICS
 70
     1
  9
$MEASUREMENT
 70
     1
  9
$CELWEIGHT
370
    -1
  9
$ENDCAPS
280
     0
  9
$JOINSTYLE
280
     0
  9
$LWDISPLAY
290
     1
  9
$INSUNITS
 70
     4
  9
$HYPERLINKBASE
  1

  9
$STYLESHEET
  1

  9
$XEDIT
290
     1
  9
$CEPSNTYPE
380
     0
  9
$PSTYLEMODE
290
     1
  9
$FINGERPRINTGUID
  2
{4C16B34A-3FDF-43AF-9711-900250196B0B}
  9
$VERSIONGUID
  2
{FAEB1C32-E019-11D5-929B-00C0DF256EC4}
  9
$EXTNAMES
290
     1
  9
$PSVPSCALE
 40
0.0
  9
$OLESTARTUP
290
     0
  0
ENDSEC
  0
SECTION
  2
CLASSES
  0
CLASS
  1
ACDBDICTIONARYWDFLT
  2
AcDbDictionaryWithDefault
  3
ObjectDBX Classes
 90
        0
280
     0
281
     0
  0
CLASS
  1
ACDBPLACEHOLDER
  2
AcDbPlaceHolder
  3
ObjectDBX Classes
 90
        0
280
     0
281
     0
  0
CLASS
  1
LAYOUT
  2
AcDbLayout
  3
ObjectDBX Classes
 90
        0
280
     0
281
     0
  0
ENDSEC
  0
SECTION
  2
TABLES
  0
TABLE
  2
VPORT
  5
8
330
0
100
AcDbSymbolTable
 70
     1
  0
VPORT
  5
29
330
8
100
AcDbSymbolTableRecord
100
AcDbViewportTableRecord
  2
*Active
 70
     0
 10
0.0
 20
0.0
 11
1.0
 21
1.0
 12
210.0
 22
148.5
 13
0.0
 23
0.0
 14
10.0
 24
10.0
 15
10.0
 25
10.0
 16
0.0
 26
0.0
 36
1.0
 17
0.0
 27
0.0
 37
0.0
 40
297.0
 41
1.9729729729
 42
50.0
 43
0.0
 44
0.0
 50
0.0
 51
0.0
 71
     0
 72
  2000
 73
     1
 74
     3
 75
     0
 76
     0
 77
     0
 78
     0
281
     0
 65
     1
110
0.0
120
0.0
130
0.0
111
1.0
121
0.0
131
0.0
112
0.0
122
1.0
132
0.0
 79
     0
146
0.0
  0
ENDTAB
  0
TABLE
  2
LTYPE
  5
5
330
0
100
AcDbSymbolTable
 70
     6
  0
LTYPE
  5
14
330
5
100
AcDbSymbolTableRecord
100
AcDbLinetypeTableRecord
  2
ByBlock
 70
     0
  3

 72
    65
 73
     0
 40
0.0
  0
LTYPE
  5
15
330
5
100
AcDbSymbolTableRecord
100
AcDbLinetypeTableRecord
  2
ByLayer
 70
     0
  3

 72
    65
 73
     0
 40
0.0
  0
LTYPE
  5
16
330
5
100
AcDbSymbolTableRecord
100
AcDbLinetypeTableRecord
  2
Continuous
 70
     0
  3
Solid line
 72
    65
 73
     0
 40
0.0
  0
LTYPE
  5
2A
330
5
100
AcDbSymbolTableRecord
100
AcDbLinetypeTableRecord
  2
HIDDEN
 70
     0
  3
Hidden __ __ __ __ __ __ __ __ __ __ __ __ __ __
 72
    65
 73
     2
 40
1.905
 49
1.27
 74
     0
 49
-0.635
 74
     0
  0
LTYPE
  5
2B
330
5
100
AcDbSymbolTableRecord
100
AcDbLinetypeTableRecord
  2
PHANTOM
 70
     0
  3
Phantom ______  __  __  ______  __  __  ______
 72
    65
 73
     6
 40
12.7
 49
6.35
 74
     0
 49
-1.27
 74
     0
 49
1.27
 74
     0
 49
-1.27
 74
     0
 49
1.27
 74
     0
 49
-1.27
 74
     0
  0
LTYPE
  5
2C
330
5
100
AcDbSymbolTableRecord
100
AcDbLinetypeTableRecord
  2
CENTER
 70
     0
  3
Center ____ _ ____ _ ____ _ ____ _ ____ _ ____
 72
    65
 73
     4
 40
10.16
 49
6.35
 74
     0
 49
-1.27
 74
     0
 49
1.27
 74
     0
 49
-1.27
 74
     0
  0
LTYPE
  5
2D
330
5
100
AcDbSymbolTableRecord
100
AcDbLinetypeTableRecord
  2
CENTERX2
 70
     0
  3
Center (2x) ________  __  ________  __  _____
 72
    65
 73
     4
 40
20.32
 49
12.7
 74
     0
 49
-2.54
 74
     0
 49
2.54
 74
     0
 49
-2.54
 74
     0
  0
LTYPE
  5
2E
330
5
100
AcDbSymbolTableRecord
100
AcDbLinetypeTableRecord
  2
DOT2
 70
     0
  3
Dot (.5x) ........................................
 72
    65
 73
     2
 40
0.635
 49
0.0
 74
     0
 49
-0.635
 74
     0
  0
ENDTAB
  0
TABLE
  2
LAYER
  5
2
330
0
100
AcDbSymbolTable
 70
     2
  0
LAYER
  5
10
330
2
100
AcDbSymbolTableRecord
100
AcDbLayerTableRecord
  2
0
 70
     0
 62
     7
  6
Continuous
370
    -3
390
F
  0
LAYER
  5
2F
330
2
100
AcDbSymbolTableRecord
100
AcDbLayerTableRecord
  2
SLD-0
 70
     0
 62
   179
  6
Continuous
370
     0
390
F
  0
ENDTAB
  0
TABLE
  2
STYLE
  5
3
330
0
100
AcDbSymbolTable
 70
     6
  0
STYLE
  5
11
330
3
100
AcDbSymbolTableRecord
100
AcDbTextStyleTableRecord
  2
Standard
 70
     0
 40
0.0
 41
1.0
 50
0.0
 71
     0
 42
2.5
  3
txt
  4
bigfont
  0
STYLE
  5
38
330
3
100
AcDbSymbolTableRecord
100
AcDbTextStyleTableRecord
  2
SLDTEXTSTYLE0
 70
     0
 40
0.0
 41
0.6230481785
 50
0.0
 71
     0
 42
0.2
  3
TXT
  4
bigfont
  0
STYLE
  5
42
330
3
100
AcDbSymbolTableRecord
100
AcDbTextStyleTableRecord
  2
SLDTEXTSTYLE1
 70
     0
 40
0.0
 41
0.62362615
 50
0.0
 71
     0
 42
0.2
  3
TXT
  4
bigfont
  0
STYLE
  5
390
330
3
100
AcDbSymbolTableRecord
100
AcDbTextStyleTableRecord
  2
SLDTEXTSTYLE2
 70
     0
 40
0.0
 41
0.6244080763
 50
0.0
 71
     0
 42
0.2
  3
TXT
  4
bigfont
  0
STYLE
  5
392
330
3
100
AcDbSymbolTableRecord
100
AcDbTextStyleTableRecord
  2
SLDTEXTSTYLE3
 70
     0
 40
0.0
 41
0.6226035039
 50
0.0
 71
     0
 42
0.2
  3
TXT
  4
bigfont
  0
STYLE
  5
394
330
3
100
AcDbSymbolTableRecord
100
AcDbTextStyleTableRecord
  2
SLDTEXTSTYLE4
 70
     0
 40
0.0
 41
0.5097455996
 50
0.0
 71
     0
 42
0.2
  3
TXT
  4
bigfont
  0
ENDTAB
  0
TABLE
  2
VIEW
  5
6
330
0
100
AcDbSymbolTable
 70
     0
  0
ENDTAB
  0
TABLE
  2
UCS
  5
7
330
0
100
AcDbSymbolTable
 70
     0
  0
ENDTAB
  0
TABLE
  2
APPID
  5
9
330
0
100
AcDbSymbolTable
 70
     1
  0
APPID
  5
12
330
9
100
AcDbSymbolTableRecord
100
AcDbRegAppTableRecord
  2
ACAD
 70
     0
  0
ENDTAB
  0
TABLE
  2
DIMSTYLE
  5
A
330
0
100
AcDbSymbolTable
 70
     1
100
AcDbDimStyleTable
  0
DIMSTYLE
105
27
330
A
100
AcDbSymbolTableRecord
100
AcDbDimStyleTableRecord
  2
ISO-25
 70
     0
 41
2.5
 42
0.625
 43
3.75
 44
1.25
 73
     0
 74
     0
 77
     1
 78
     8
140
2.5
141
2.5
143
0.0393700787
147
0.625
171
     3
172
     1
271
     2
272
     2
274
     3
278
    44
283
     0
284
     8
340
11
  0
ENDTAB
  0
TABLE
  2
BLOCK_RECORD
  5
1
330
0
100
AcDbSymbolTable
 70
     3
  0
BLOCK_RECORD
  5
1F
330
1
100
AcDbSymbolTableRecord
100
AcDbBlockTableRecord
  2
*Model_Space
340
22
  0
BLOCK_RECORD
  5
1B
330
1
100
AcDbSymbolTableRecord
100
AcDbBlockTableRecord
  2
*Paper_Space
340
1E
  0
BLOCK_RECORD
  5
23
330
1
100
AcDbSymbolTableRecord
100
AcDbBlockTableRecord
  2
*Paper_Space0
340
26
  0
BLOCK_RECORD
  5
30
330
1
100
AcDbSymbolTableRecord
100
AcDbBlockTableRecord
  2
KOZU0001
340
0
102
{BLKREFS
331
397
102
}
  0
BLOCK_RECORD
  5
3A
330
1
100
AcDbSymbolTableRecord
100
AcDbBlockTableRecord
  2
KOZU0002
340
0
102
{BLKREFS
331
398
102
}
  0
ENDTAB
  0
ENDSEC
  0
SECTION
  2
BLOCKS
  0
BLOCK
  5
20
330
1F
100
AcDbEntity
  8
0
100
AcDbBlockBegin
  2
*Model_Space
 70
     0
 71
     0
 10
0.0
 20
0.0
 30
0.0
  3
*Model_Space
  1

  0
ENDBLK
  5
21
330
1F
100
AcDbEntity
  8
0
100
AcDbBlockEnd
  0
BLOCK
  5
1C
330
1B
100
AcDbEntity
 67
     1
  8
0
100
AcDbBlockBegin
  2
*Paper_Space
 70
     0
 71
     0
 10
0.0
 20
0.0
 30
0.0
  3
*Paper_Space
  1

  0
ENDBLK
  5
1D
330
1B
100
AcDbEntity
 67
     1
  8
0
100
AcDbBlockEnd
  0
BLOCK
  5
24
330
23
100
AcDbEntity
  8
0
100
AcDbBlockBegin
  2
*Paper_Space0
 70
     0
 71
     0
 10
0.0
 20
0.0
 30
0.0
  3
*Paper_Space0
  1

  0
ENDBLK
  5
25
330
23
100
AcDbEntity
  8
0
100
AcDbBlockEnd
  0
BLOCK
  5
31
330
30
100
AcDbEntity
  8
0
100
AcDbBlockBegin
  2
KOZU0001
 70
     0
 71
     0
 10
0.0
 20
0.0
 30
0.0
  3
KOZU0001
  1

  0
LINE
  5
33
330
30
100
AcDbEntity
  8
SLD-0
  6
Continuous
 62
   179
100
AcDbLine
 10
0.0
 20
0.0
 30
0.0
 11
9.8777246887
 21
15.6869285866
 31
0.0
  0
LINE
  5
34
330
30
100
AcDbEntity
  8
SLD-0
  6
Continuous
 62
   179
100
AcDbLine
 10
0.0
 20
0.0
 30
0.0
 11
1.1911605535
 21
2.9464154888
 31
0.0
  0
LINE
  5
35
330
30
100
AcDbEntity
  8
SLD-0
  6
Continuous
 62
   179
100
AcDbLine
 10
0.0
 20
0.0
 30
0.0
 11
2.1423052098
 21
2.3474999648
 31
0.0
  0
LINE
  5
36
330
30
100
AcDbEntity
  8
SLD-0
  6
Continuous
 62
   179
100
AcDbLine
 10
0.0
 20
0.0
 30
0.0
 11
9.8777246887
 21
15.6869285866
 31
0.0
  0
LINE
  5
37
330
30
100
AcDbEntity
  8
SLD-0
  6
Continuous
 62
   179
100
AcDbLine
 10
9.8777246887
 20
15.6869285866
 30
0.0
 11
37.3068245428
 21
15.6869285866
 31
0.0
  0
MTEXT
  5
39
330
30
100
AcDbEntity
  8
SLD-0
100
AcDbMText
 10
11.4653870166
 20
19.1416480142
 30
0.0
 40
3.2000000477
 41
0.0
 71
     1
 72
     1
  1
２－Ｍ４Ｘ０．４
  7
SLDTEXTSTYLE0
 73
     1
 44
1.0
  0
ENDBLK
  5
32
330
30
100
AcDbEntity
  8
0
100
AcDbBlockEnd
  0
BLOCK
  5
3B
330
3A
100
AcDbEntity
  8
0
100
AcDbBlockBegin
  2
KOZU0002
 70
     0
 71
     0
 10
0.0
 20
0.0
 30
0.0
  3
KOZU0002
  1

  0
LINE
  5
3D
330
3A
100
AcDbEntity
  8
SLD-0
  6
Continuous
 62
   179
100
AcDbLine
 10
0.0
 20
0.0
 30
0.0
 11
10.1049352979
 21
-22.7361044203
 31
0.0
  0
LINE
  5
3E
330
3A
100
AcDbEntity
  8
SLD-0
  6
Continuous
 62
   179
100
AcDbLine
 10
0.0
 20
0.0
 30
0.0
 11
1.7839631853
 21
-2.6301526667
 31
0.0
  0
LINE
  5
3F
330
3A
100
AcDbEntity
  8
SLD-0
  6
Continuous
 62
   179
100
AcDbLine
 10
0.0
 20
0.0
 30
0.0
 11
0.7568390201
 21
-3.0866522956
 31
0.0
  0
LINE
  5
40
330
3A
100
AcDbEntity
  8
SLD-0
  6
Continuous
 62
   179
100
AcDbLine
 10
0.0
 20
0.0
 30
0.0
 11
10.1049352979
 21
-22.7361044203
 31
0.0
  0
LINE
  5
41
330
3A
100
AcDbEntity
  8
SLD-0
  6
Continuous
 62
   179
100
AcDbLine
 10
10.1049352979
 20
-22.7361044203
 30
0.0
 11
37.3644157533
 21
-22.7361044203
 31
0.0
  0
MTEXT
  5
43
330
3A
100
AcDbEntity
  8
SLD-0
100
AcDbMText
 10
14.050415862
 20
-19.2813849927
 30
0.0
 40
3.2000000477
 41
0.0
 71
     1
 72
     1
  1
Ｒｃ１／８ネジ
  7
SLDTEXTSTYLE1
 73
     1
 44
1.0
  0
ENDBLK
  5
3C
330
3A
100
AcDbEntity
  8
0
100
AcDbBlockEnd
  0
ENDSEC
  0
SECTION
  2
ENTITIES
  0
LINE
  5
44
330
1F
100
AcDbEntity
  8
SLD-0
  6
Continuous
 62
   179
100
AcDbLine
 10
90.1766176516
 20
42.246339451
 30
0.0
 11
90.1766176516
 21
87.246339451
 31
0.0
  0
LINE
  5
45
330
1F
100
AcDbEntity
  8
SLD-0
  6
Continuous
 62
   179
100
AcDbLine
 10
90.1766176516
 20
87.246339451
 30
0.0
 11
94.6766176516
 21
87.246339451
 31
0.0
  0
LINE
  5
46
330
1F
100
AcDbEntity
  8
SLD-0
  6
Continuous
 62
   179
100
AcDbLine
 10
90.6766176516
 20
83.246339451
 30
0.0
 11
90.6766176516
 21
46.246339451
 31
0.0
  0
LINE
  5
47
330
1F
100
AcDbEntity
  8
SLD-0
  6
Continuous
 62
   179
100
AcDbLine
 10
94.6766176516
 20
42.246339451
 30
0.0
 11
90.1766176516
 21
42.246339451
 31
0.0
  0
LINE
  5
48
330
1F
100
AcDbEntity
  8
SLD-0
  6
Continuous
 62
   179
100
AcDbLine
 10
98.6766176516
 20
38.246339451
 30
0.0
 11
98.6766176516
 21
36.246339451
 31
0.0
  0
LINE
  5
49
330
1F
100
AcDbEntity
  8
SLD-0
  6
Continuous
 62
   179
100
AcDbLine
 10
106.6766176516
 20
28.246339451
 30
0.0
 11
111.6766176516
 21
28.246339451
 31
0.0
  0
LINE
  5
4A
330
1F
100
AcDbEntity
  8
SLD-0
  6
Continuous
 62
   179
100
AcDbLine
 10
119.6766176516
 20
36.246339451
 30
0.0
 11
119.6766176516
 21
38.246339451
 31
0.0
  0
LINE
  5
4B
330
1F
100
AcDbEntity
  8
SLD-0
  6
Continuous
 62
   179
100
AcDbLine
 10
123.6766176516
 20
42.246339451
 30
0.0
 11
145.9766176516
 21
42.246339451
 31
0.0
  0
LINE
  5
4C
330
1F
100
AcDbEntity
  8
SLD-0
  6
Continuous
 62
   179
100
AcDbLine
 10
145.9766176516
 20
42.246339451
 30
0.0
 11
145.9766176516
 21
28.246339451
 31
0.0
  0
LINE
  5
4D
330
1F
100
AcDbEntity
  8
SLD-0
  6
Continuous
 62
   179
100
AcDbLine
 10
145.9766176516
 20
28.246339451
 30
0.0
 11
149.1766176516
 21
28.246339451
 31
0.0
  0
LINE
  5
4E
330
1F
100
AcDbEntity
  8
SLD-0
  6
Continuous
 62
   179
100
AcDbLine
 10
149.1766176516
 20
28.246339451
 30
0.0
 11
149.1766176516
 21
101.246339451
 31
0.0
  0
LINE
  5
4F
330
1F
100
AcDbEntity
  8
SLD-0
  6
Continuous
 62
   179
100
AcDbLine
 10
149.1766176516
 20
101.246339451
 30
0.0
 11
145.9766176516
 21
101.246339451
 31
0.0
  0
LINE
  5
50
330
1F
100
AcDbEntity
  8
SLD-0
  6
Continuous
 62
   179
100
AcDbLine
 10
145.9766176516
 20
101.246339451
 30
0.0
 11
145.9766176516
 21
87.246339451
 31
0.0
  0
LINE
  5
51
330
1F
100
AcDbEntity
  8
SLD-0
  6
Continuous
 62
   179
100
AcDbLine
 10
145.9766176516
 20
87.246339451
 30
0.0
 11
123.6766176516
 21
87.246339451
 31
0.0
  0
LINE
  5
52
330
1F
100
AcDbEntity
  8
SLD-0
  6
Continuous
 62
   179
100
AcDbLine
 10
119.6766176516
 20
91.246339451
 30
0.0
 11
119.6766176516
 21
93.246339451
 31
0.0
  0
LINE
  5
53
330
1F
100
AcDbEntity
  8
SLD-0
  6
Continuous
 62
   179
100
AcDbLine
 10
111.6766176516
 20
101.246339451
 30
0.0
 11
106.6766176516
 21
101.246339451
 31
0.0
  0
LINE
  5
54
330
1F
100
AcDbEntity
  8
SLD-0
  6
Continuous
 62
   179
100
AcDbLine
 10
98.6766176516
 20
93.246339451
 30
0.0
 11
98.6766176516
 21
91.246339451
 31
0.0
  0
LINE
  5
55
330
1F
100
AcDbEntity
  8
SLD-0
  6
Continuous
 62
   179
100
AcDbLine
 10
107.3766176516
 20
90.046339451
 30
0.0
 11
110.9766176516
 21
90.046339451
 31
0.0
  0
LINE
  5
56
330
1F
100
AcDbEntity
  8
SLD-0
  6
Continuous
 62
   179
100
AcDbLine
 10
110.9766176516
 20
96.446339451
 30
0.0
 11
107.3766176516
 21
96.446339451
 31
0.0
  0
LINE
  5
57
330
1F
100
AcDbEntity
  8
SLD-0
  6
Continuous
 62
   179
100
AcDbLine
 10
90.6766176516
 20
131.246339451
 30
0.0
 11
90.6766176516
 21
134.446339451
 31
0.0
  0
LINE
  5
58
330
1F
100
AcDbEntity
  8
SLD-0
  6
Continuous
 62
   179
100
AcDbLine
 10
90.6766176516
 20
134.446339451
 30
0.0
 11
145.9766176516
 21
134.446339451
 31
0.0
  0
LINE
  5
59
330
1F
100
AcDbEntity
  8
SLD-0
  6
Continuous
 62
   179
100
AcDbLine
 10
145.9766176516
 20
134.446339451
 30
0.0
 11
145.9766176516
 21
244.446339451
 31
0.0
  0
LINE
  5
5A
330
1F
100
AcDbEntity
  8
SLD-0
  6
Continuous
 62
   179
100
AcDbLine
 10
145.9766176516
 20
244.446339451
 30
0.0
 11
149.1766176516
 21
244.446339451
 31
0.0
  0
LINE
  5
5B
330
1F
100
AcDbEntity
  8
SLD-0
  6
Continuous
 62
   179
100
AcDbLine
 10
149.1766176516
 20
244.446339451
 30
0.0
 11
149.1766176516
 21
133.246339451
 31
0.0
  0
LINE
  5
5C
330
1F
100
AcDbEntity
  8
SLD-0
  6
Continuous
 62
   179
100
AcDbLine
 10
147.1766176516
 20
131.246339451
 30
0.0
 11
90.6766176516
 21
131.246339451
 31
0.0
  0
LINE
  5
5D
330
1F
100
AcDbEntity
  8
SLD-0
  6
Continuous
 62
   179
100
AcDbLine
 10
96.1766176516
 20
138.946339451
 30
0.0
 11
129.1766176516
 21
138.946339451
 31
0.0
  0
LINE
  5
5E
330
1F
100
AcDbEntity
  8
SLD-0
  6
Continuous
 62
   179
100
AcDbLine
 10
129.1766176516
 20
138.946339451
 30
0.0
 11
130.6766176516
 21
140.446339451
 31
0.0
  0
LINE
  5
5F
330
1F
100
AcDbEntity
  8
SLD-0
  6
Continuous
 62
   179
100
AcDbLine
 10
130.6766176516
 20
140.446339451
 30
0.0
 11
94.6766176516
 21
140.446339451
 31
0.0
  0
LINE
  5
60
330
1F
100
AcDbEntity
  8
SLD-0
  6
Continuous
 62
   179
100
AcDbLine
 10
94.6766176516
 20
140.446339451
 30
0.0
 11
94.6766176516
 21
151.946339451
 31
0.0
  0
LINE
  5
61
330
1F
100
AcDbEntity
  8
SLD-0
  6
Continuous
 62
   179
100
AcDbLine
 10
92.6766176516
 20
153.946339451
 30
0.0
 11
90.1766176516
 21
153.946339451
 31
0.0
  0
LINE
  5
62
330
1F
100
AcDbEntity
  8
SLD-0
  6
Continuous
 62
   179
100
AcDbLine
 10
90.1766176516
 20
153.946339451
 30
0.0
 11
90.1766176516
 21
158.646339451
 31
0.0
  0
LINE
  5
63
330
1F
100
AcDbEntity
  8
SLD-0
  6
Continuous
 62
   179
100
AcDbLine
 10
90.1766176516
 20
158.646339451
 30
0.0
 11
90.4766176516
 21
158.946339451
 31
0.0
  0
LINE
  5
64
330
1F
100
AcDbEntity
  8
SLD-0
  6
Continuous
 62
   179
100
AcDbLine
 10
90.1766176516
 20
158.946339451
 30
0.0
 11
135.1766181727
 21
158.946339451
 31
0.0
  0
LINE
  5
65
330
1F
100
AcDbEntity
  8
SLD-0
  6
Continuous
 62
   179
100
AcDbLine
 10
135.1766181727
 20
158.946339451
 30
0.0
 11
135.1766181727
 21
243.946339451
 31
0.0
  0
LINE
  5
66
330
1F
100
AcDbEntity
  8
SLD-0
  6
Continuous
 62
   179
100
AcDbLine
 10
125.6766179122
 20
257.2034132643
 30
0.0
 11
125.6766179122
 21
267.9463392643
 31
0.0
  0
LINE
  5
67
330
1F
100
AcDbEntity
  8
SLD-0
  6
Continuous
 62
   179
100
AcDbLine
 10
125.6766179122
 20
267.9463392643
 30
0.0
 11
118.6766179122
 21
267.9463392643
 31
0.0
  0
LINE
  5
68
330
1F
100
AcDbEntity
  8
SLD-0
  6
Continuous
 62
   179
100
AcDbLine
 10
118.6766179122
 20
267.9463392643
 30
0.0
 11
118.6766179122
 21
235.7463392643
 31
0.0
  0
LINE
  5
69
330
1F
100
AcDbEntity
  8
SLD-0
  6
Continuous
 62
   179
100
AcDbLine
 10
118.6766179122
 20
235.7463392643
 30
0.0
 11
106.6766179122
 21
235.7463392643
 31
0.0
  0
LINE
  5
6A
330
1F
100
AcDbEntity
  8
SLD-0
  6
Continuous
 62
   179
100
AcDbLine
 10
106.6766179122
 20
235.7463392643
 30
0.0
 11
106.6766179122
 21
267.9463392643
 31
0.0
  0
LINE
  5
6B
330
1F
100
AcDbEntity
  8
SLD-0
  6
Continuous
 62
   179
100
AcDbLine
 10
106.6766179122
 20
267.9463392643
 30
0.0
 11
99.6766179122
 21
267.9463392643
 31
0.0
  0
LINE
  5
6C
330
1F
100
AcDbEntity
  8
SLD-0
  6
Continuous
 62
   179
100
AcDbLine
 10
99.6766179122
 20
267.9463392643
 30
0.0
 11
99.6766179122
 21
257.2034132643
 31
0.0
  0
LINE
  5
6D
330
1F
100
AcDbEntity
  8
SLD-0
  6
Continuous
 62
   179
100
AcDbLine
 10
90.1766176516
 20
243.946339451
 30
0.0
 11
90.1766176516
 21
158.946339451
 31
0.0
  0
LINE
  5
6E
330
1F
100
AcDbEntity
  8
SLD-0
  6
Continuous
 62
   179
100
AcDbLine
 10
90.1766176516
 20
172.946339451
 30
0.0
 11
100.9812576516
 21
172.946339451
 31
0.0
  0
LINE
  5
6F
330
1F
100
AcDbEntity
  8
SLD-0
  6
Continuous
 62
   179
100
AcDbLine
 10
102.9812576516
 20
170.946339451
 30
0.0
 11
102.9812576516
 21
159.946339451
 31
0.0
  0
LINE
  5
70
330
1F
100
AcDbEntity
  8
SLD-0
  6
Continuous
 62
   179
100
AcDbLine
 10
102.9812576516
 20
159.946339451
 30
0.0
 11
122.3719776516
 21
159.946339451
 31
0.0
  0
LINE
  5
71
330
1F
100
AcDbEntity
  8
SLD-0
  6
Continuous
 62
   179
100
AcDbLine
 10
122.3719776516
 20
159.946339451
 30
0.0
 11
122.3719776516
 21
170.946339451
 31
0.0
  0
LINE
  5
72
330
1F
100
AcDbEntity
  8
SLD-0
  6
Continuous
 62
   179
100
AcDbLine
 10
124.3719776516
 20
172.946339451
 30
0.0
 11
135.1766176516
 21
172.946339451
 31
0.0
  0
LINE
  5
73
330
1F
100
AcDbEntity
  8
SLD-0
  6
Continuous
 62
   179
100
AcDbLine
 10
135.1766176516
 20
173.446339451
 30
0.0
 11
141.1766176516
 21
173.446339451
 31
0.0
  0
LINE
  5
74
330
1F
100
AcDbEntity
  8
SLD-0
  6
Continuous
 62
   179
100
AcDbLine
 10
141.1766176516
 20
173.446339451
 30
0.0
 11
141.1766176516
 21
228.946339451
 31
0.0
  0
LINE
  5
75
330
1F
100
AcDbEntity
  8
SLD-0
  6
Continuous
 62
   179
100
AcDbLine
 10
141.1766176516
 20
228.946339451
 30
0.0
 11
135.1766176516
 21
228.946339451
 31
0.0
  0
LINE
  5
76
330
1F
100
AcDbEntity
  8
SLD-0
  6
Continuous
 62
   179
100
AcDbLine
 10
141.1766176516
 20
226.696339451
 30
0.0
 11
145.9766176516
 21
226.696339451
 31
0.0
  0
LINE
  5
77
330
1F
100
AcDbEntity
  8
SLD-0
  6
Continuous
 62
   179
100
AcDbLine
 10
149.1766176516
 20
228.946339451
 30
0.0
 11
158.3766176516
 21
228.946339451
 31
0.0
  0
LINE
  5
78
330
1F
100
AcDbEntity
  8
SLD-0
  6
Continuous
 62
   179
100
AcDbLine
 10
158.3766176516
 20
228.946339451
 30
0.0
 11
158.3766176516
 21
217.946339451
 31
0.0
  0
LINE
  5
79
330
1F
100
AcDbEntity
  8
SLD-0
  6
Continuous
 62
   179
100
AcDbLine
 10
158.3766176516
 20
217.946339451
 30
0.0
 11
159.1766176516
 21
218.746339451
 31
0.0
  0
LINE
  5
7A
330
1F
100
AcDbEntity
  8
SLD-0
  6
Continuous
 62
   179
100
AcDbLine
 10
159.1766176516
 20
218.746339451
 30
0.0
 11
159.1766176516
 21
228.146339451
 31
0.0
  0
LINE
  5
7B
330
1F
100
AcDbEntity
  8
SLD-0
  6
Continuous
 62
   179
100
AcDbLine
 10
159.1766176516
 20
228.146339451
 30
0.0
 11
158.3766176516
 21
228.946339451
 31
0.0
  0
LINE
  5
7C
330
1F
100
AcDbEntity
  8
SLD-0
  6
Continuous
 62
   179
100
AcDbLine
 10
159.7766176516
 20
227.146339451
 30
0.0
 11
159.7766176516
 21
219.746339451
 31
0.0
  0
LINE
  5
7D
330
1F
100
AcDbEntity
  8
SLD-0
  6
Continuous
 62
   179
100
AcDbLine
 10
159.7536446516
 20
219.631205451
 30
0.0
 11
159.9885166516
 21
220.196339451
 31
0.0
  0
LINE
  5
7E
330
1F
100
AcDbEntity
  8
SLD-0
  6
Continuous
 62
   179
100
AcDbLine
 10
159.7766176516
 20
220.196339451
 30
0.0
 11
163.7376806516
 21
220.196339451
 31
0.0
  0
LINE
  5
7F
330
1F
100
AcDbEntity
  8
SLD-0
  6
Continuous
 62
   179
100
AcDbLine
 10
163.8626396516
 20
219.614429451
 30
0.0
 11
162.2587696516
 21
227.083353451
 31
0.0
  0
LINE
  5
80
330
1F
100
AcDbEntity
  8
SLD-0
  6
Continuous
 62
   179
100
AcDbLine
 10
162.8453966516
 20
227.209325451
 30
0.0
 11
164.4434566516
 21
219.767456451
 31
0.0
  0
LINE
  5
81
330
1F
100
AcDbEntity
  8
SLD-0
  6
Continuous
 62
   179
100
AcDbLine
 10
164.4253966145
 20
219.6833537545
 30
0.0
 11
164.5355546145
 21
220.1963397545
 31
0.0
  0
LINE
  5
82
330
1F
100
AcDbEntity
  8
SLD-0
  6
Continuous
 62
   179
100
AcDbLine
 10
164.3513586516
 20
220.196339451
 30
0.0
 11
166.8976806516
 21
220.196339451
 31
0.0
  0
LINE
  5
83
330
1F
100
AcDbEntity
  8
SLD-0
  6
Continuous
 62
   179
100
AcDbLine
 10
167.5853966145
 20
219.6833537545
 30
0.0
 11
167.6955546145
 21
220.1963397545
 31
0.0
  0
LINE
  5
84
330
1F
100
AcDbEntity
  8
SLD-0
  6
Continuous
 62
   179
100
AcDbLine
 10
167.5113586516
 20
220.196339451
 30
0.0
 11
170.0576806516
 21
220.196339451
 31
0.0
  0
LINE
  5
85
330
1F
100
AcDbEntity
  8
SLD-0
  6
Continuous
 62
   179
100
AcDbLine
 10
170.7453966145
 20
219.6833537545
 30
0.0
 11
170.8555546145
 21
220.1963397545
 31
0.0
  0
LINE
  5
86
330
1F
100
AcDbEntity
  8
SLD-0
  6
Continuous
 62
   179
100
AcDbLine
 10
170.6713586516
 20
220.196339451
 30
0.0
 11
173.2176806516
 21
220.196339451
 31
0.0
  0
LINE
  5
87
330
1F
100
AcDbEntity
  8
SLD-0
  6
Continuous
 62
   179
100
AcDbLine
 10
173.9144656516
 20
219.809325451
 30
0.0
 11
172.3253966516
 21
227.209325451
 31
0.0
  0
LINE
  5
88
330
1F
100
AcDbEntity
  8
SLD-0
  6
Continuous
 62
   179
100
AcDbLine
 10
171.7387696516
 20
227.083353451
 30
0.0
 11
173.3278386516
 21
219.683353451
 31
0.0
  0
LINE
  5
89
330
1F
100
AcDbEntity
  8
SLD-0
  6
Continuous
 62
   179
100
AcDbLine
 10
173.9210026516
 20
219.736860451
 30
0.0
 11
174.1505526516
 21
220.486339451
 31
0.0
  0
LINE
  5
8A
330
1F
100
AcDbEntity
  8
SLD-0
  6
Continuous
 62
   179
100
AcDbLine
 10
173.7690846516
 20
220.486339451
 30
0.0
 11
175.5766176516
 21
220.486339451
 31
0.0
  0
LINE
  5
8B
330
1F
100
AcDbEntity
  8
SLD-0
  6
Continuous
 62
   179
100
AcDbLine
 10
175.5766176516
 20
219.746339451
 30
0.0
 11
175.5766176516
 21
227.191251451
 31
0.0
  0
LINE
  5
8C
330
1F
100
AcDbEntity
  8
SLD-0
  6
Continuous
 62
   179
100
AcDbLine
 10
175.5897696516
 20
227.234194451
 30
0.0
 11
175.3362146516
 21
226.406339451
 31
0.0
  0
LINE
  5
8D
330
1F
100
AcDbEntity
  8
SLD-0
  6
Continuous
 62
   179
100
AcDbLine
 10
175.5766176516
 20
226.406339451
 30
0.0
 11
173.6766176516
 21
226.406339451
 31
0.0
  0
LINE
  5
8E
330
1F
100
AcDbEntity
  8
SLD-0
  6
Continuous
 62
   179
100
AcDbLine
 10
173.6766176516
 20
226.406339451
 30
0.0
 11
173.3866176516
 21
226.696339451
 31
0.0
  0
LINE
  5
8F
330
1F
100
AcDbEntity
  8
SLD-0
  6
Continuous
 62
   179
100
AcDbLine
 10
173.3866176516
 20
226.696339451
 30
0.0
 11
173.3866176516
 21
222.267415451
 31
0.0
  0
LINE
  5
90
330
1F
100
AcDbEntity
  8
SLD-0
  6
Continuous
 62
   179
100
AcDbLine
 10
173.6766176516
 20
220.916939451
 30
0.0
 11
173.6766176516
 21
226.406339451
 31
0.0
  0
LINE
  5
91
330
1F
100
AcDbEntity
  8
SLD-0
  6
Continuous
 62
   179
100
AcDbLine
 10
173.3866176516
 20
226.696339451
 30
0.0
 11
172.4355546516
 21
226.696339451
 31
0.0
  0
LINE
  5
92
330
1F
100
AcDbEntity
  8
SLD-0
  6
Continuous
 62
   179
100
AcDbLine
 10
171.8218766516
 20
226.696339451
 30
0.0
 11
169.2755546516
 21
226.696339451
 31
0.0
  0
LINE
  5
93
330
1F
100
AcDbEntity
  8
SLD-0
  6
Continuous
 62
   179
100
AcDbLine
 10
169.1653966516
 20
227.209325451
 30
0.0
 11
170.7634566516
 21
219.767456451
 31
0.0
  0
LINE
  5
94
330
1F
100
AcDbEntity
  8
SLD-0
  6
Continuous
 62
   179
100
AcDbLine
 10
170.1826396516
 20
219.614429451
 30
0.0
 11
168.5697786516
 21
227.125222451
 31
0.0
  0
LINE
  5
95
330
1F
100
AcDbEntity
  8
SLD-0
  6
Continuous
 62
   179
100
AcDbLine
 10
168.5697786516
 20
227.125222451
 30
0.0
 11
168.4776806516
 21
226.696339451
 31
0.0
  0
LINE
  5
96
330
1F
100
AcDbEntity
  8
SLD-0
  6
Continuous
 62
   179
100
AcDbLine
 10
168.6618766516
 20
226.696339451
 30
0.0
 11
166.1155546516
 21
226.696339451
 31
0.0
  0
LINE
  5
97
330
1F
100
AcDbEntity
  8
SLD-0
  6
Continuous
 62
   179
100
AcDbLine
 10
166.0053966516
 20
227.209325451
 30
0.0
 11
167.6034566516
 21
219.767456451
 31
0.0
  0
LINE
  5
98
330
1F
100
AcDbEntity
  8
SLD-0
  6
Continuous
 62
   179
100
AcDbLine
 10
167.0226396516
 20
219.614429451
 30
0.0
 11
165.4097786516
 21
227.125222451
 31
0.0
  0
LINE
  5
99
330
1F
100
AcDbEntity
  8
SLD-0
  6
Continuous
 62
   179
100
AcDbLine
 10
165.4097786516
 20
227.125222451
 30
0.0
 11
165.3176806516
 21
226.696339451
 31
0.0
  0
LINE
  5
9A
330
1F
100
AcDbEntity
  8
SLD-0
  6
Continuous
 62
   179
100
AcDbLine
 10
165.5018766516
 20
226.696339451
 30
0.0
 11
162.9555546516
 21
226.696339451
 31
0.0
  0
LINE
  5
9B
330
1F
100
AcDbEntity
  8
SLD-0
  6
Continuous
 62
   179
100
AcDbLine
 10
162.3418766516
 20
226.696339451
 30
0.0
 11
159.7766176516
 21
226.696339451
 31
0.0
  0
LINE
  5
9C
330
1F
100
AcDbEntity
  8
SLD-0
  6
Continuous
 62
   179
100
AcDbLine
 10
162.1576806516
 20
226.696339451
 30
0.0
 11
162.2522386516
 21
227.136678451
 31
0.0
  0
LINE
  5
9D
330
1F
100
AcDbEntity
  8
SLD-0
  6
Continuous
 62
   179
100
AcDbLine
 10
171.6376806516
 20
226.696339451
 30
0.0
 11
171.7297786516
 21
227.125222451
 31
0.0
  0
LINE
  5
9E
330
1F
100
AcDbEntity
  8
SLD-0
  6
Continuous
 62
   179
100
AcDbLine
 10
176.1766176516
 20
228.446339451
 30
0.0
 11
180.1766176516
 21
228.446339451
 31
0.0
  0
LINE
  5
9F
330
1F
100
AcDbEntity
  8
SLD-0
  6
Continuous
 62
   179
100
AcDbLine
 10
180.6766176516
 20
227.946339451
 30
0.0
 11
180.6766176516
 21
218.946339451
 31
0.0
  0
LINE
  5
A0
330
1F
100
AcDbEntity
  8
SLD-0
  6
Continuous
 62
   179
100
AcDbLine
 10
180.1766176516
 20
218.446339451
 30
0.0
 11
176.1766176516
 21
218.446339451
 31
0.0
  0
LINE
  5
A1
330
1F
100
AcDbEntity
  8
SLD-0
  6
Continuous
 62
   179
100
AcDbLine
 10
176.1766176516
 20
218.446339451
 30
0.0
 11
176.1766176516
 21
228.446339451
 31
0.0
  0
LINE
  5
A2
330
1F
100
AcDbEntity
  8
SLD-0
  6
Continuous
 62
   179
100
AcDbLine
 10
171.1766176516
 20
215.946339451
 30
0.0
 11
171.1766176516
 21
190.946339451
 31
0.0
  0
LINE
  5
A3
330
1F
100
AcDbEntity
  8
SLD-0
  6
Continuous
 62
   179
100
AcDbLine
 10
171.1766176516
 20
190.946339451
 30
0.0
 11
149.1766176516
 21
190.946339451
 31
0.0
  0
LINE
  5
A4
330
1F
100
AcDbEntity
  8
SLD-0
  6
Continuous
 62
   179
100
AcDbLine
 10
149.1766176516
 20
192.946339451
 30
0.0
 11
145.9766176516
 21
192.946339451
 31
0.0
  0
LINE
  5
A5
330
1F
100
AcDbEntity
  8
SLD-0
  6
Continuous
 62
   179
100
AcDbLine
 10
149.1766176516
 20
193.446339451
 30
0.0
 11
171.1766176516
 21
193.446339451
 31
0.0
  0
LINE
  5
A6
330
1F
100
AcDbEntity
  8
SLD-0
  6
Continuous
 62
   179
100
AcDbLine
 10
176.1766176516
 20
188.446339451
 30
0.0
 11
180.1766176516
 21
188.446339451
 31
0.0
  0
LINE
  5
A7
330
1F
100
AcDbEntity
  8
SLD-0
  6
Continuous
 62
   179
100
AcDbLine
 10
180.6766176516
 20
187.946339451
 30
0.0
 11
180.6766176516
 21
178.946339451
 31
0.0
  0
LINE
  5
A8
330
1F
100
AcDbEntity
  8
SLD-0
  6
Continuous
 62
   179
100
AcDbLine
 10
180.1766176516
 20
178.446339451
 30
0.0
 11
176.1766176516
 21
178.446339451
 31
0.0
  0
LINE
  5
A9
330
1F
100
AcDbEntity
  8
SLD-0
  6
Continuous
 62
   179
100
AcDbLine
 10
176.1766176516
 20
178.446339451
 30
0.0
 11
176.1766176516
 21
188.446339451
 31
0.0
  0
LINE
  5
AA
330
1F
100
AcDbEntity
  8
SLD-0
  6
Continuous
 62
   179
100
AcDbLine
 10
175.5897696516
 20
187.234194451
 30
0.0
 11
175.3362146516
 21
186.406339451
 31
0.0
  0
LINE
  5
AB
330
1F
100
AcDbEntity
  8
SLD-0
  6
Continuous
 62
   179
100
AcDbLine
 10
175.5766176516
 20
186.406339451
 30
0.0
 11
173.6766176516
 21
186.406339451
 31
0.0
  0
LINE
  5
AC
330
1F
100
AcDbEntity
  8
SLD-0
  6
Continuous
 62
   179
100
AcDbLine
 10
173.6766176516
 20
186.406339451
 30
0.0
 11
173.3866176516
 21
186.696339451
 31
0.0
  0
LINE
  5
AD
330
1F
100
AcDbEntity
  8
SLD-0
  6
Continuous
 62
   179
100
AcDbLine
 10
173.3866176516
 20
186.696339451
 30
0.0
 11
173.3866176516
 21
182.267415451
 31
0.0
  0
LINE
  5
AE
330
1F
100
AcDbEntity
  8
SLD-0
  6
Continuous
 62
   179
100
AcDbLine
 10
173.6766176516
 20
180.916939451
 30
0.0
 11
173.6766176516
 21
186.406339451
 31
0.0
  0
LINE
  5
AF
330
1F
100
AcDbEntity
  8
SLD-0
  6
Continuous
 62
   179
100
AcDbLine
 10
173.3866176516
 20
186.696339451
 30
0.0
 11
172.4355546516
 21
186.696339451
 31
0.0
  0
LINE
  5
B0
330
1F
100
AcDbEntity
  8
SLD-0
  6
Continuous
 62
   179
100
AcDbLine
 10
172.3253966516
 20
187.209325451
 30
0.0
 11
173.9144656516
 21
179.809325451
 31
0.0
  0
LINE
  5
B1
330
1F
100
AcDbEntity
  8
SLD-0
  6
Continuous
 62
   179
100
AcDbLine
 10
173.3278386516
 20
179.683353451
 30
0.0
 11
171.7387696516
 21
187.083353451
 31
0.0
  0
LINE
  5
B2
330
1F
100
AcDbEntity
  8
SLD-0
  6
Continuous
 62
   179
100
AcDbLine
 10
171.7297786516
 20
187.125222451
 30
0.0
 11
171.6376806516
 21
186.696339451
 31
0.0
  0
LINE
  5
B3
330
1F
100
AcDbEntity
  8
SLD-0
  6
Continuous
 62
   179
100
AcDbLine
 10
171.8218766516
 20
186.696339451
 30
0.0
 11
169.2755546516
 21
186.696339451
 31
0.0
  0
LINE
  5
B4
330
1F
100
AcDbEntity
  8
SLD-0
  6
Continuous
 62
   179
100
AcDbLine
 10
169.1653966516
 20
187.209325451
 30
0.0
 11
170.7634566516
 21
179.767456451
 31
0.0
  0
LINE
  5
B5
330
1F
100
AcDbEntity
  8
SLD-0
  6
Continuous
 62
   179
100
AcDbLine
 10
170.7453966145
 20
179.6833537545
 30
0.0
 11
170.8555546145
 21
180.1963397545
 31
0.0
  0
LINE
  5
B6
330
1F
100
AcDbEntity
  8
SLD-0
  6
Continuous
 62
   179
100
AcDbLine
 10
170.6713586516
 20
180.196339451
 30
0.0
 11
173.2176806516
 21
180.196339451
 31
0.0
  0
LINE
  5
B7
330
1F
100
AcDbEntity
  8
SLD-0
  6
Continuous
 62
   179
100
AcDbLine
 10
173.7690846516
 20
180.486339451
 30
0.0
 11
175.5766176516
 21
180.486339451
 31
0.0
  0
LINE
  5
B8
330
1F
100
AcDbEntity
  8
SLD-0
  6
Continuous
 62
   179
100
AcDbLine
 10
175.5766176516
 20
179.746339451
 30
0.0
 11
175.5766176516
 21
187.191251451
 31
0.0
  0
LINE
  5
B9
330
1F
100
AcDbEntity
  8
SLD-0
  6
Continuous
 62
   179
100
AcDbLine
 10
168.5697786516
 20
187.125222451
 30
0.0
 11
170.1826396516
 21
179.614429451
 31
0.0
  0
LINE
  5
BA
330
1F
100
AcDbEntity
  8
SLD-0
  6
Continuous
 62
   179
100
AcDbLine
 10
170.0576806516
 20
180.196339451
 30
0.0
 11
167.5113586516
 21
180.196339451
 31
0.0
  0
LINE
  5
BB
330
1F
100
AcDbEntity
  8
SLD-0
  6
Continuous
 62
   179
100
AcDbLine
 10
167.6955546145
 20
180.1963397545
 30
0.0
 11
167.5853966145
 21
179.6833537545
 31
0.0
  0
LINE
  5
BC
330
1F
100
AcDbEntity
  8
SLD-0
  6
Continuous
 62
   179
100
AcDbLine
 10
167.0226396516
 20
179.614429451
 30
0.0
 11
165.4097786516
 21
187.125222451
 31
0.0
  0
LINE
  5
BD
330
1F
100
AcDbEntity
  8
SLD-0
  6
Continuous
 62
   179
100
AcDbLine
 10
165.4097786516
 20
187.125222451
 30
0.0
 11
165.3176806516
 21
186.696339451
 31
0.0
  0
LINE
  5
BE
330
1F
100
AcDbEntity
  8
SLD-0
  6
Continuous
 62
   179
100
AcDbLine
 10
165.5018766516
 20
186.696339451
 30
0.0
 11
162.9555546516
 21
186.696339451
 31
0.0
  0
LINE
  5
BF
330
1F
100
AcDbEntity
  8
SLD-0
  6
Continuous
 62
   179
100
AcDbLine
 10
162.8453966516
 20
187.209325451
 30
0.0
 11
164.4434566516
 21
179.767456451
 31
0.0
  0
LINE
  5
C0
330
1F
100
AcDbEntity
  8
SLD-0
  6
Continuous
 62
   179
100
AcDbLine
 10
164.4253966145
 20
179.6833537545
 30
0.0
 11
164.5355546145
 21
180.1963397545
 31
0.0
  0
LINE
  5
C1
330
1F
100
AcDbEntity
  8
SLD-0
  6
Continuous
 62
   179
100
AcDbLine
 10
164.3513586516
 20
180.196339451
 30
0.0
 11
166.8976806516
 21
180.196339451
 31
0.0
  0
LINE
  5
C2
330
1F
100
AcDbEntity
  8
SLD-0
  6
Continuous
 62
   179
100
AcDbLine
 10
167.6034566516
 20
179.767456451
 30
0.0
 11
166.0053966516
 21
187.209325451
 31
0.0
  0
LINE
  5
C3
330
1F
100
AcDbEntity
  8
SLD-0
  6
Continuous
 62
   179
100
AcDbLine
 10
166.1155546516
 20
186.696339451
 30
0.0
 11
168.6618766516
 21
186.696339451
 31
0.0
  0
LINE
  5
C4
330
1F
100
AcDbEntity
  8
SLD-0
  6
Continuous
 62
   179
100
AcDbLine
 10
168.4776806516
 20
186.696339451
 30
0.0
 11
168.5697786516
 21
187.125222451
 31
0.0
  0
LINE
  5
C5
330
1F
100
AcDbEntity
  8
SLD-0
  6
Continuous
 62
   179
100
AcDbLine
 10
162.2587696516
 20
187.083353451
 30
0.0
 11
163.8626396516
 21
179.614429451
 31
0.0
  0
LINE
  5
C6
330
1F
100
AcDbEntity
  8
SLD-0
  6
Continuous
 62
   179
100
AcDbLine
 10
163.7376806516
 20
180.196339451
 30
0.0
 11
159.7766176516
 21
180.196339451
 31
0.0
  0
LINE
  5
C7
330
1F
100
AcDbEntity
  8
SLD-0
  6
Continuous
 62
   179
100
AcDbLine
 10
159.9885166516
 20
180.196339451
 30
0.0
 11
159.7536446516
 21
179.631205451
 31
0.0
  0
LINE
  5
C8
330
1F
100
AcDbEntity
  8
SLD-0
  6
Continuous
 62
   179
100
AcDbLine
 10
159.7766176516
 20
179.746339451
 30
0.0
 11
159.7766176516
 21
187.146339451
 31
0.0
  0
LINE
  5
C9
330
1F
100
AcDbEntity
  8
SLD-0
  6
Continuous
 62
   179
100
AcDbLine
 10
159.7766176516
 20
186.696339451
 30
0.0
 11
162.3418766516
 21
186.696339451
 31
0.0
  0
LINE
  5
CA
330
1F
100
AcDbEntity
  8
SLD-0
  6
Continuous
 62
   179
100
AcDbLine
 10
162.1576806516
 20
186.696339451
 30
0.0
 11
162.2522386516
 21
187.136678451
 31
0.0
  0
LINE
  5
CB
330
1F
100
AcDbEntity
  8
SLD-0
  6
Continuous
 62
   179
100
AcDbLine
 10
159.1766176516
 20
188.146339451
 30
0.0
 11
158.3766176516
 21
188.946339451
 31
0.0
  0
LINE
  5
CC
330
1F
100
AcDbEntity
  8
SLD-0
  6
Continuous
 62
   179
100
AcDbLine
 10
158.3766176516
 20
188.946339451
 30
0.0
 11
158.3766176516
 21
177.946339451
 31
0.0
  0
LINE
  5
CD
330
1F
100
AcDbEntity
  8
SLD-0
  6
Continuous
 62
   179
100
AcDbLine
 10
158.3766176516
 20
177.946339451
 30
0.0
 11
159.1766176516
 21
178.746339451
 31
0.0
  0
LINE
  5
CE
330
1F
100
AcDbEntity
  8
SLD-0
  6
Continuous
 62
   179
100
AcDbLine
 10
159.1766176516
 20
178.746339451
 30
0.0
 11
159.1766176516
 21
188.146339451
 31
0.0
  0
LINE
  5
CF
330
1F
100
AcDbEntity
  8
SLD-0
  6
Continuous
 62
   179
100
AcDbLine
 10
158.3766176516
 20
188.946339451
 30
0.0
 11
149.1766176516
 21
188.946339451
 31
0.0
  0
LINE
  5
D0
330
1F
100
AcDbEntity
  8
SLD-0
  6
Continuous
 62
   179
100
AcDbLine
 10
144.8766176516
 20
181.446339451
 30
0.0
 11
144.8766176516
 21
174.446339451
 31
0.0
  0
LINE
  5
D1
330
1F
100
AcDbEntity
  8
SLD-0
  6
Continuous
 62
   179
100
AcDbLine
 10
144.8766176516
 20
174.446339451
 30
0.0
 11
141.1766176516
 21
174.446339451
 31
0.0
  0
LINE
  5
D2
330
1F
100
AcDbEntity
  8
SLD-0
  6
Continuous
 62
   179
100
AcDbLine
 10
144.8766176516
 20
174.446339451
 30
0.0
 11
145.1766176516
 21
174.965954451
 31
0.0
  0
LINE
  5
D3
330
1F
100
AcDbEntity
  8
SLD-0
  6
Continuous
 62
   179
100
AcDbLine
 10
145.1766176516
 20
174.965954451
 30
0.0
 11
145.1766176516
 21
180.926724451
 31
0.0
  0
LINE
  5
D4
330
1F
100
AcDbEntity
  8
SLD-0
  6
Continuous
 62
   179
100
AcDbLine
 10
145.1766176516
 20
180.926724451
 30
0.0
 11
144.8766176516
 21
181.446339451
 31
0.0
  0
LINE
  5
D5
330
1F
100
AcDbEntity
  8
SLD-0
  6
Continuous
 62
   179
100
AcDbLine
 10
144.8766176516
 20
181.446339451
 30
0.0
 11
141.1766176516
 21
181.446339451
 31
0.0
  0
LINE
  5
D6
330
1F
100
AcDbEntity
  8
SLD-0
  6
Continuous
 62
   179
100
AcDbLine
 10
149.1766176516
 20
177.946339451
 30
0.0
 11
158.3766176516
 21
177.946339451
 31
0.0
  0
LINE
  5
D7
330
1F
100
AcDbEntity
  8
SLD-0
  6
Continuous
 62
   179
100
AcDbLine
 10
173.9210026516
 20
179.736860451
 30
0.0
 11
174.1505526516
 21
180.486339451
 31
0.0
  0
LINE
  5
D8
330
1F
100
AcDbEntity
  8
SLD-0
  6
Continuous
 62
   179
100
AcDbLine
 10
171.1766176516
 20
213.446339451
 30
0.0
 11
149.1766176516
 21
213.446339451
 31
0.0
  0
LINE
  5
D9
330
1F
100
AcDbEntity
  8
SLD-0
  6
Continuous
 62
   179
100
AcDbLine
 10
149.1766176516
 20
213.946339451
 30
0.0
 11
145.9766176516
 21
213.946339451
 31
0.0
  0
LINE
  5
DA
330
1F
100
AcDbEntity
  8
SLD-0
  6
Continuous
 62
   179
100
AcDbLine
 10
144.8766176516
 20
214.446339451
 30
0.0
 11
141.1766176516
 21
214.446339451
 31
0.0
  0
LINE
  5
DB
330
1F
100
AcDbEntity
  8
SLD-0
  6
Continuous
 62
   179
100
AcDbLine
 10
144.8766176516
 20
214.446339451
 30
0.0
 11
144.8766176516
 21
221.446339451
 31
0.0
  0
LINE
  5
DC
330
1F
100
AcDbEntity
  8
SLD-0
  6
Continuous
 62
   179
100
AcDbLine
 10
144.8766176516
 20
221.446339451
 30
0.0
 11
141.1766176516
 21
221.446339451
 31
0.0
  0
LINE
  5
DD
330
1F
100
AcDbEntity
  8
SLD-0
  6
Continuous
 62
   179
100
AcDbLine
 10
144.8766176516
 20
221.446339451
 30
0.0
 11
145.1766176516
 21
220.926724451
 31
0.0
  0
LINE
  5
DE
330
1F
100
AcDbEntity
  8
SLD-0
  6
Continuous
 62
   179
100
AcDbLine
 10
145.1766176516
 20
220.926724451
 30
0.0
 11
145.1766176516
 21
214.965954451
 31
0.0
  0
LINE
  5
DF
330
1F
100
AcDbEntity
  8
SLD-0
  6
Continuous
 62
   179
100
AcDbLine
 10
145.1766176516
 20
214.965954451
 30
0.0
 11
144.8766176516
 21
214.446339451
 31
0.0
  0
LINE
  5
E0
330
1F
100
AcDbEntity
  8
SLD-0
  6
Continuous
 62
   179
100
AcDbLine
 10
149.1766176516
 20
215.946339451
 30
0.0
 11
171.1766176516
 21
215.946339451
 31
0.0
  0
LINE
  5
E1
330
1F
100
AcDbEntity
  8
SLD-0
  6
Continuous
 62
   179
100
AcDbLine
 10
158.3766176516
 20
217.946339451
 30
0.0
 11
149.1766176516
 21
217.946339451
 31
0.0
  0
LINE
  5
E2
330
1F
100
AcDbEntity
  8
SLD-0
  6
Continuous
 62
   179
100
AcDbLine
 10
145.9766176516
 20
220.196339451
 30
0.0
 11
145.1766176516
 21
220.196339451
 31
0.0
  0
LINE
  5
E3
330
1F
100
AcDbEntity
  8
SLD-0
  6
Continuous
 62
   179
100
AcDbLine
 10
143.5193516516
 20
208.065141451
 30
0.0
 11
141.5338826516
 21
208.065141451
 31
0.0
  0
LINE
  5
E4
330
1F
100
AcDbEntity
  8
SLD-0
  6
Continuous
 62
   179
100
AcDbLine
 10
141.5338826516
 20
208.065141451
 30
0.0
 11
141.1766176516
 21
207.446339451
 31
0.0
  0
LINE
  5
E5
330
1F
100
AcDbEntity
  8
SLD-0
  6
Continuous
 62
   179
100
AcDbLine
 10
141.5338830006
 20
201.1369385248
 30
0.0
 11
143.5193520006
 21
201.1369385248
 31
0.0
  0
LINE
  5
E6
330
1F
100
AcDbEntity
  8
SLD-0
  6
Continuous
 62
   179
100
AcDbLine
 10
143.8766176516
 20
207.446339451
 30
0.0
 11
143.8766176516
 21
199.446339451
 31
0.0
  0
LINE
  5
E7
330
1F
100
AcDbEntity
  8
SLD-0
  6
Continuous
 62
   179
100
AcDbLine
 10
143.8766176516
 20
199.446339451
 30
0.0
 11
143.5193516516
 21
198.827537451
 31
0.0
  0
LINE
  5
E8
330
1F
100
AcDbEntity
  8
SLD-0
  6
Continuous
 62
   179
100
AcDbLine
 10
143.5193516516
 20
198.827537451
 30
0.0
 11
141.5338826516
 21
198.827537451
 31
0.0
  0
LINE
  5
E9
330
1F
100
AcDbEntity
  8
SLD-0
  6
Continuous
 62
   179
100
AcDbLine
 10
141.5338826516
 20
198.827537451
 30
0.0
 11
141.1766176516
 21
199.446339451
 31
0.0
  0
LINE
  5
EA
330
1F
100
AcDbEntity
  8
SLD-0
  6
Continuous
 62
   179
100
AcDbLine
 10
143.8766176516
 20
200.946339451
 30
0.0
 11
145.8766176516
 21
200.946339451
 31
0.0
  0
LINE
  5
EB
330
1F
100
AcDbEntity
  8
SLD-0
  6
Continuous
 62
   179
100
AcDbLine
 10
145.8766176516
 20
200.946339451
 30
0.0
 11
145.9766176516
 21
200.888604451
 31
0.0
  0
LINE
  5
EC
330
1F
100
AcDbEntity
  8
SLD-0
  6
Continuous
 62
   179
100
AcDbLine
 10
145.8766176516
 20
200.946339451
 30
0.0
 11
145.8766176516
 21
205.946339451
 31
0.0
  0
LINE
  5
ED
330
1F
100
AcDbEntity
  8
SLD-0
  6
Continuous
 62
   179
100
AcDbLine
 10
145.8766176516
 20
205.946339451
 30
0.0
 11
143.8766176516
 21
205.946339451
 31
0.0
  0
LINE
  5
EE
330
1F
100
AcDbEntity
  8
SLD-0
  6
Continuous
 62
   179
100
AcDbLine
 10
143.5193520006
 20
205.7557405248
 30
0.0
 11
141.5338830006
 21
205.7557405248
 31
0.0
  0
LINE
  5
EF
330
1F
100
AcDbEntity
  8
SLD-0
  6
Continuous
 62
   179
100
AcDbLine
 10
143.8766176516
 20
207.446339451
 30
0.0
 11
143.5193516516
 21
208.065141451
 31
0.0
  0
LINE
  5
F0
330
1F
100
AcDbEntity
  8
SLD-0
  6
Continuous
 62
   179
100
AcDbLine
 10
144.8766176516
 20
205.946339451
 30
0.0
 11
144.8766176516
 21
200.946339451
 31
0.0
  0
LINE
  5
F1
330
1F
100
AcDbEntity
  8
SLD-0
  6
Continuous
 62
   179
100
AcDbLine
 10
145.8766176516
 20
205.946339451
 30
0.0
 11
145.9766176516
 21
206.004074451
 31
0.0
  0
LINE
  5
F2
330
1F
100
AcDbEntity
  8
SLD-0
  6
Continuous
 62
   179
100
AcDbLine
 10
154.9266176516
 20
204.168027451
 30
0.0
 11
156.1766176516
 21
204.889715451
 31
0.0
  0
LINE
  5
F3
330
1F
100
AcDbEntity
  8
SLD-0
  6
Continuous
 62
   179
100
AcDbLine
 10
156.1766176516
 20
204.889715451
 30
0.0
 11
157.4266176516
 21
204.168027451
 31
0.0
  0
LINE
  5
F4
330
1F
100
AcDbEntity
  8
SLD-0
  6
Continuous
 62
   179
100
AcDbLine
 10
157.4266176516
 20
204.168027451
 30
0.0
 11
157.4266176516
 21
202.724651451
 31
0.0
  0
LINE
  5
F5
330
1F
100
AcDbEntity
  8
SLD-0
  6
Continuous
 62
   179
100
AcDbLine
 10
157.4266176516
 20
202.724651451
 30
0.0
 11
156.1766176516
 21
202.002963451
 31
0.0
  0
LINE
  5
F6
330
1F
100
AcDbEntity
  8
SLD-0
  6
Continuous
 62
   179
100
AcDbLine
 10
156.1766176516
 20
202.002963451
 30
0.0
 11
154.9266176516
 21
202.724651451
 31
0.0
  0
LINE
  5
F7
330
1F
100
AcDbEntity
  8
SLD-0
  6
Continuous
 62
   179
100
AcDbLine
 10
154.9266176516
 20
202.724651451
 30
0.0
 11
154.9266176516
 21
204.168027451
 31
0.0
  0
LINE
  5
F8
330
1F
100
AcDbEntity
  8
SLD-0
  6
Continuous
 62
   179
100
AcDbLine
 10
135.1766176516
 20
212.946339451
 30
0.0
 11
90.1766176516
 21
212.946339451
 31
0.0
  0
LINE
  5
F9
330
1F
100
AcDbEntity
  8
SLD-0
  6
Continuous
 62
   179
100
AcDbLine
 10
90.1766176516
 20
243.946339451
 30
0.0
 11
106.6766176516
 21
243.946339451
 31
0.0
  0
LINE
  5
FA
330
1F
100
AcDbEntity
  8
SLD-0
  6
Continuous
 62
   179
100
AcDbLine
 10
118.6766181727
 20
243.946339451
 30
0.0
 11
135.1766181727
 21
243.946339451
 31
0.0
  0
LINE
  5
FB
330
1F
100
AcDbEntity
  8
SLD-0
  6
Continuous
 62
   179
100
AcDbLine
 10
135.1766176516
 20
187.946339451
 30
0.0
 11
90.1766176516
 21
187.946339451
 31
0.0
  0
LINE
  5
FC
330
1F
100
AcDbEntity
  8
SLD-0
  6
Continuous
 62
   179
100
AcDbLine
 10
102.9812576516
 20
159.946339451
 30
0.0
 11
103.9812576516
 21
158.946339451
 31
0.0
  0
LINE
  5
FD
330
1F
100
AcDbEntity
  8
SLD-0
  6
Continuous
 62
   179
100
AcDbLine
 10
121.3719776516
 20
158.946339451
 30
0.0
 11
122.3719776516
 21
159.946339451
 31
0.0
  0
LINE
  5
FE
330
1F
100
AcDbEntity
  8
SLD-0
  6
Continuous
 62
   179
100
AcDbLine
 10
132.6766176516
 20
153.946339451
 30
0.0
 11
135.1766176516
 21
153.946339451
 31
0.0
  0
LINE
  5
FF
330
1F
100
AcDbEntity
  8
SLD-0
  6
Continuous
 62
   179
100
AcDbLine
 10
135.1766176516
 20
153.946339451
 30
0.0
 11
135.1766176516
 21
158.646339451
 31
0.0
  0
LINE
  5
100
330
1F
100
AcDbEntity
  8
SLD-0
  6
Continuous
 62
   179
100
AcDbLine
 10
135.1766176516
 20
158.646339451
 30
0.0
 11
134.8766176516
 21
158.946339451
 31
0.0
  0
LINE
  5
101
330
1F
100
AcDbEntity
  8
SLD-0
  6
Continuous
 62
   179
100
AcDbLine
 10
130.6766176516
 20
151.946339451
 30
0.0
 11
130.6766176516
 21
140.446339451
 31
0.0
  0
LINE
  5
102
330
1F
100
AcDbEntity
  8
SLD-0
  6
Continuous
 62
   179
100
AcDbLine
 10
140.0575576516
 20
134.446339451
 30
0.0
 11
145.9766176516
 21
140.365399451
 31
0.0
  0
LINE
  5
103
330
1F
100
AcDbEntity
  8
SLD-0
  6
Continuous
 62
   179
100
AcDbLine
 10
117.1766176516
 20
134.446339451
 30
0.0
 11
117.1766176516
 21
131.246339451
 31
0.0
  0
LINE
  5
104
330
1F
100
AcDbEntity
  8
SLD-0
  6
Continuous
 62
   179
100
AcDbLine
 10
101.1766176516
 20
131.246339451
 30
0.0
 11
101.1766176516
 21
134.446339451
 31
0.0
  0
LINE
  5
105
330
1F
100
AcDbEntity
  8
SLD-0
  6
Continuous
 62
   179
100
AcDbLine
 10
96.1766176516
 20
138.946339451
 30
0.0
 11
94.6766176516
 21
140.446339451
 31
0.0
  0
LINE
  5
106
330
1F
100
AcDbEntity
  8
SLD-0
  6
Continuous
 62
   179
100
AcDbLine
 10
142.768382903
 20
76.018763451
 30
0.0
 11
149.176617903
 21
77.746339451
 31
0.0
  0
LINE
  5
107
330
1F
100
AcDbEntity
  8
SLD-0
  6
Continuous
 62
   179
100
AcDbLine
 10
149.1766176516
 20
77.246339451
 30
0.0
 11
171.1766176516
 21
77.246339451
 31
0.0
  0
LINE
  5
108
330
1F
100
AcDbEntity
  8
SLD-0
  6
Continuous
 62
   179
100
AcDbLine
 10
171.1766176516
 20
77.246339451
 30
0.0
 11
171.1766176516
 21
52.246339451
 31
0.0
  0
LINE
  5
109
330
1F
100
AcDbEntity
  8
SLD-0
  6
Continuous
 62
   179
100
AcDbLine
 10
171.1766176516
 20
52.246339451
 30
0.0
 11
149.1766176516
 21
52.246339451
 31
0.0
  0
LINE
  5
10A
330
1F
100
AcDbEntity
  8
SLD-0
  6
Continuous
 62
   179
100
AcDbLine
 10
149.1766174003
 20
51.746339451
 30
0.0
 11
142.7683824003
 21
53.473916451
 31
0.0
  0
LINE
  5
10B
330
1F
100
AcDbEntity
  8
SLD-0
  6
Continuous
 62
   179
100
AcDbLine
 10
142.7683826516
 20
55.018763451
 30
0.0
 11
149.1766176516
 21
56.746339451
 31
0.0
  0
LINE
  5
10C
330
1F
100
AcDbEntity
  8
SLD-0
  6
Continuous
 62
   179
100
AcDbLine
 10
149.1766176516
 20
58.746339451
 30
0.0
 11
171.1766176516
 21
58.746339451
 31
0.0
  0
LINE
  5
10D
330
1F
100
AcDbEntity
  8
SLD-0
  6
Continuous
 62
   179
100
AcDbLine
 10
176.1766176516
 20
59.746339451
 30
0.0
 11
180.1766176516
 21
59.746339451
 31
0.0
  0
LINE
  5
10E
330
1F
100
AcDbEntity
  8
SLD-0
  6
Continuous
 62
   179
100
AcDbLine
 10
180.6766176516
 20
60.246339451
 30
0.0
 11
180.6766176516
 21
69.246339451
 31
0.0
  0
LINE
  5
10F
330
1F
100
AcDbEntity
  8
SLD-0
  6
Continuous
 62
   179
100
AcDbLine
 10
180.1766176516
 20
69.746339451
 30
0.0
 11
176.1766176516
 21
69.746339451
 31
0.0
  0
LINE
  5
110
330
1F
100
AcDbEntity
  8
SLD-0
  6
Continuous
 62
   179
100
AcDbLine
 10
171.1766176516
 20
70.746339451
 30
0.0
 11
149.1766176516
 21
70.746339451
 31
0.0
  0
LINE
  5
111
330
1F
100
AcDbEntity
  8
SLD-0
  6
Continuous
 62
   179
100
AcDbLine
 10
149.1766176516
 20
70.246339451
 30
0.0
 11
158.3766176516
 21
70.246339451
 31
0.0
  0
LINE
  5
112
330
1F
100
AcDbEntity
  8
SLD-0
  6
Continuous
 62
   179
100
AcDbLine
 10
158.3766176516
 20
70.246339451
 30
0.0
 11
158.3766176516
 21
59.246339451
 31
0.0
  0
LINE
  5
113
330
1F
100
AcDbEntity
  8
SLD-0
  6
Continuous
 62
   179
100
AcDbLine
 10
158.3766176516
 20
59.246339451
 30
0.0
 11
159.1766176516
 21
60.046339451
 31
0.0
  0
LINE
  5
114
330
1F
100
AcDbEntity
  8
SLD-0
  6
Continuous
 62
   179
100
AcDbLine
 10
159.1766176516
 20
60.046339451
 30
0.0
 11
159.1766176516
 21
69.446339451
 31
0.0
  0
LINE
  5
115
330
1F
100
AcDbEntity
  8
SLD-0
  6
Continuous
 62
   179
100
AcDbLine
 10
159.1766176516
 20
69.446339451
 30
0.0
 11
158.3766176516
 21
70.246339451
 31
0.0
  0
LINE
  5
116
330
1F
100
AcDbEntity
  8
SLD-0
  6
Continuous
 62
   179
100
AcDbLine
 10
159.7766176516
 20
68.446339451
 30
0.0
 11
159.7766176516
 21
61.046339451
 31
0.0
  0
LINE
  5
117
330
1F
100
AcDbEntity
  8
SLD-0
  6
Continuous
 62
   179
100
AcDbLine
 10
159.7536446516
 20
60.931206451
 30
0.0
 11
159.9885166516
 21
61.496339451
 31
0.0
  0
LINE
  5
118
330
1F
100
AcDbEntity
  8
SLD-0
  6
Continuous
 62
   179
100
AcDbLine
 10
159.7766176516
 20
61.496339451
 30
0.0
 11
163.7376806516
 21
61.496339451
 31
0.0
  0
LINE
  5
119
330
1F
100
AcDbEntity
  8
SLD-0
  6
Continuous
 62
   179
100
AcDbLine
 10
163.7913656516
 20
61.246339451
 30
0.0
 11
159.8846156516
 21
61.246339451
 31
0.0
  0
LINE
  5
11A
330
1F
100
AcDbEntity
  8
SLD-0
  6
Continuous
 62
   179
100
AcDbLine
 10
158.3766176516
 20
59.246339451
 30
0.0
 11
149.1766176516
 21
59.246339451
 31
0.0
  0
LINE
  5
11B
330
1F
100
AcDbEntity
  8
SLD-0
  6
Continuous
 62
   179
100
AcDbLine
 10
149.1766176516
 20
54.746339451
 30
0.0
 11
171.1766176516
 21
54.746339451
 31
0.0
  0
LINE
  5
11C
330
1F
100
AcDbEntity
  8
SLD-0
  6
Continuous
 62
   179
100
AcDbLine
 10
175.5766176516
 20
61.046339451
 30
0.0
 11
175.5766176516
 21
68.491251451
 31
0.0
  0
LINE
  5
11D
330
1F
100
AcDbEntity
  8
SLD-0
  6
Continuous
 62
   179
100
AcDbLine
 10
175.5897696516
 20
68.534195451
 30
0.0
 11
175.3362146516
 21
67.706339451
 31
0.0
  0
LINE
  5
11E
330
1F
100
AcDbEntity
  8
SLD-0
  6
Continuous
 62
   179
100
AcDbLine
 10
175.5766176516
 20
67.706339451
 30
0.0
 11
173.6766176516
 21
67.706339451
 31
0.0
  0
LINE
  5
11F
330
1F
100
AcDbEntity
  8
SLD-0
  6
Continuous
 62
   179
100
AcDbLine
 10
173.6766176516
 20
67.706339451
 30
0.0
 11
173.3866176516
 21
67.996339451
 31
0.0
  0
LINE
  5
120
330
1F
100
AcDbEntity
  8
SLD-0
  6
Continuous
 62
   179
100
AcDbLine
 10
173.3866176516
 20
67.996339451
 30
0.0
 11
173.3866176516
 21
63.567415451
 31
0.0
  0
LINE
  5
121
330
1F
100
AcDbEntity
  8
SLD-0
  6
Continuous
 62
   179
100
AcDbLine
 10
173.6766176516
 20
62.216939451
 30
0.0
 11
173.6766176516
 21
67.706339451
 31
0.0
  0
LINE
  5
122
330
1F
100
AcDbEntity
  8
SLD-0
  6
Continuous
 62
   179
100
AcDbLine
 10
173.3866176516
 20
67.996339451
 30
0.0
 11
172.4355546516
 21
67.996339451
 31
0.0
  0
LINE
  5
123
330
1F
100
AcDbEntity
  8
SLD-0
  6
Continuous
 62
   179
100
AcDbLine
 10
172.3818696516
 20
68.246339451
 30
0.0
 11
175.5016056516
 21
68.246339451
 31
0.0
  0
LINE
  5
124
330
1F
100
AcDbEntity
  8
SLD-0
  6
Continuous
 62
   179
100
AcDbLine
 10
172.3253966516
 20
68.509325451
 30
0.0
 11
173.9144656516
 21
61.109325451
 31
0.0
  0
LINE
  5
125
330
1F
100
AcDbEntity
  8
SLD-0
  6
Continuous
 62
   179
100
AcDbLine
 10
173.3278386516
 20
60.983353451
 30
0.0
 11
171.7387696516
 21
68.383353451
 31
0.0
  0
LINE
  5
126
330
1F
100
AcDbEntity
  8
SLD-0
  6
Continuous
 62
   179
100
AcDbLine
 10
171.7297786516
 20
68.425222451
 30
0.0
 11
171.6376806516
 21
67.996339451
 31
0.0
  0
LINE
  5
127
330
1F
100
AcDbEntity
  8
SLD-0
  6
Continuous
 62
   179
100
AcDbLine
 10
171.8218766516
 20
67.996339451
 30
0.0
 11
169.2755546516
 21
67.996339451
 31
0.0
  0
LINE
  5
128
330
1F
100
AcDbEntity
  8
SLD-0
  6
Continuous
 62
   179
100
AcDbLine
 10
169.2218696516
 20
68.246339451
 30
0.0
 11
171.6913656516
 21
68.246339451
 31
0.0
  0
LINE
  5
129
330
1F
100
AcDbEntity
  8
SLD-0
  6
Continuous
 62
   179
100
AcDbLine
 10
169.1653966516
 20
68.509325451
 30
0.0
 11
170.7634566516
 21
61.067456451
 31
0.0
  0
LINE
  5
12A
330
1F
100
AcDbEntity
  8
SLD-0
  6
Continuous
 62
   179
100
AcDbLine
 10
170.7453966145
 20
60.9833537545
 30
0.0
 11
170.8555546145
 21
61.4963397545
 31
0.0
  0
LINE
  5
12B
330
1F
100
AcDbEntity
  8
SLD-0
  6
Continuous
 62
   179
100
AcDbLine
 10
170.6713586516
 20
61.496339451
 30
0.0
 11
173.2176806516
 21
61.496339451
 31
0.0
  0
LINE
  5
12C
330
1F
100
AcDbEntity
  8
SLD-0
  6
Continuous
 62
   179
100
AcDbLine
 10
173.2713656516
 20
61.246339451
 30
0.0
 11
170.8018696516
 21
61.246339451
 31
0.0
  0
LINE
  5
12D
330
1F
100
AcDbEntity
  8
SLD-0
  6
Continuous
 62
   179
100
AcDbLine
 10
170.1826396516
 20
60.914429451
 30
0.0
 11
168.5697786516
 21
68.425222451
 31
0.0
  0
LINE
  5
12E
330
1F
100
AcDbEntity
  8
SLD-0
  6
Continuous
 62
   179
100
AcDbLine
 10
168.5697786516
 20
68.425222451
 30
0.0
 11
168.4776806516
 21
67.996339451
 31
0.0
  0
LINE
  5
12F
330
1F
100
AcDbEntity
  8
SLD-0
  6
Continuous
 62
   179
100
AcDbLine
 10
168.6618766516
 20
67.996339451
 30
0.0
 11
166.1155546516
 21
67.996339451
 31
0.0
  0
LINE
  5
130
330
1F
100
AcDbEntity
  8
SLD-0
  6
Continuous
 62
   179
100
AcDbLine
 10
166.0618696516
 20
68.246339451
 30
0.0
 11
168.5313656516
 21
68.246339451
 31
0.0
  0
LINE
  5
131
330
1F
100
AcDbEntity
  8
SLD-0
  6
Continuous
 62
   179
100
AcDbLine
 10
166.0053966516
 20
68.509325451
 30
0.0
 11
167.6034566516
 21
61.067456451
 31
0.0
  0
LINE
  5
132
330
1F
100
AcDbEntity
  8
SLD-0
  6
Continuous
 62
   179
100
AcDbLine
 10
167.5853966145
 20
60.9833537545
 30
0.0
 11
167.6955546145
 21
61.4963397545
 31
0.0
  0
LINE
  5
133
330
1F
100
AcDbEntity
  8
SLD-0
  6
Continuous
 62
   179
100
AcDbLine
 10
167.5113586516
 20
61.496339451
 30
0.0
 11
170.0576806516
 21
61.496339451
 31
0.0
  0
LINE
  5
134
330
1F
100
AcDbEntity
  8
SLD-0
  6
Continuous
 62
   179
100
AcDbLine
 10
170.1113656516
 20
61.246339451
 30
0.0
 11
167.6418696516
 21
61.246339451
 31
0.0
  0
LINE
  5
135
330
1F
100
AcDbEntity
  8
SLD-0
  6
Continuous
 62
   179
100
AcDbLine
 10
167.0226396516
 20
60.914429451
 30
0.0
 11
165.4097786516
 21
68.425222451
 31
0.0
  0
LINE
  5
136
330
1F
100
AcDbEntity
  8
SLD-0
  6
Continuous
 62
   179
100
AcDbLine
 10
165.4097786516
 20
68.425222451
 30
0.0
 11
165.3176806516
 21
67.996339451
 31
0.0
  0
LINE
  5
137
330
1F
100
AcDbEntity
  8
SLD-0
  6
Continuous
 62
   179
100
AcDbLine
 10
165.5018766516
 20
67.996339451
 30
0.0
 11
162.9555546516
 21
67.996339451
 31
0.0
  0
LINE
  5
138
330
1F
100
AcDbEntity
  8
SLD-0
  6
Continuous
 62
   179
100
AcDbLine
 10
162.9018696516
 20
68.246339451
 30
0.0
 11
165.3713656516
 21
68.246339451
 31
0.0
  0
LINE
  5
139
330
1F
100
AcDbEntity
  8
SLD-0
  6
Continuous
 62
   179
100
AcDbLine
 10
162.8453966516
 20
68.509325451
 30
0.0
 11
164.4434566516
 21
61.067456451
 31
0.0
  0
LINE
  5
13A
330
1F
100
AcDbEntity
  8
SLD-0
  6
Continuous
 62
   179
100
AcDbLine
 10
164.4253966145
 20
60.9833537545
 30
0.0
 11
164.5355546145
 21
61.4963397545
 31
0.0
  0
LINE
  5
13B
330
1F
100
AcDbEntity
  8
SLD-0
  6
Continuous
 62
   179
100
AcDbLine
 10
164.3513586516
 20
61.496339451
 30
0.0
 11
166.8976806516
 21
61.496339451
 31
0.0
  0
LINE
  5
13C
330
1F
100
AcDbEntity
  8
SLD-0
  6
Continuous
 62
   179
100
AcDbLine
 10
166.9513656516
 20
61.246339451
 30
0.0
 11
164.4818696516
 21
61.246339451
 31
0.0
  0
LINE
  5
13D
330
1F
100
AcDbEntity
  8
SLD-0
  6
Continuous
 62
   179
100
AcDbLine
 10
163.8626396516
 20
60.914429451
 30
0.0
 11
162.2587696516
 21
68.383353451
 31
0.0
  0
LINE
  5
13E
330
1F
100
AcDbEntity
  8
SLD-0
  6
Continuous
 62
   179
100
AcDbLine
 10
162.2522386516
 20
68.436678451
 30
0.0
 11
162.1576806516
 21
67.996339451
 31
0.0
  0
LINE
  5
13F
330
1F
100
AcDbEntity
  8
SLD-0
  6
Continuous
 62
   179
100
AcDbLine
 10
162.3418766516
 20
67.996339451
 30
0.0
 11
159.7766176516
 21
67.996339451
 31
0.0
  0
LINE
  5
140
330
1F
100
AcDbEntity
  8
SLD-0
  6
Continuous
 62
   179
100
AcDbLine
 10
159.7766176516
 20
68.246339451
 30
0.0
 11
162.2113656516
 21
68.246339451
 31
0.0
  0
LINE
  5
141
330
1F
100
AcDbEntity
  8
SLD-0
  6
Continuous
 62
   179
100
AcDbLine
 10
173.7690846516
 20
61.786339451
 30
0.0
 11
175.5766176516
 21
61.786339451
 31
0.0
  0
LINE
  5
142
330
1F
100
AcDbEntity
  8
SLD-0
  6
Continuous
 62
   179
100
AcDbLine
 10
175.5766176516
 20
61.246339451
 30
0.0
 11
173.9851616516
 21
61.246339451
 31
0.0
  0
LINE
  5
143
330
1F
100
AcDbEntity
  8
SLD-0
  6
Continuous
 62
   179
100
AcDbLine
 10
173.9210026516
 20
61.036860451
 30
0.0
 11
174.1505526516
 21
61.786339451
 31
0.0
  0
LINE
  5
144
330
1F
100
AcDbEntity
  8
SLD-0
  6
Continuous
 62
   179
100
AcDbLine
 10
169.6766176516
 20
49.746339451
 30
0.0
 11
169.6766176516
 21
45.746339451
 31
0.0
  0
LINE
  5
145
330
1F
100
AcDbEntity
  8
SLD-0
  6
Continuous
 62
   179
100
AcDbLine
 10
169.6766176516
 20
45.746339451
 30
0.0
 11
170.1766176516
 21
46.246339451
 31
0.0
  0
LINE
  5
146
330
1F
100
AcDbEntity
  8
SLD-0
  6
Continuous
 62
   179
100
AcDbLine
 10
170.1766176516
 20
46.246339451
 30
0.0
 11
170.1766176516
 21
49.246339451
 31
0.0
  0
LINE
  5
147
330
1F
100
AcDbEntity
  8
SLD-0
  6
Continuous
 62
   179
100
AcDbLine
 10
170.1766176516
 20
49.246339451
 30
0.0
 11
169.6766176516
 21
49.746339451
 31
0.0
  0
LINE
  5
148
330
1F
100
AcDbEntity
  8
SLD-0
  6
Continuous
 62
   179
100
AcDbLine
 10
169.6766176516
 20
49.746339451
 30
0.0
 11
165.5766176516
 21
49.746339451
 31
0.0
  0
LINE
  5
149
330
1F
100
AcDbEntity
  8
SLD-0
  6
Continuous
 62
   179
100
AcDbLine
 10
165.5766176516
 20
51.246339451
 30
0.0
 11
165.5766176516
 21
44.246339451
 31
0.0
  0
LINE
  5
14A
330
1F
100
AcDbEntity
  8
SLD-0
  6
Continuous
 62
   179
100
AcDbLine
 10
165.5766176516
 20
44.246339451
 30
0.0
 11
159.1766176516
 21
44.246339451
 31
0.0
  0
LINE
  5
14B
330
1F
100
AcDbEntity
  8
SLD-0
  6
Continuous
 62
   179
100
AcDbLine
 10
159.1766176516
 20
44.246339451
 30
0.0
 11
159.1766176516
 21
51.246339451
 31
0.0
  0
LINE
  5
14C
330
1F
100
AcDbEntity
  8
SLD-0
  6
Continuous
 62
   179
100
AcDbLine
 10
159.1766176516
 20
51.246339451
 30
0.0
 11
165.5766176516
 21
51.246339451
 31
0.0
  0
LINE
  5
14D
330
1F
100
AcDbEntity
  8
SLD-0
  6
Continuous
 62
   179
100
AcDbLine
 10
165.2640096516
 20
47.746339451
 30
0.0
 11
162.3766176516
 21
47.746339451
 31
0.0
  0
LINE
  5
14E
330
1F
100
AcDbEntity
  8
SLD-0
  6
Continuous
 62
   179
100
AcDbLine
 10
162.0640096516
 20
47.746339451
 30
0.0
 11
159.1766176516
 21
47.746339451
 31
0.0
  0
LINE
  5
14F
330
1F
100
AcDbEntity
  8
SLD-0
  6
Continuous
 62
   179
100
AcDbLine
 10
159.1766176516
 20
49.746339451
 30
0.0
 11
149.1766176516
 21
49.746339451
 31
0.0
  0
LINE
  5
150
330
1F
100
AcDbEntity
  8
SLD-0
  6
Continuous
 62
   179
100
AcDbLine
 10
149.1766176516
 20
45.746339451
 30
0.0
 11
159.1766176516
 21
45.746339451
 31
0.0
  0
LINE
  5
151
330
1F
100
AcDbEntity
  8
SLD-0
  6
Continuous
 62
   179
100
AcDbLine
 10
162.3766176516
 20
51.246339451
 30
0.0
 11
162.3766176516
 21
44.246339451
 31
0.0
  0
LINE
  5
152
330
1F
100
AcDbEntity
  8
SLD-0
  6
Continuous
 62
   179
100
AcDbLine
 10
165.5766176516
 20
45.746339451
 30
0.0
 11
169.6766176516
 21
45.746339451
 31
0.0
  0
LINE
  5
153
330
1F
100
AcDbEntity
  8
SLD-0
  6
Continuous
 62
   179
100
AcDbLine
 10
322.5555396516
 20
131.246339451
 30
0.0
 11
249.5555396516
 21
131.246339451
 31
0.0
  0
LINE
  5
154
330
1F
100
AcDbEntity
  8
SLD-0
  6
Continuous
 62
   179
100
AcDbLine
 10
249.5555396516
 20
131.246339451
 30
0.0
 11
249.5555396516
 21
134.446339451
 31
0.0
  0
LINE
  5
155
330
1F
100
AcDbEntity
  8
SLD-0
  6
Continuous
 62
   179
100
AcDbLine
 10
249.5555396516
 20
134.446339451
 30
0.0
 11
263.5555396516
 21
134.446339451
 31
0.0
  0
LINE
  5
156
330
1F
100
AcDbEntity
  8
SLD-0
  6
Continuous
 62
   179
100
AcDbLine
 10
263.5555396516
 20
131.246339451
 30
0.0
 11
263.5555396516
 21
188.946339451
 31
0.0
  0
LINE
  5
157
330
1F
100
AcDbEntity
  8
SLD-0
  6
Continuous
 62
   179
100
AcDbLine
 10
259.5555396516
 20
192.946339451
 30
0.0
 11
257.5555396516
 21
192.946339451
 31
0.0
  0
LINE
  5
158
330
1F
100
AcDbEntity
  8
SLD-0
  6
Continuous
 62
   179
100
AcDbLine
 10
249.5555396516
 20
200.946339451
 30
0.0
 11
249.5555396516
 21
205.946339451
 31
0.0
  0
LINE
  5
159
330
1F
100
AcDbEntity
  8
SLD-0
  6
Continuous
 62
   179
100
AcDbLine
 10
257.5555396516
 20
213.946339451
 30
0.0
 11
268.0555396516
 21
213.946339451
 31
0.0
  0
LINE
  5
15A
330
1F
100
AcDbEntity
  8
SLD-0
  6
Continuous
 62
   179
100
AcDbLine
 10
268.0555396516
 20
221.946339451
 30
0.0
 11
266.5555396516
 21
221.946339451
 31
0.0
  0
LINE
  5
15B
330
1F
100
AcDbEntity
  8
SLD-0
  6
Continuous
 62
   179
100
AcDbLine
 10
266.5555396516
 20
218.812364451
 30
0.0
 11
266.5555396516
 21
217.080314451
 31
0.0
  0
LINE
  5
15C
330
1F
100
AcDbEntity
  8
SLD-0
  6
Continuous
 62
   179
100
AcDbLine
 10
266.5555396516
 20
217.080314451
 30
0.0
 11
268.0555396516
 21
216.214288451
 31
0.0
  0
LINE
  5
15D
330
1F
100
AcDbEntity
  8
SLD-0
  6
Continuous
 62
   179
100
AcDbLine
 10
268.0555396516
 20
216.214288451
 30
0.0
 11
269.5555396516
 21
217.080314451
 31
0.0
  0
LINE
  5
15E
330
1F
100
AcDbEntity
  8
SLD-0
  6
Continuous
 62
   179
100
AcDbLine
 10
269.5555396516
 20
217.080314451
 30
0.0
 11
269.5555396516
 21
218.812364451
 31
0.0
  0
LINE
  5
15F
330
1F
100
AcDbEntity
  8
SLD-0
  6
Continuous
 62
   179
100
AcDbLine
 10
269.5555396516
 20
218.812364451
 30
0.0
 11
268.0555396516
 21
219.678390451
 31
0.0
  0
LINE
  5
160
330
1F
100
AcDbEntity
  8
SLD-0
  6
Continuous
 62
   179
100
AcDbLine
 10
268.0555396516
 20
219.678390451
 30
0.0
 11
266.5555396516
 21
218.812364451
 31
0.0
  0
LINE
  5
161
330
1F
100
AcDbEntity
  8
SLD-0
  6
Continuous
 62
   179
100
AcDbLine
 10
263.5555396516
 20
213.946339451
 30
0.0
 11
263.5555396516
 21
243.946339451
 31
0.0
  0
LINE
  5
162
330
1F
100
AcDbEntity
  8
SLD-0
  6
Continuous
 62
   179
100
AcDbLine
 10
263.5555396516
 20
243.946339451
 30
0.0
 11
266.3760906516
 21
243.946339451
 31
0.0
  0
LINE
  5
163
330
1F
100
AcDbEntity
  8
SLD-0
  6
Continuous
 62
   179
100
AcDbLine
 10
268.5555396516
 20
244.446339451
 30
0.0
 11
303.5555396516
 21
244.446339451
 31
0.0
  0
LINE
  5
164
330
1F
100
AcDbEntity
  8
SLD-0
  6
Continuous
 62
   179
100
AcDbLine
 10
308.5555396516
 20
243.946339451
 30
0.0
 11
308.5555396516
 21
213.946339451
 31
0.0
  0
LINE
  5
165
330
1F
100
AcDbEntity
  8
SLD-0
  6
Continuous
 62
   179
100
AcDbLine
 10
305.5555396516
 20
217.080314451
 30
0.0
 11
305.5555396516
 21
218.812364451
 31
0.0
  0
LINE
  5
166
330
1F
100
AcDbEntity
  8
SLD-0
  6
Continuous
 62
   179
100
AcDbLine
 10
305.5555396516
 20
218.812364451
 30
0.0
 11
304.0555396516
 21
219.678390451
 31
0.0
  0
LINE
  5
167
330
1F
100
AcDbEntity
  8
SLD-0
  6
Continuous
 62
   179
100
AcDbLine
 10
304.0555396516
 20
219.678390451
 30
0.0
 11
302.5555396516
 21
218.812364451
 31
0.0
  0
LINE
  5
168
330
1F
100
AcDbEntity
  8
SLD-0
  6
Continuous
 62
   179
100
AcDbLine
 10
302.5555396516
 20
218.812364451
 30
0.0
 11
302.5555396516
 21
217.080314451
 31
0.0
  0
LINE
  5
169
330
1F
100
AcDbEntity
  8
SLD-0
  6
Continuous
 62
   179
100
AcDbLine
 10
302.5555396516
 20
217.080314451
 30
0.0
 11
304.0555396516
 21
216.214288451
 31
0.0
  0
LINE
  5
16A
330
1F
100
AcDbEntity
  8
SLD-0
  6
Continuous
 62
   179
100
AcDbLine
 10
304.0555396516
 20
216.214288451
 30
0.0
 11
305.5555396516
 21
217.080314451
 31
0.0
  0
LINE
  5
16B
330
1F
100
AcDbEntity
  8
SLD-0
  6
Continuous
 62
   179
100
AcDbLine
 10
304.0555396516
 20
221.946339451
 30
0.0
 11
305.5555396516
 21
221.946339451
 31
0.0
  0
LINE
  5
16C
330
1F
100
AcDbEntity
  8
SLD-0
  6
Continuous
 62
   179
100
AcDbLine
 10
304.0555396516
 20
213.946339451
 30
0.0
 11
314.5555396516
 21
213.946339451
 31
0.0
  0
LINE
  5
16D
330
1F
100
AcDbEntity
  8
SLD-0
  6
Continuous
 62
   179
100
AcDbLine
 10
322.5555396516
 20
205.946339451
 30
0.0
 11
322.5555396516
 21
200.946339451
 31
0.0
  0
LINE
  5
16E
330
1F
100
AcDbEntity
  8
SLD-0
  6
Continuous
 62
   179
100
AcDbLine
 10
314.5555396516
 20
192.946339451
 30
0.0
 11
312.5555396516
 21
192.946339451
 31
0.0
  0
LINE
  5
16F
330
1F
100
AcDbEntity
  8
SLD-0
  6
Continuous
 62
   179
100
AcDbLine
 10
308.5555396516
 20
188.946339451
 30
0.0
 11
308.5555396516
 21
131.246339451
 31
0.0
  0
LINE
  5
170
330
1F
100
AcDbEntity
  8
SLD-0
  6
Continuous
 62
   179
100
AcDbLine
 10
308.5555396516
 20
134.446339451
 30
0.0
 11
322.5555396516
 21
134.446339451
 31
0.0
  0
LINE
  5
171
330
1F
100
AcDbEntity
  8
SLD-0
  6
Continuous
 62
   179
100
AcDbLine
 10
322.5555396516
 20
134.446339451
 30
0.0
 11
322.5555396516
 21
131.246339451
 31
0.0
  0
LINE
  5
172
330
1F
100
AcDbEntity
  8
SLD-0
  6
Continuous
 62
   179
100
AcDbLine
 10
299.0555396516
 20
131.2463391997
 30
0.0
 11
297.3279636516
 21
137.6545741997
 31
0.0
  0
LINE
  5
173
330
1F
100
AcDbEntity
  8
SLD-0
  6
Continuous
 62
   179
100
AcDbLine
 10
295.7831166516
 20
137.654574451
 30
0.0
 11
294.0555396516
 21
131.246339451
 31
0.0
  0
LINE
  5
174
330
1F
100
AcDbEntity
  8
SLD-0
  6
Continuous
 62
   179
100
AcDbLine
 10
278.0555396516
 20
131.2463391997
 30
0.0
 11
276.3279636516
 21
137.6545741997
 31
0.0
  0
LINE
  5
175
330
1F
100
AcDbEntity
  8
SLD-0
  6
Continuous
 62
   179
100
AcDbLine
 10
274.7831166516
 20
137.654574451
 30
0.0
 11
273.0555396516
 21
131.246339451
 31
0.0
  0
LINE
  5
176
330
1F
100
AcDbEntity
  8
SLD-0
  6
Continuous
 62
   179
100
AcDbLine
 10
266.5555396516
 20
173.946339451
 30
0.0
 11
268.0555396516
 21
173.946339451
 31
0.0
  0
LINE
  5
177
330
1F
100
AcDbEntity
  8
SLD-0
  6
Continuous
 62
   179
100
AcDbLine
 10
268.0555396516
 20
181.946339451
 30
0.0
 11
266.5555396516
 21
181.946339451
 31
0.0
  0
LINE
  5
178
330
1F
100
AcDbEntity
  8
SLD-0
  6
Continuous
 62
   179
100
AcDbLine
 10
266.5555396516
 20
178.812364451
 30
0.0
 11
268.0555396516
 21
179.678390451
 31
0.0
  0
LINE
  5
179
330
1F
100
AcDbEntity
  8
SLD-0
  6
Continuous
 62
   179
100
AcDbLine
 10
268.0555396516
 20
179.678390451
 30
0.0
 11
269.5555396516
 21
178.812364451
 31
0.0
  0
LINE
  5
17A
330
1F
100
AcDbEntity
  8
SLD-0
  6
Continuous
 62
   179
100
AcDbLine
 10
269.5555396516
 20
178.812364451
 30
0.0
 11
269.5555396516
 21
177.080314451
 31
0.0
  0
LINE
  5
17B
330
1F
100
AcDbEntity
  8
SLD-0
  6
Continuous
 62
   179
100
AcDbLine
 10
269.5555396516
 20
177.080314451
 30
0.0
 11
268.0555396516
 21
176.214288451
 31
0.0
  0
LINE
  5
17C
330
1F
100
AcDbEntity
  8
SLD-0
  6
Continuous
 62
   179
100
AcDbLine
 10
268.0555396516
 20
176.214288451
 30
0.0
 11
266.5555396516
 21
177.080314451
 31
0.0
  0
LINE
  5
17D
330
1F
100
AcDbEntity
  8
SLD-0
  6
Continuous
 62
   179
100
AcDbLine
 10
266.5555396516
 20
177.080314451
 30
0.0
 11
266.5555396516
 21
178.812364451
 31
0.0
  0
LINE
  5
17E
330
1F
100
AcDbEntity
  8
SLD-0
  6
Continuous
 62
   179
100
AcDbLine
 10
276.0555396516
 20
190.946339451
 30
0.0
 11
273.5555396516
 21
193.446339451
 31
0.0
  0
LINE
  5
17F
330
1F
100
AcDbEntity
  8
SLD-0
  6
Continuous
 62
   179
100
AcDbLine
 10
273.5555396516
 20
193.446339451
 30
0.0
 11
273.5555396516
 21
213.446339451
 31
0.0
  0
LINE
  5
180
330
1F
100
AcDbEntity
  8
SLD-0
  6
Continuous
 62
   179
100
AcDbLine
 10
273.5555396516
 20
213.446339451
 30
0.0
 11
276.0555396516
 21
215.946339451
 31
0.0
  0
LINE
  5
181
330
1F
100
AcDbEntity
  8
SLD-0
  6
Continuous
 62
   179
100
AcDbLine
 10
276.0555396516
 20
215.946339451
 30
0.0
 11
280.0555396516
 21
215.946339451
 31
0.0
  0
LINE
  5
182
330
1F
100
AcDbEntity
  8
SLD-0
  6
Continuous
 62
   179
100
AcDbLine
 10
280.0555396516
 20
215.946339451
 30
0.0
 11
282.5555396516
 21
213.446339451
 31
0.0
  0
LINE
  5
183
330
1F
100
AcDbEntity
  8
SLD-0
  6
Continuous
 62
   179
100
AcDbLine
 10
282.5555396516
 20
213.446339451
 30
0.0
 11
289.5555396516
 21
213.446339451
 31
0.0
  0
LINE
  5
184
330
1F
100
AcDbEntity
  8
SLD-0
  6
Continuous
 62
   179
100
AcDbLine
 10
289.5555396516
 20
213.446339451
 30
0.0
 11
292.0555396516
 21
215.946339451
 31
0.0
  0
LINE
  5
185
330
1F
100
AcDbEntity
  8
SLD-0
  6
Continuous
 62
   179
100
AcDbLine
 10
292.0555396516
 20
215.946339451
 30
0.0
 11
296.0555396516
 21
215.946339451
 31
0.0
  0
LINE
  5
186
330
1F
100
AcDbEntity
  8
SLD-0
  6
Continuous
 62
   179
100
AcDbLine
 10
296.0555396516
 20
215.946339451
 30
0.0
 11
298.5555396516
 21
213.446339451
 31
0.0
  0
LINE
  5
187
330
1F
100
AcDbEntity
  8
SLD-0
  6
Continuous
 62
   179
100
AcDbLine
 10
298.5555396516
 20
213.446339451
 30
0.0
 11
298.5555396516
 21
209.446339451
 31
0.0
  0
LINE
  5
188
330
1F
100
AcDbEntity
  8
SLD-0
  6
Continuous
 62
   179
100
AcDbLine
 10
298.5555396516
 20
209.446339451
 30
0.0
 11
296.0555396516
 21
206.946339451
 31
0.0
  0
LINE
  5
189
330
1F
100
AcDbEntity
  8
SLD-0
  6
Continuous
 62
   179
100
AcDbLine
 10
296.0555396516
 20
206.946339451
 30
0.0
 11
296.0555396516
 21
199.946339451
 31
0.0
  0
LINE
  5
18A
330
1F
100
AcDbEntity
  8
SLD-0
  6
Continuous
 62
   179
100
AcDbLine
 10
296.0555396516
 20
199.946339451
 30
0.0
 11
298.5555396516
 21
197.446339451
 31
0.0
  0
LINE
  5
18B
330
1F
100
AcDbEntity
  8
SLD-0
  6
Continuous
 62
   179
100
AcDbLine
 10
298.5555396516
 20
197.446339451
 30
0.0
 11
298.5555396516
 21
193.446339451
 31
0.0
  0
LINE
  5
18C
330
1F
100
AcDbEntity
  8
SLD-0
  6
Continuous
 62
   179
100
AcDbLine
 10
298.5555396516
 20
193.446339451
 30
0.0
 11
296.0555396516
 21
190.946339451
 31
0.0
  0
LINE
  5
18D
330
1F
100
AcDbEntity
  8
SLD-0
  6
Continuous
 62
   179
100
AcDbLine
 10
296.0555396516
 20
190.946339451
 30
0.0
 11
292.0555396516
 21
190.946339451
 31
0.0
  0
LINE
  5
18E
330
1F
100
AcDbEntity
  8
SLD-0
  6
Continuous
 62
   179
100
AcDbLine
 10
292.0555396516
 20
190.946339451
 30
0.0
 11
289.5555396516
 21
193.446339451
 31
0.0
  0
LINE
  5
18F
330
1F
100
AcDbEntity
  8
SLD-0
  6
Continuous
 62
   179
100
AcDbLine
 10
289.5555396516
 20
193.446339451
 30
0.0
 11
282.5555396516
 21
193.446339451
 31
0.0
  0
LINE
  5
190
330
1F
100
AcDbEntity
  8
SLD-0
  6
Continuous
 62
   179
100
AcDbLine
 10
282.5555396516
 20
193.446339451
 30
0.0
 11
280.0555396516
 21
190.946339451
 31
0.0
  0
LINE
  5
191
330
1F
100
AcDbEntity
  8
SLD-0
  6
Continuous
 62
   179
100
AcDbLine
 10
280.0555396516
 20
190.946339451
 30
0.0
 11
276.0555396516
 21
190.946339451
 31
0.0
  0
LINE
  5
192
330
1F
100
AcDbEntity
  8
SLD-0
  6
Continuous
 62
   179
100
AcDbLine
 10
277.5555396516
 20
194.397301451
 30
0.0
 11
276.8055396516
 21
195.696339451
 31
0.0
  0
LINE
  5
193
330
1F
100
AcDbEntity
  8
SLD-0
  6
Continuous
 62
   179
100
AcDbLine
 10
276.8055396516
 20
195.696339451
 30
0.0
 11
277.5555396516
 21
196.995377451
 31
0.0
  0
LINE
  5
194
330
1F
100
AcDbEntity
  8
SLD-0
  6
Continuous
 62
   179
100
AcDbLine
 10
277.5555396516
 20
196.995377451
 30
0.0
 11
279.0555396516
 21
196.995377451
 31
0.0
  0
LINE
  5
195
330
1F
100
AcDbEntity
  8
SLD-0
  6
Continuous
 62
   179
100
AcDbLine
 10
279.0555396516
 20
196.995377451
 30
0.0
 11
279.8055396516
 21
195.696339451
 31
0.0
  0
LINE
  5
196
330
1F
100
AcDbEntity
  8
SLD-0
  6
Continuous
 62
   179
100
AcDbLine
 10
279.8055396516
 20
195.696339451
 30
0.0
 11
279.0555396516
 21
194.397301451
 31
0.0
  0
LINE
  5
197
330
1F
100
AcDbEntity
  8
SLD-0
  6
Continuous
 62
   179
100
AcDbLine
 10
279.0555396516
 20
194.397301451
 30
0.0
 11
277.5555396516
 21
194.397301451
 31
0.0
  0
LINE
  5
198
330
1F
100
AcDbEntity
  8
SLD-0
  6
Continuous
 62
   179
100
AcDbLine
 10
260.7555396516
 20
205.246339451
 30
0.0
 11
260.7555396516
 21
201.646339451
 31
0.0
  0
LINE
  5
199
330
1F
100
AcDbEntity
  8
SLD-0
  6
Continuous
 62
   179
100
AcDbLine
 10
254.3555396516
 20
201.646339451
 30
0.0
 11
254.3555396516
 21
205.246339451
 31
0.0
  0
LINE
  5
19A
330
1F
100
AcDbEntity
  8
SLD-0
  6
Continuous
 62
   179
100
AcDbLine
 10
277.0065016516
 20
210.446339451
 30
0.0
 11
278.3055396516
 21
209.696339451
 31
0.0
  0
LINE
  5
19B
330
1F
100
AcDbEntity
  8
SLD-0
  6
Continuous
 62
   179
100
AcDbLine
 10
278.3055396516
 20
209.696339451
 30
0.0
 11
279.6045776516
 21
210.446339451
 31
0.0
  0
LINE
  5
19C
330
1F
100
AcDbEntity
  8
SLD-0
  6
Continuous
 62
   179
100
AcDbLine
 10
279.6045776516
 20
210.446339451
 30
0.0
 11
279.6045776516
 21
211.946339451
 31
0.0
  0
LINE
  5
19D
330
1F
100
AcDbEntity
  8
SLD-0
  6
Continuous
 62
   179
100
AcDbLine
 10
279.6045776516
 20
211.946339451
 30
0.0
 11
278.3055396516
 21
212.696339451
 31
0.0
  0
LINE
  5
19E
330
1F
100
AcDbEntity
  8
SLD-0
  6
Continuous
 62
   179
100
AcDbLine
 10
278.3055396516
 20
212.696339451
 30
0.0
 11
277.0065016516
 21
211.946339451
 31
0.0
  0
LINE
  5
19F
330
1F
100
AcDbEntity
  8
SLD-0
  6
Continuous
 62
   179
100
AcDbLine
 10
277.0065016516
 20
211.946339451
 30
0.0
 11
277.0065016516
 21
210.446339451
 31
0.0
  0
LINE
  5
1A0
330
1F
100
AcDbEntity
  8
SLD-0
  6
Continuous
 62
   179
100
AcDbLine
 10
285.0624976516
 20
221.726339451
 30
0.0
 11
287.0485826516
 21
221.726339451
 31
0.0
  0
LINE
  5
1A1
330
1F
100
AcDbEntity
  8
SLD-0
  6
Continuous
 62
   179
100
AcDbLine
 10
287.0485826516
 20
221.726339451
 30
0.0
 11
288.0416246516
 21
223.446339451
 31
0.0
  0
LINE
  5
1A2
330
1F
100
AcDbEntity
  8
SLD-0
  6
Continuous
 62
   179
100
AcDbLine
 10
288.0416246516
 20
223.446339451
 30
0.0
 11
287.0485826516
 21
225.166339451
 31
0.0
  0
LINE
  5
1A3
330
1F
100
AcDbEntity
  8
SLD-0
  6
Continuous
 62
   179
100
AcDbLine
 10
287.0485826516
 20
225.166339451
 30
0.0
 11
285.0624976516
 21
225.166339451
 31
0.0
  0
LINE
  5
1A4
330
1F
100
AcDbEntity
  8
SLD-0
  6
Continuous
 62
   179
100
AcDbLine
 10
285.0624976516
 20
225.166339451
 30
0.0
 11
284.0694546516
 21
223.446339451
 31
0.0
  0
LINE
  5
1A5
330
1F
100
AcDbEntity
  8
SLD-0
  6
Continuous
 62
   179
100
AcDbLine
 10
284.0694546516
 20
223.446339451
 30
0.0
 11
285.0624976516
 21
221.726339451
 31
0.0
  0
LINE
  5
1A6
330
1F
100
AcDbEntity
  8
SLD-0
  6
Continuous
 62
   179
100
AcDbLine
 10
293.0555396516
 20
212.495377451
 30
0.0
 11
294.5555396516
 21
212.495377451
 31
0.0
  0
LINE
  5
1A7
330
1F
100
AcDbEntity
  8
SLD-0
  6
Continuous
 62
   179
100
AcDbLine
 10
294.5555396516
 20
212.495377451
 30
0.0
 11
295.3055396516
 21
211.196339451
 31
0.0
  0
LINE
  5
1A8
330
1F
100
AcDbEntity
  8
SLD-0
  6
Continuous
 62
   179
100
AcDbLine
 10
295.3055396516
 20
211.196339451
 30
0.0
 11
294.5555396516
 21
209.897301451
 31
0.0
  0
LINE
  5
1A9
330
1F
100
AcDbEntity
  8
SLD-0
  6
Continuous
 62
   179
100
AcDbLine
 10
294.5555396516
 20
209.897301451
 30
0.0
 11
293.0555396516
 21
209.897301451
 31
0.0
  0
LINE
  5
1AA
330
1F
100
AcDbEntity
  8
SLD-0
  6
Continuous
 62
   179
100
AcDbLine
 10
293.0555396516
 20
209.897301451
 30
0.0
 11
292.3055396516
 21
211.196339451
 31
0.0
  0
LINE
  5
1AB
330
1F
100
AcDbEntity
  8
SLD-0
  6
Continuous
 62
   179
100
AcDbLine
 10
292.3055396516
 20
211.196339451
 30
0.0
 11
293.0555396516
 21
212.495377451
 31
0.0
  0
LINE
  5
1AC
330
1F
100
AcDbEntity
  8
SLD-0
  6
Continuous
 62
   179
100
AcDbLine
 10
299.5555396516
 20
205.467065451
 30
0.0
 11
299.5555396516
 21
201.425613451
 31
0.0
  0
LINE
  5
1AD
330
1F
100
AcDbEntity
  8
SLD-0
  6
Continuous
 62
   179
100
AcDbLine
 10
299.5555396516
 20
201.425613451
 30
0.0
 11
303.0555396516
 21
199.404887451
 31
0.0
  0
LINE
  5
1AE
330
1F
100
AcDbEntity
  8
SLD-0
  6
Continuous
 62
   179
100
AcDbLine
 10
303.0555396516
 20
199.404887451
 30
0.0
 11
306.5555396516
 21
201.425613451
 31
0.0
  0
LINE
  5
1AF
330
1F
100
AcDbEntity
  8
SLD-0
  6
Continuous
 62
   179
100
AcDbLine
 10
306.5555396516
 20
201.425613451
 30
0.0
 11
306.5555396516
 21
205.467065451
 31
0.0
  0
LINE
  5
1B0
330
1F
100
AcDbEntity
  8
SLD-0
  6
Continuous
 62
   179
100
AcDbLine
 10
306.5555396516
 20
205.467065451
 30
0.0
 11
303.0555396516
 21
207.487791451
 31
0.0
  0
LINE
  5
1B1
330
1F
100
AcDbEntity
  8
SLD-0
  6
Continuous
 62
   179
100
AcDbLine
 10
303.0555396516
 20
207.487791451
 30
0.0
 11
299.5555396516
 21
205.467065451
 31
0.0
  0
LINE
  5
1B2
330
1F
100
AcDbEntity
  8
SLD-0
  6
Continuous
 62
   179
100
AcDbLine
 10
295.1045776516
 20
196.446339451
 30
0.0
 11
293.8055396516
 21
197.196339451
 31
0.0
  0
LINE
  5
1B3
330
1F
100
AcDbEntity
  8
SLD-0
  6
Continuous
 62
   179
100
AcDbLine
 10
293.8055396516
 20
197.196339451
 30
0.0
 11
292.5065016516
 21
196.446339451
 31
0.0
  0
LINE
  5
1B4
330
1F
100
AcDbEntity
  8
SLD-0
  6
Continuous
 62
   179
100
AcDbLine
 10
292.5065016516
 20
196.446339451
 30
0.0
 11
292.5065016516
 21
194.946339451
 31
0.0
  0
LINE
  5
1B5
330
1F
100
AcDbEntity
  8
SLD-0
  6
Continuous
 62
   179
100
AcDbLine
 10
292.5065016516
 20
194.946339451
 30
0.0
 11
293.8055396516
 21
194.196339451
 31
0.0
  0
LINE
  5
1B6
330
1F
100
AcDbEntity
  8
SLD-0
  6
Continuous
 62
   179
100
AcDbLine
 10
293.8055396516
 20
194.196339451
 30
0.0
 11
295.1045776516
 21
194.946339451
 31
0.0
  0
LINE
  5
1B7
330
1F
100
AcDbEntity
  8
SLD-0
  6
Continuous
 62
   179
100
AcDbLine
 10
295.1045776516
 20
194.946339451
 30
0.0
 11
295.1045776516
 21
196.446339451
 31
0.0
  0
LINE
  5
1B8
330
1F
100
AcDbEntity
  8
SLD-0
  6
Continuous
 62
   179
100
AcDbLine
 10
287.0485826516
 20
185.166339451
 30
0.0
 11
288.0416246516
 21
183.446339451
 31
0.0
  0
LINE
  5
1B9
330
1F
100
AcDbEntity
  8
SLD-0
  6
Continuous
 62
   179
100
AcDbLine
 10
288.0416246516
 20
183.446339451
 30
0.0
 11
287.0485826516
 21
181.726339451
 31
0.0
  0
LINE
  5
1BA
330
1F
100
AcDbEntity
  8
SLD-0
  6
Continuous
 62
   179
100
AcDbLine
 10
287.0485826516
 20
181.726339451
 30
0.0
 11
285.0624976516
 21
181.726339451
 31
0.0
  0
LINE
  5
1BB
330
1F
100
AcDbEntity
  8
SLD-0
  6
Continuous
 62
   179
100
AcDbLine
 10
285.0624976516
 20
181.726339451
 30
0.0
 11
284.0694546516
 21
183.446339451
 31
0.0
  0
LINE
  5
1BC
330
1F
100
AcDbEntity
  8
SLD-0
  6
Continuous
 62
   179
100
AcDbLine
 10
284.0694546516
 20
183.446339451
 30
0.0
 11
285.0624976516
 21
185.166339451
 31
0.0
  0
LINE
  5
1BD
330
1F
100
AcDbEntity
  8
SLD-0
  6
Continuous
 62
   179
100
AcDbLine
 10
285.0624976516
 20
185.166339451
 30
0.0
 11
287.0485826516
 21
185.166339451
 31
0.0
  0
LINE
  5
1BE
330
1F
100
AcDbEntity
  8
SLD-0
  6
Continuous
 62
   179
100
AcDbLine
 10
302.5555396516
 20
178.812364451
 30
0.0
 11
304.0555396516
 21
179.678390451
 31
0.0
  0
LINE
  5
1BF
330
1F
100
AcDbEntity
  8
SLD-0
  6
Continuous
 62
   179
100
AcDbLine
 10
304.0555396516
 20
179.678390451
 30
0.0
 11
305.5555396516
 21
178.812364451
 31
0.0
  0
LINE
  5
1C0
330
1F
100
AcDbEntity
  8
SLD-0
  6
Continuous
 62
   179
100
AcDbLine
 10
305.5555396516
 20
178.812364451
 30
0.0
 11
305.5555396516
 21
177.080314451
 31
0.0
  0
LINE
  5
1C1
330
1F
100
AcDbEntity
  8
SLD-0
  6
Continuous
 62
   179
100
AcDbLine
 10
305.5555396516
 20
177.080314451
 30
0.0
 11
304.0555396516
 21
176.214288451
 31
0.0
  0
LINE
  5
1C2
330
1F
100
AcDbEntity
  8
SLD-0
  6
Continuous
 62
   179
100
AcDbLine
 10
304.0555396516
 20
176.214288451
 30
0.0
 11
302.5555396516
 21
177.080314451
 31
0.0
  0
LINE
  5
1C3
330
1F
100
AcDbEntity
  8
SLD-0
  6
Continuous
 62
   179
100
AcDbLine
 10
302.5555396516
 20
177.080314451
 30
0.0
 11
302.5555396516
 21
178.812364451
 31
0.0
  0
LINE
  5
1C4
330
1F
100
AcDbEntity
  8
SLD-0
  6
Continuous
 62
   179
100
AcDbLine
 10
304.0555396516
 20
173.946339451
 30
0.0
 11
305.5555396516
 21
173.946339451
 31
0.0
  0
LINE
  5
1C5
330
1F
100
AcDbEntity
  8
SLD-0
  6
Continuous
 62
   179
100
AcDbLine
 10
305.5555396516
 20
181.946339451
 30
0.0
 11
304.0555396516
 21
181.946339451
 31
0.0
  0
LINE
  5
1C6
330
1F
100
AcDbEntity
  8
SLD-0
  6
Continuous
 62
   179
100
AcDbLine
 10
305.7349896516
 20
243.946339451
 30
0.0
 11
308.5555396516
 21
243.946339451
 31
0.0
  0
LINE
  5
1C7
330
1F
100
AcDbEntity
  8
SLD-0
  6
Continuous
 62
   179
100
AcDbLine
 10
308.5555396516
 20
243.946339451
 30
0.0
 11
296.0555396516
 21
267.946339451
 31
0.0
  0
LINE
  5
1C8
330
1F
100
AcDbEntity
  8
SLD-0
  6
Continuous
 62
   179
100
AcDbLine
 10
296.0555396516
 20
267.946339451
 30
0.0
 11
276.0555396516
 21
267.946339451
 31
0.0
  0
LINE
  5
1C9
330
1F
100
AcDbEntity
  8
SLD-0
  6
Continuous
 62
   179
100
AcDbLine
 10
276.0555396516
 20
267.946339451
 30
0.0
 11
263.5555396516
 21
243.946339451
 31
0.0
  0
LINE
  5
1CA
330
1F
100
AcDbEntity
  8
SLD-0
  6
Continuous
 62
   179
100
AcDbLine
 10
283.695410578
 20
256.3618104607
 30
0.0
 11
284.477889578
 21
257.7171034607
 31
0.0
  0
LINE
  5
1CB
330
1F
100
AcDbEntity
  8
SLD-0
  6
Continuous
 62
   179
100
AcDbLine
 10
284.0555396516
 20
258.946339451
 30
0.0
 11
283.7751886516
 21
258.946339451
 31
0.0
  0
LINE
  5
1CC
330
1F
100
AcDbEntity
  8
SLD-0
  6
Continuous
 62
   179
100
AcDbLine
 10
285.2454135217
 20
261.0439384774
 30
0.0
 11
285.3101725217
 21
260.8022564774
 31
0.0
  0
LINE
  5
1CD
330
1F
100
AcDbEntity
  8
SLD-0
  6
Continuous
 62
   179
100
AcDbLine
 10
286.800907711
 20
260.8022563821
 30
0.0
 11
286.865665711
 21
261.0439383821
 31
0.0
  0
LINE
  5
1CE
330
1F
100
AcDbEntity
  8
SLD-0
  6
Continuous
 62
   179
100
AcDbLine
 10
288.3358906516
 20
258.946339451
 30
0.0
 11
288.0555396516
 21
258.946339451
 31
0.0
  0
LINE
  5
1CF
330
1F
100
AcDbEntity
  8
SLD-0
  6
Continuous
 62
   179
100
AcDbLine
 10
287.633189578
 20
257.7171034607
 30
0.0
 11
288.415668578
 21
256.3618104607
 31
0.0
  0
LINE
  5
1D0
330
1F
100
AcDbEntity
  8
SLD-0
  6
Continuous
 62
   179
100
AcDbLine
 10
311.3555396516
 20
205.246339451
 30
0.0
 11
311.3555396516
 21
201.646339451
 31
0.0
  0
LINE
  5
1D1
330
1F
100
AcDbEntity
  8
SLD-0
  6
Continuous
 62
   179
100
AcDbLine
 10
317.7555396516
 20
201.646339451
 30
0.0
 11
317.7555396516
 21
205.246339451
 31
0.0
  0
LINE
  5
1D2
330
1F
100
AcDbEntity
  8
SLD-0
  6
Continuous
 62
   179
100
AcDbLine
 10
126.1656726516
 20
253.535394451
 30
0.0
 11
126.3766176516
 21
253.746339451
 31
0.0
  0
LINE
  5
1D3
330
1F
100
AcDbEntity
  8
SLD-0
  6
Continuous
 62
   179
100
AcDbLine
 10
126.3766176516
 20
253.746339451
 30
0.0
 11
126.3766176516
 21
264.146339451
 31
0.0
  0
LINE
  5
1D4
330
1F
100
AcDbEntity
  8
SLD-0
  6
Continuous
 62
   179
100
AcDbLine
 10
126.3766176516
 20
264.146339451
 30
0.0
 11
126.0766176516
 21
264.446339451
 31
0.0
  0
LINE
  5
1D5
330
1F
100
AcDbEntity
  8
SLD-0
  6
Continuous
 62
   179
100
AcDbLine
 10
126.0766176516
 20
264.446339451
 30
0.0
 11
125.6766176516
 21
264.446339451
 31
0.0
  0
LINE
  5
1D6
330
1F
100
AcDbEntity
  8
SLD-0
  6
Continuous
 62
   179
100
AcDbLine
 10
126.0766176516
 20
264.446339451
 30
0.0
 11
126.0766176516
 21
253.880763451
 31
0.0
  0
LINE
  5
1D7
330
1F
100
AcDbEntity
  8
SLD-0
  6
Continuous
 62
   179
100
AcDbLine
 10
127.3766176516
 20
256.361810451
 30
0.0
 11
127.9766176516
 21
256.361810451
 31
0.0
  0
LINE
  5
1D8
330
1F
100
AcDbEntity
  8
SLD-0
  6
Continuous
 62
   179
100
AcDbLine
 10
127.9766176516
 20
256.361810451
 30
0.0
 11
127.9766176516
 21
262.446339451
 31
0.0
  0
LINE
  5
1D9
330
1F
100
AcDbEntity
  8
SLD-0
  6
Continuous
 62
   179
100
AcDbLine
 10
127.9766176516
 20
262.446339451
 30
0.0
 11
127.3766176516
 21
262.446339451
 31
0.0
  0
LINE
  5
1DA
330
1F
100
AcDbEntity
  8
SLD-0
  6
Continuous
 62
   179
100
AcDbLine
 10
127.3766176516
 20
262.446339451
 30
0.0
 11
127.3766176516
 21
256.361810451
 31
0.0
  0
LINE
  5
1DB
330
1F
100
AcDbEntity
  8
SLD-0
  6
Continuous
 62
   179
100
AcDbLine
 10
127.1766176516
 20
256.946339451
 30
0.0
 11
127.1766176516
 21
260.946339451
 31
0.0
  0
LINE
  5
1DC
330
1F
100
AcDbEntity
  8
SLD-0
  6
Continuous
 62
   179
100
AcDbLine
 10
127.1766176516
 20
260.946339451
 30
0.0
 11
126.3766176516
 21
260.946339451
 31
0.0
  0
LINE
  5
1DD
330
1F
100
AcDbEntity
  8
SLD-0
  6
Continuous
 62
   179
100
AcDbLine
 10
127.1766176516
 20
260.471339451
 30
0.0
 11
127.3766176516
 21
260.471339451
 31
0.0
  0
LINE
  5
1DE
330
1F
100
AcDbEntity
  8
SLD-0
  6
Continuous
 62
   179
100
AcDbLine
 10
127.9766176516
 20
260.471339451
 30
0.0
 11
128.1766176516
 21
260.471339451
 31
0.0
  0
LINE
  5
1DF
330
1F
100
AcDbEntity
  8
SLD-0
  6
Continuous
 62
   179
100
AcDbLine
 10
128.1766176516
 20
260.946339451
 30
0.0
 11
128.1766176516
 21
256.946339451
 31
0.0
  0
LINE
  5
1E0
330
1F
100
AcDbEntity
  8
SLD-0
  6
Continuous
 62
   179
100
AcDbLine
 10
128.1766176516
 20
256.946339451
 30
0.0
 11
129.1766176516
 21
256.946339451
 31
0.0
  0
LINE
  5
1E1
330
1F
100
AcDbEntity
  8
SLD-0
  6
Continuous
 62
   179
100
AcDbLine
 10
129.1766176516
 20
256.946339451
 30
0.0
 11
129.6766176516
 21
257.446339451
 31
0.0
  0
LINE
  5
1E2
330
1F
100
AcDbEntity
  8
SLD-0
  6
Continuous
 62
   179
100
AcDbLine
 10
129.6766176516
 20
257.446339451
 30
0.0
 11
129.6766176516
 21
260.446339451
 31
0.0
  0
LINE
  5
1E3
330
1F
100
AcDbEntity
  8
SLD-0
  6
Continuous
 62
   179
100
AcDbLine
 10
129.6766176516
 20
260.446339451
 30
0.0
 11
129.1766176516
 21
260.946339451
 31
0.0
  0
LINE
  5
1E4
330
1F
100
AcDbEntity
  8
SLD-0
  6
Continuous
 62
   179
100
AcDbLine
 10
129.1766176516
 20
260.946339451
 30
0.0
 11
129.1766176516
 21
256.946339451
 31
0.0
  0
LINE
  5
1E5
330
1F
100
AcDbEntity
  8
SLD-0
  6
Continuous
 62
   179
100
AcDbLine
 10
128.1766176516
 20
257.421339451
 30
0.0
 11
127.9766176516
 21
257.421339451
 31
0.0
  0
LINE
  5
1E6
330
1F
100
AcDbEntity
  8
SLD-0
  6
Continuous
 62
   179
100
AcDbLine
 10
127.3766176516
 20
257.421339451
 30
0.0
 11
127.1766176516
 21
257.421339451
 31
0.0
  0
LINE
  5
1E7
330
1F
100
AcDbEntity
  8
SLD-0
  6
Continuous
 62
   179
100
AcDbLine
 10
127.1766176516
 20
256.946339451
 30
0.0
 11
126.3766176516
 21
256.946339451
 31
0.0
  0
LINE
  5
1E8
330
1F
100
AcDbEntity
  8
SLD-0
  6
Continuous
 62
   179
100
AcDbLine
 10
128.1766176516
 20
260.946339451
 30
0.0
 11
129.1766176516
 21
260.946339451
 31
0.0
  0
LINE
  5
1E9
330
1F
100
AcDbEntity
  8
SLD-0
  6
Continuous
 62
   179
100
AcDbLine
 10
118.6766176516
 20
260.946339451
 30
0.0
 11
106.6766176516
 21
260.946339451
 31
0.0
  0
LINE
  5
1EA
330
1F
100
AcDbEntity
  8
SLD-0
  6
Continuous
 62
   179
100
AcDbLine
 10
106.6766176516
 20
256.946339451
 30
0.0
 11
118.6766176516
 21
256.946339451
 31
0.0
  0
LINE
  5
1EB
330
1F
100
AcDbEntity
  8
SLD-0
  6
Continuous
 62
   179
100
AcDbLine
 10
99.2766176516
 20
253.880763451
 30
0.0
 11
99.2766176516
 21
264.446339451
 31
0.0
  0
LINE
  5
1EC
330
1F
100
AcDbEntity
  8
SLD-0
  6
Continuous
 62
   179
100
AcDbLine
 10
99.2766176516
 20
264.446339451
 30
0.0
 11
98.9766176516
 21
264.146339451
 31
0.0
  0
LINE
  5
1ED
330
1F
100
AcDbEntity
  8
SLD-0
  6
Continuous
 62
   179
100
AcDbLine
 10
98.9766176516
 20
264.146339451
 30
0.0
 11
98.9766176516
 21
253.746339451
 31
0.0
  0
LINE
  5
1EE
330
1F
100
AcDbEntity
  8
SLD-0
  6
Continuous
 62
   179
100
AcDbLine
 10
98.9766176516
 20
253.746339451
 30
0.0
 11
99.1875626516
 21
253.535394451
 31
0.0
  0
LINE
  5
1EF
330
1F
100
AcDbEntity
  8
SLD-0
  6
Continuous
 62
   179
100
AcDbLine
 10
98.9766176516
 20
256.946339451
 30
0.0
 11
98.2766176516
 21
256.946339451
 31
0.0
  0
LINE
  5
1F0
330
1F
100
AcDbEntity
  8
SLD-0
  6
Continuous
 62
   179
100
AcDbLine
 10
97.2766176516
 20
256.346339451
 30
0.0
 11
97.2766176516
 21
260.346339451
 31
0.0
  0
LINE
  5
1F1
330
1F
100
AcDbEntity
  8
SLD-0
  6
Continuous
 62
   179
100
AcDbLine
 10
98.2766176516
 20
260.346339451
 30
0.0
 11
98.2766176516
 21
256.346339451
 31
0.0
  0
LINE
  5
1F2
330
1F
100
AcDbEntity
  8
SLD-0
  6
Continuous
 62
   179
100
AcDbLine
 10
97.2766176516
 20
256.946339451
 30
0.0
 11
96.1766176516
 21
256.946339451
 31
0.0
  0
LINE
  5
1F3
330
1F
100
AcDbEntity
  8
SLD-0
  6
Continuous
 62
   179
100
AcDbLine
 10
96.1766176516
 20
256.946339451
 30
0.0
 11
95.6766176516
 21
257.446339451
 31
0.0
  0
LINE
  5
1F4
330
1F
100
AcDbEntity
  8
SLD-0
  6
Continuous
 62
   179
100
AcDbLine
 10
95.6766176516
 20
257.446339451
 30
0.0
 11
95.6766176516
 21
260.446339451
 31
0.0
  0
LINE
  5
1F5
330
1F
100
AcDbEntity
  8
SLD-0
  6
Continuous
 62
   179
100
AcDbLine
 10
95.6766176516
 20
260.446339451
 30
0.0
 11
96.1766176516
 21
260.946339451
 31
0.0
  0
LINE
  5
1F6
330
1F
100
AcDbEntity
  8
SLD-0
  6
Continuous
 62
   179
100
AcDbLine
 10
96.1766176516
 20
260.946339451
 30
0.0
 11
98.9766176516
 21
260.946339451
 31
0.0
  0
LINE
  5
1F7
330
1F
100
AcDbEntity
  8
SLD-0
  6
Continuous
 62
   179
100
AcDbLine
 10
99.2766176516
 20
264.446339451
 30
0.0
 11
99.6766176516
 21
264.446339451
 31
0.0
  0
LINE
  5
1F8
330
1F
100
AcDbEntity
  8
SLD-0
  6
Continuous
 62
   179
100
AcDbLine
 10
96.1766176516
 20
260.946339451
 30
0.0
 11
96.1766176516
 21
256.946339451
 31
0.0
  0
LINE
  5
1F9
330
1F
100
AcDbEntity
  8
SLD-0
  6
Continuous
 62
   179
100
AcDbLine
 10
142.7683826516
 20
74.473916451
 30
0.0
 11
149.1766176516
 21
72.746339451
 31
0.0
  0
LINE
  5
1FA
330
1F
100
AcDbEntity
  8
SLD-0
  6
Continuous
 62
   179
100
AcDbLine
 10
149.1766176516
 20
74.746339451
 30
0.0
 11
171.1766176516
 21
74.746339451
 31
0.0
  0
LINE
  5
1FB
330
1F
100
AcDbEntity
  8
SLD-0
  6
Continuous
 62
   179
100
AcDbLine
 10
110.9766176516
 20
39.446339451
 30
0.0
 11
107.3766176516
 21
39.446339451
 31
0.0
  0
LINE
  5
1FC
330
1F
100
AcDbEntity
  8
SLD-0
  6
Continuous
 62
   179
100
AcDbLine
 10
107.3766176516
 20
33.046339451
 30
0.0
 11
110.9766176516
 21
33.046339451
 31
0.0
  0
LINE
  5
1FD
330
1F
100
AcDbEntity
  8
SLD-0
  6
CENTER
 62
   179
100
AcDbLine
 10
94.4711626516
 20
36.246339451
 30
0.0
 11
122.4566176516
 21
36.246339451
 31
0.0
  0
LINE
  5
1FE
330
1F
100
AcDbEntity
  8
SLD-0
  6
CENTER
 62
   179
100
AcDbLine
 10
111.6766176516
 20
40.686945451
 30
0.0
 11
111.6766176516
 21
31.119268451
 31
0.0
  0
LINE
  5
1FF
330
1F
100
AcDbEntity
  8
SLD-0
  6
CENTER
 62
   179
100
AcDbLine
 10
106.6766176516
 20
31.119268451
 30
0.0
 11
106.6766176516
 21
40.878299451
 31
0.0
  0
LINE
  5
200
330
1F
100
AcDbEntity
  8
SLD-0
  6
CENTER
 62
   179
100
AcDbLine
 10
109.1766176516
 20
24.617175451
 30
0.0
 11
109.1766176516
 21
106.409507451
 31
0.0
  0
LINE
  5
201
330
1F
100
AcDbEntity
  8
SLD-0
  6
CENTER
 62
   179
100
AcDbLine
 10
111.6766176516
 20
98.373410451
 30
0.0
 11
111.6766176516
 21
88.805733451
 31
0.0
  0
LINE
  5
202
330
1F
100
AcDbEntity
  8
SLD-0
  6
CENTER
 62
   179
100
AcDbLine
 10
106.6766176516
 20
88.614380451
 30
0.0
 11
106.6766176516
 21
98.373410451
 31
0.0
  0
LINE
  5
203
330
1F
100
AcDbEntity
  8
SLD-0
  6
CENTER
 62
   179
100
AcDbLine
 10
94.4711626516
 20
93.246339451
 30
0.0
 11
122.4566176516
 21
93.246339451
 31
0.0
  0
LINE
  5
204
330
1F
100
AcDbEntity
  8
SLD-0
  6
CENTER
 62
   179
100
AcDbLine
 10
142.9271856516
 20
93.246339451
 30
0.0
 11
150.9911856516
 21
93.246339451
 31
0.0
  0
LINE
  5
205
330
1F
100
AcDbEntity
  8
SLD-0
  6
HIDDEN
 62
   179
100
AcDbLine
 10
145.9766176516
 20
87.246339451
 30
0.0
 11
145.9766176516
 21
42.246339451
 31
0.0
  0
LINE
  5
206
330
1F
100
AcDbEntity
  8
SLD-0
  6
Continuous
 62
   179
100
AcDbLine
 10
149.1766176516
 20
46.096339451
 30
0.0
 11
159.1766176516
 21
46.096339451
 31
0.0
  0
LINE
  5
207
330
1F
100
AcDbEntity
  8
SLD-0
  6
CENTER
 62
   179
100
AcDbLine
 10
159.1766176516
 20
47.746339451
 30
0.0
 11
138.7657756516
 21
47.746339451
 31
0.0
  0
LINE
  5
208
330
1F
100
AcDbEntity
  8
SLD-0
  6
CENTER
 62
   179
100
AcDbLine
 10
139.9992936516
 20
54.246339451
 30
0.0
 11
151.3917966516
 21
54.246339451
 31
0.0
  0
LINE
  5
209
330
1F
100
AcDbEntity
  8
SLD-0
  6
Continuous
 62
   179
100
AcDbLine
 10
149.1766176516
 20
49.396339451
 30
0.0
 11
159.1766176516
 21
49.396339451
 31
0.0
  0
LINE
  5
20A
330
1F
100
AcDbEntity
  8
SLD-0
  6
CENTER
 62
   179
100
AcDbLine
 10
162.0640096516
 20
47.746339451
 30
0.0
 11
162.3766176516
 21
47.746339451
 31
0.0
  0
LINE
  5
20B
330
1F
100
AcDbEntity
  8
SLD-0
  6
CENTER
 62
   179
100
AcDbLine
 10
165.2640096516
 20
47.746339451
 30
0.0
 11
171.7059576516
 21
47.746339451
 31
0.0
  0
LINE
  5
20C
330
1F
100
AcDbEntity
  8
SLD-0
  6
Continuous
 62
   179
100
AcDbLine
 10
170.0266176516
 20
49.396339451
 30
0.0
 11
165.5766176516
 21
49.396339451
 31
0.0
  0
LINE
  5
20D
330
1F
100
AcDbEntity
  8
SLD-0
  6
Continuous
 62
   179
100
AcDbLine
 10
165.5766176516
 20
46.096339451
 30
0.0
 11
170.0266176516
 21
46.096339451
 31
0.0
  0
LINE
  5
20E
330
1F
100
AcDbEntity
  8
SLD-0
  6
CENTER
 62
   179
100
AcDbLine
 10
177.0820806516
 20
61.067456451
 30
0.0
 11
157.3958926516
 21
61.067456451
 31
0.0
  0
LINE
  5
20F
330
1F
100
AcDbEntity
  8
SLD-0
  6
CENTER
 62
   179
100
AcDbLine
 10
157.7183196516
 20
68.425222451
 30
0.0
 11
177.0820806516
 21
68.425222451
 31
0.0
  0
LINE
  5
210
330
1F
100
AcDbEntity
  8
SLD-0
  6
CENTER
 62
   179
100
AcDbLine
 10
139.9992936516
 20
75.246339451
 30
0.0
 11
151.3917966516
 21
75.246339451
 31
0.0
  0
LINE
  5
211
330
1F
100
AcDbEntity
  8
SLD-0
  6
CENTER
 62
   179
100
AcDbLine
 10
152.3039046516
 20
81.746339451
 30
0.0
 11
141.7742486516
 21
81.746339451
 31
0.0
  0
LINE
  5
212
330
1F
100
AcDbEntity
  8
SLD-0
  6
CENTER
 62
   179
100
AcDbLine
 10
144.0791856516
 20
36.246339451
 30
0.0
 11
151.5671856516
 21
36.246339451
 31
0.0
  0
LINE
  5
213
330
1F
100
AcDbEntity
  8
SLD-0
  6
HIDDEN
 62
   179
100
AcDbLine
 10
141.3830406516
 20
131.246339451
 30
0.0
 11
149.1766176516
 21
139.039916451
 31
0.0
  0
LINE
  5
214
330
1F
100
AcDbEntity
  8
SLD-0
  6
CENTER
 62
   179
100
AcDbLine
 10
125.4757906516
 20
148.946339451
 30
0.0
 11
111.3914106516
 21
148.946339451
 31
0.0
  0
LINE
  5
215
330
1F
100
AcDbEntity
  8
SLD-0
  6
CENTER
 62
   179
100
AcDbLine
 10
118.5000456516
 20
141.678128451
 30
0.0
 11
118.5000456516
 21
156.269545451
 31
0.0
  0
LINE
  5
216
330
1F
100
AcDbEntity
  8
SLD-0
  6
CENTER
 62
   179
100
AcDbLine
 10
111.6766176516
 20
136.846339451
 30
0.0
 11
111.6766176516
 21
129.152127451
 31
0.0
  0
LINE
  5
217
330
1F
100
AcDbEntity
  8
SLD-0
  6
CENTER
 62
   179
100
AcDbLine
 10
109.1766176516
 20
129.152127451
 30
0.0
 11
109.1766176516
 21
136.846339451
 31
0.0
  0
LINE
  5
218
330
1F
100
AcDbEntity
  8
SLD-0
  6
CENTER
 62
   179
100
AcDbLine
 10
106.6766176516
 20
136.846339451
 30
0.0
 11
106.6766176516
 21
129.152127451
 31
0.0
  0
LINE
  5
219
330
1F
100
AcDbEntity
  8
SLD-0
  6
CENTER
 62
   179
100
AcDbLine
 10
112.6766176516
 20
126.841590451
 30
0.0
 11
112.6766176516
 21
271.620390451
 31
0.0
  0
LINE
  5
21A
330
1F
100
AcDbEntity
  8
SLD-0
  6
CENTER
 62
   179
100
AcDbLine
 10
131.1619566516
 20
258.946339451
 30
0.0
 11
93.9085386516
 21
258.946339451
 31
0.0
  0
LINE
  5
21B
330
1F
100
AcDbEntity
  8
SLD-0
  6
CENTER
 62
   179
100
AcDbLine
 10
94.6766176516
 20
229.289619451
 30
0.0
 11
94.6766176516
 21
176.405989451
 31
0.0
  0
LINE
  5
21C
330
1F
100
AcDbEntity
  8
SLD-0
  6
CENTER
 62
   179
100
AcDbLine
 10
87.1475486516
 20
182.946339451
 30
0.0
 11
98.8551196516
 21
182.946339451
 31
0.0
  0
LINE
  5
21D
330
1F
100
AcDbEntity
  8
SLD-0
  6
CENTER
 62
   179
100
AcDbLine
 10
126.4981156516
 20
182.946339451
 30
0.0
 11
138.2056866516
 21
182.946339451
 31
0.0
  0
LINE
  5
21E
330
1F
100
AcDbEntity
  8
SLD-0
  6
CENTER
 62
   179
100
AcDbLine
 10
129.1236656516
 20
183.446339451
 30
0.0
 11
182.8679056516
 21
183.446339451
 31
0.0
  0
LINE
  5
21F
330
1F
100
AcDbEntity
  8
SLD-0
  6
CENTER
 62
   179
100
AcDbLine
 10
177.0820806516
 20
179.767456451
 30
0.0
 11
157.3958926516
 21
179.767456451
 31
0.0
  0
LINE
  5
220
330
1F
100
AcDbEntity
  8
SLD-0
  6
CENTER
 62
   179
100
AcDbLine
 10
157.7183196516
 20
187.125222451
 30
0.0
 11
177.0820806516
 21
187.125222451
 31
0.0
  0
LINE
  5
221
330
1F
100
AcDbEntity
  8
SLD-0
  6
CENTER
 62
   179
100
AcDbLine
 10
166.1766176516
 20
198.481455451
 30
0.0
 11
166.1766176516
 21
207.605486451
 31
0.0
  0
LINE
  5
222
330
1F
100
AcDbEntity
  8
SLD-0
  6
CENTER
 62
   179
100
AcDbLine
 10
173.1600456516
 20
203.446339451
 30
0.0
 11
132.9003866516
 21
203.446339451
 31
0.0
  0
LINE
  5
223
330
1F
100
AcDbEntity
  8
SLD-0
  6
CENTER
 62
   179
100
AcDbLine
 10
128.7759646516
 20
217.946339451
 30
0.0
 11
147.5778826516
 21
217.946339451
 31
0.0
  0
LINE
  5
224
330
1F
100
AcDbEntity
  8
SLD-0
  6
CENTER
 62
   179
100
AcDbLine
 10
139.1813176516
 20
222.946339451
 30
0.0
 11
126.0103006516
 21
222.946339451
 31
0.0
  0
LINE
  5
225
330
1F
100
AcDbEntity
  8
SLD-0
  6
CENTER
 62
   179
100
AcDbLine
 10
129.1236656516
 20
223.446339451
 30
0.0
 11
183.0011146516
 21
223.446339451
 31
0.0
  0
LINE
  5
226
330
1F
100
AcDbEntity
  8
SLD-0
  6
CENTER
 62
   179
100
AcDbLine
 10
177.0820806516
 20
219.767456451
 30
0.0
 11
157.3958926516
 21
219.767456451
 31
0.0
  0
LINE
  5
227
330
1F
100
AcDbEntity
  8
SLD-0
  6
CENTER
 62
   179
100
AcDbLine
 10
157.7183196516
 20
227.125222451
 30
0.0
 11
177.0820806516
 21
227.125222451
 31
0.0
  0
LINE
  5
228
330
1F
100
AcDbEntity
  8
SLD-0
  6
CENTER
 62
   179
100
AcDbLine
 10
156.1766176516
 20
207.605486451
 30
0.0
 11
156.1766176516
 21
198.737269451
 31
0.0
  0
LINE
  5
229
330
1F
100
AcDbEntity
  8
SLD-0
  6
Continuous
 62
   179
100
AcDbLine
 10
145.2766176516
 20
200.946339451
 30
0.0
 11
144.8766176516
 21
201.346339451
 31
0.0
  0
LINE
  5
22A
330
1F
100
AcDbEntity
  8
SLD-0
  6
Continuous
 62
   179
100
AcDbLine
 10
144.8766176516
 20
201.346339451
 30
0.0
 11
143.8766176516
 21
201.346339451
 31
0.0
  0
LINE
  5
22B
330
1F
100
AcDbEntity
  8
SLD-0
  6
Continuous
 62
   179
100
AcDbLine
 10
143.8766176516
 20
205.546339451
 30
0.0
 11
144.8766176516
 21
205.546339451
 31
0.0
  0
LINE
  5
22C
330
1F
100
AcDbEntity
  8
SLD-0
  6
Continuous
 62
   179
100
AcDbLine
 10
144.8766176516
 20
205.546339451
 30
0.0
 11
145.2766176516
 21
205.946339451
 31
0.0
  0
LINE
  5
22D
330
1F
100
AcDbEntity
  8
SLD-0
  6
CENTER
 62
   179
100
AcDbLine
 10
130.6766176516
 20
229.289619451
 30
0.0
 11
130.6766176516
 21
176.405989451
 31
0.0
  0
LINE
  5
22E
330
1F
100
AcDbEntity
  8
SLD-0
  6
CENTER
 62
   179
100
AcDbLine
 10
128.7759646516
 20
177.946339451
 30
0.0
 11
147.5778826516
 21
177.946339451
 31
0.0
  0
LINE
  5
22F
330
1F
100
AcDbEntity
  8
SLD-0
  6
CENTER
 62
   179
100
AcDbLine
 10
99.3429346516
 20
222.946339451
 30
0.0
 11
86.1719176516
 21
222.946339451
 31
0.0
  0
LINE
  5
230
330
1F
100
AcDbEntity
  8
SLD-0
  6
CENTER
 62
   179
100
AcDbLine
 10
245.7871646516
 20
203.446339451
 30
0.0
 11
325.0896686516
 21
203.446339451
 31
0.0
  0
LINE
  5
231
330
1F
100
AcDbEntity
  8
SLD-0
  6
CENTER
 62
   179
100
AcDbLine
 10
319.6826106516
 20
200.946339451
 30
0.0
 11
309.9235806516
 21
200.946339451
 31
0.0
  0
LINE
  5
232
330
1F
100
AcDbEntity
  8
SLD-0
  6
CENTER
 62
   179
100
AcDbLine
 10
309.5084516516
 20
205.946339451
 30
0.0
 11
319.0996106516
 21
205.946339451
 31
0.0
  0
LINE
  5
233
330
1F
100
AcDbEntity
  8
SLD-0
  6
CENTER
 62
   179
100
AcDbLine
 10
314.5555396516
 20
216.726339451
 30
0.0
 11
314.5555396516
 21
188.740884451
 31
0.0
  0
LINE
  5
234
330
1F
100
AcDbEntity
  8
SLD-0
  6
CENTER
 62
   179
100
AcDbLine
 10
309.3357036516
 20
177.946339451
 30
0.0
 11
298.5242146516
 21
177.946339451
 31
0.0
  0
LINE
  5
235
330
1F
100
AcDbEntity
  8
SLD-0
  6
CENTER
 62
   179
100
AcDbLine
 10
294.5343696516
 20
183.446339451
 30
0.0
 11
276.8413316516
 21
183.446339451
 31
0.0
  0
LINE
  5
236
330
1F
100
AcDbEntity
  8
SLD-0
  6
CENTER
 62
   179
100
AcDbLine
 10
278.3055396516
 20
188.288349451
 30
0.0
 11
278.3055396516
 21
218.811983451
 31
0.0
  0
LINE
  5
237
330
1F
100
AcDbEntity
  8
SLD-0
  6
CENTER
 62
   179
100
AcDbLine
 10
277.8159266516
 20
223.446339451
 30
0.0
 11
294.5343696516
 21
223.446339451
 31
0.0
  0
LINE
  5
238
330
1F
100
AcDbEntity
  8
SLD-0
  6
CENTER
 62
   179
100
AcDbLine
 10
293.8055396516
 20
218.811983451
 30
0.0
 11
293.8055396516
 21
188.288349451
 31
0.0
  0
LINE
  5
239
330
1F
100
AcDbEntity
  8
SLD-0
  6
CENTER
 62
   179
100
AcDbLine
 10
304.0555396516
 20
183.390768451
 30
0.0
 11
304.0555396516
 21
172.594550451
 31
0.0
  0
LINE
  5
23A
330
1F
100
AcDbEntity
  8
SLD-0
  6
CENTER
 62
   179
100
AcDbLine
 10
296.5555396516
 20
140.423663451
 30
0.0
 11
296.5555396516
 21
129.031159451
 31
0.0
  0
LINE
  5
23B
330
1F
100
AcDbEntity
  8
SLD-0
  6
CENTER
 62
   179
100
AcDbLine
 10
286.0555396516
 20
125.617222451
 30
0.0
 11
286.0555396516
 21
270.573441451
 31
0.0
  0
LINE
  5
23C
330
1F
100
AcDbEntity
  8
SLD-0
  6
CENTER
 62
   179
100
AcDbLine
 10
288.0555396516
 20
258.946339451
 30
0.0
 11
284.0555396516
 21
258.946339451
 31
0.0
  0
LINE
  5
23D
330
1F
100
AcDbEntity
  8
SLD-0
  6
CENTER
 62
   179
100
AcDbLine
 10
283.7751886516
 20
258.946339451
 30
0.0
 11
278.6499406516
 21
258.946339451
 31
0.0
  0
LINE
  5
23E
330
1F
100
AcDbEntity
  8
SLD-0
  6
CENTER
 62
   179
100
AcDbLine
 10
288.3358906516
 20
258.946339451
 30
0.0
 11
292.7204626516
 21
258.946339451
 31
0.0
  0
LINE
  5
23F
330
1F
100
AcDbEntity
  8
SLD-0
  6
CENTER
 62
   179
100
AcDbLine
 10
301.0555396516
 20
239.117342451
 30
0.0
 11
301.0555396516
 21
232.067700451
 31
0.0
  0
LINE
  5
240
330
1F
100
AcDbEntity
  8
SLD-0
  6
CENTER
 62
   179
100
AcDbLine
 10
305.4045686516
 20
235.446339451
 30
0.0
 11
267.2499296516
 21
235.446339451
 31
0.0
  0
LINE
  5
241
330
1F
100
AcDbEntity
  8
SLD-0
  6
CENTER
 62
   179
100
AcDbLine
 10
271.0555396516
 20
232.067700451
 30
0.0
 11
271.0555396516
 21
239.117342451
 31
0.0
  0
LINE
  5
242
330
1F
100
AcDbEntity
  8
SLD-0
  6
CENTER
 62
   179
100
AcDbLine
 10
268.0555396516
 20
223.294435451
 30
0.0
 11
268.0555396516
 21
212.752246451
 31
0.0
  0
LINE
  5
243
330
1F
100
AcDbEntity
  8
SLD-0
  6
CENTER
 62
   179
100
AcDbLine
 10
271.4327316516
 20
211.196339451
 30
0.0
 11
299.8324896516
 21
211.196339451
 31
0.0
  0
LINE
  5
244
330
1F
100
AcDbEntity
  8
SLD-0
  6
CENTER
 62
   179
100
AcDbLine
 10
273.5870686516
 20
217.946339451
 30
0.0
 11
262.1981176516
 21
217.946339451
 31
0.0
  0
LINE
  5
245
330
1F
100
AcDbEntity
  8
SLD-0
  6
CENTER
 62
   179
100
AcDbLine
 10
257.5555396516
 20
216.726339451
 30
0.0
 11
257.5555396516
 21
188.740884451
 31
0.0
  0
LINE
  5
246
330
1F
100
AcDbEntity
  8
SLD-0
  6
CENTER
 62
   179
100
AcDbLine
 10
261.7323986516
 20
177.946339451
 30
0.0
 11
273.3330396516
 21
177.946339451
 31
0.0
  0
LINE
  5
247
330
1F
100
AcDbEntity
  8
SLD-0
  6
CENTER
 62
   179
100
AcDbLine
 10
268.0555396516
 20
183.136739451
 30
0.0
 11
268.0555396516
 21
172.467536451
 31
0.0
  0
LINE
  5
248
330
1F
100
AcDbEntity
  8
SLD-0
  6
CENTER
 62
   179
100
AcDbLine
 10
275.5555396516
 20
140.423663451
 30
0.0
 11
275.5555396516
 21
129.031159451
 31
0.0
  0
LINE
  5
249
330
1F
100
AcDbEntity
  8
SLD-0
  6
HIDDEN
 62
   179
100
AcDbLine
 10
263.5555396516
 20
134.446339451
 30
0.0
 11
308.5555396516
 21
134.446339451
 31
0.0
  0
LINE
  5
24A
330
1F
100
AcDbEntity
  8
SLD-0
  6
CENTER
 62
   179
100
AcDbLine
 10
257.5555396516
 20
138.598339451
 30
0.0
 11
257.5555396516
 21
128.230339451
 31
0.0
  0
LINE
  5
24B
330
1F
100
AcDbEntity
  8
SLD-0
  6
CENTER
 62
   179
100
AcDbLine
 10
314.5555396516
 20
128.230339451
 30
0.0
 11
314.5555396516
 21
138.598339451
 31
0.0
  0
LINE
  5
24C
330
1F
100
AcDbEntity
  8
SLD-0
  6
CENTER
 62
   179
100
AcDbLine
 10
303.0555396516
 20
197.539655451
 30
0.0
 11
303.0555396516
 21
208.836308451
 31
0.0
  0
LINE
  5
24D
330
1F
100
AcDbEntity
  8
SLD-0
  6
CENTER
 62
   179
100
AcDbLine
 10
304.0555396516
 20
212.709908451
 30
0.0
 11
304.0555396516
 21
223.125083451
 31
0.0
  0
LINE
  5
24E
330
1F
100
AcDbEntity
  8
SLD-0
  6
CENTER
 62
   179
100
AcDbLine
 10
298.3548626516
 20
217.946339451
 30
0.0
 11
309.8416956516
 21
217.946339451
 31
0.0
  0
LINE
  5
24F
330
1F
100
AcDbEntity
  8
SLD-0
  6
CENTER
 62
   179
100
AcDbLine
 10
300.8497756516
 20
195.696339451
 30
0.0
 11
271.4327316516
 21
195.696339451
 31
0.0
  0
LINE
  5
250
330
1F
100
AcDbEntity
  8
SLD-0
  6
CENTER
 62
   179
100
AcDbLine
 10
269.0555396516
 20
198.818468451
 30
0.0
 11
269.0555396516
 21
208.836308451
 31
0.0
  0
LINE
  5
251
330
1F
100
AcDbEntity
  8
SLD-0
  6
CENTER
 62
   179
100
AcDbLine
 10
261.9961456516
 20
205.946339451
 30
0.0
 11
252.4284696516
 21
205.946339451
 31
0.0
  0
LINE
  5
252
330
1F
100
AcDbEntity
  8
SLD-0
  6
CENTER
 62
   179
100
AcDbLine
 10
253.0338026516
 20
200.946339451
 30
0.0
 11
262.1874996516
 21
200.946339451
 31
0.0
  0
LINE
  5
253
330
1F
100
AcDbEntity
  8
SLD-0
  6
Continuous
 62
   179
100
AcDbLine
 10
176.1766176516
 20
69.746339451
 30
0.0
 11
176.1766176516
 21
59.746339451
 31
0.0
  0
LINE
  5
254
330
1F
100
AcDbEntity
  8
SLD-0
  6
Continuous
 62
   179
100
AcDbLine
 10
402.5
 20
285.5
 30
0.0
 11
402.5
 21
11.5
 31
0.0
  0
LINE
  5
255
330
1F
100
AcDbEntity
  8
SLD-0
  6
Continuous
 62
   179
100
AcDbLine
 10
17.5
 20
11.5
 30
0.0
 11
402.5
 21
11.5
 31
0.0
  0
LINE
  5
256
330
1F
100
AcDbEntity
  8
SLD-0
  6
Continuous
 62
   179
100
AcDbLine
 10
17.5
 20
285.5
 30
0.0
 11
402.5
 21
285.5
 31
0.0
  0
LINE
  5
257
330
1F
100
AcDbEntity
  8
SLD-0
  6
Continuous
 62
   179
100
AcDbLine
 10
17.5
 20
285.5
 30
0.0
 11
17.5
 21
11.5
 31
0.0
  0
LINE
  5
258
330
1F
100
AcDbEntity
  8
SLD-0
  6
Continuous
 62
   179
100
AcDbLine
 10
334.0
 20
50.0
 30
0.0
 11
334.0
 21
11.5
 31
0.0
  0
LINE
  5
259
330
1F
100
AcDbEntity
  8
SLD-0
  6
Continuous
 62
   179
100
AcDbLine
 10
334.0
 20
24.0
 30
0.0
 11
402.5
 21
24.0
 31
0.0
  0
LINE
  5
25A
330
1F
100
AcDbEntity
  8
SLD-0
  6
Continuous
 62
   179
100
AcDbLine
 10
334.0
 20
36.5
 30
0.0
 11
402.5
 21
36.5
 31
0.0
  0
LINE
  5
25B
330
1F
100
AcDbEntity
  8
SLD-0
  6
Continuous
 62
   179
100
AcDbLine
 10
334.0
 20
50.0
 30
0.0
 11
402.5
 21
50.0
 31
0.0
  0
LINE
  5
25C
330
1F
100
AcDbEntity
  8
SLD-0
  6
Continuous
 62
   179
100
AcDbLine
 10
17.3
 20
11.3
 30
0.0
 11
402.7
 21
11.3
 31
0.0
  0
LINE
  5
25D
330
1F
100
AcDbEntity
  8
SLD-0
  6
Continuous
 62
   179
100
AcDbLine
 10
402.7
 20
285.7
 30
0.0
 11
402.7
 21
11.3
 31
0.0
  0
LINE
  5
25E
330
1F
100
AcDbEntity
  8
SLD-0
  6
Continuous
 62
   179
100
AcDbLine
 10
17.3
 20
285.7
 30
0.0
 11
402.7
 21
285.7
 31
0.0
  0
LINE
  5
25F
330
1F
100
AcDbEntity
  8
SLD-0
  6
Continuous
 62
   179
100
AcDbLine
 10
17.3
 20
285.7
 30
0.0
 11
17.3
 21
11.3
 31
0.0
  0
LINE
  5
260
330
1F
100
AcDbEntity
  8
SLD-0
  6
Continuous
 62
   179
100
AcDbLine
 10
122.7500456516
 20
148.946339451
 30
0.0
 11
122.7338736516
 21
149.304113451
 31
0.0
  0
LINE
  5
261
330
1F
100
AcDbEntity
  8
SLD-0
  6
Continuous
 62
   179
100
AcDbLine
 10
122.7338736516
 20
149.304113451
 30
0.0
 11
122.6854786516
 21
149.659165451
 31
0.0
  0
LINE
  5
262
330
1F
100
AcDbEntity
  8
SLD-0
  6
Continuous
 62
   179
100
AcDbLine
 10
122.6854786516
 20
149.659165451
 30
0.0
 11
122.6052306516
 21
150.008791451
 31
0.0
  0
LINE
  5
263
330
1F
100
AcDbEntity
  8
SLD-0
  6
Continuous
 62
   179
100
AcDbLine
 10
122.6052306516
 20
150.008791451
 30
0.0
 11
122.4937396516
 21
150.350332451
 31
0.0
  0
LINE
  5
264
330
1F
100
AcDbEntity
  8
SLD-0
  6
Continuous
 62
   179
100
AcDbLine
 10
122.4937396516
 20
150.350332451
 30
0.0
 11
122.3518536516
 21
150.681187451
 31
0.0
  0
LINE
  5
265
330
1F
100
AcDbEntity
  8
SLD-0
  6
Continuous
 62
   179
100
AcDbLine
 10
122.3518536516
 20
150.681187451
 30
0.0
 11
122.1806536516
 21
150.998839451
 31
0.0
  0
LINE
  5
266
330
1F
100
AcDbEntity
  8
SLD-0
  6
Continuous
 62
   179
100
AcDbLine
 10
122.1806536516
 20
150.998839451
 30
0.0
 11
121.9814426516
 21
151.300870451
 31
0.0
  0
LINE
  5
267
330
1F
100
AcDbEntity
  8
SLD-0
  6
Continuous
 62
   179
100
AcDbLine
 10
121.9814426516
 20
151.300870451
 30
0.0
 11
121.7557346516
 21
151.584982451
 31
0.0
  0
LINE
  5
268
330
1F
100
AcDbEntity
  8
SLD-0
  6
Continuous
 62
   179
100
AcDbLine
 10
121.7557346516
 20
151.584982451
 30
0.0
 11
121.5052496516
 21
151.849012451
 31
0.0
  0
LINE
  5
269
330
1F
100
AcDbEntity
  8
SLD-0
  6
Continuous
 62
   179
100
AcDbLine
 10
121.5052496516
 20
151.849012451
 30
0.0
 11
121.2318936516
 21
152.090951451
 31
0.0
  0
LINE
  5
26A
330
1F
100
AcDbEntity
  8
SLD-0
  6
Continuous
 62
   179
100
AcDbLine
 10
121.2318936516
 20
152.090951451
 30
0.0
 11
120.9377456516
 21
152.308958451
 31
0.0
  0
LINE
  5
26B
330
1F
100
AcDbEntity
  8
SLD-0
  6
Continuous
 62
   179
100
AcDbLine
 10
120.9377456516
 20
152.308958451
 30
0.0
 11
120.6250456516
 21
152.501373451
 31
0.0
  0
LINE
  5
26C
330
1F
100
AcDbEntity
  8
SLD-0
  6
Continuous
 62
   179
100
AcDbLine
 10
120.6250456516
 20
152.501373451
 30
0.0
 11
120.2961736516
 21
152.666732451
 31
0.0
  0
LINE
  5
26D
330
1F
100
AcDbEntity
  8
SLD-0
  6
Continuous
 62
   179
100
AcDbLine
 10
120.2961736516
 20
152.666732451
 30
0.0
 11
119.9536316516
 21
152.803777451
 31
0.0
  0
LINE
  5
26E
330
1F
100
AcDbEntity
  8
SLD-0
  6
Continuous
 62
   179
100
AcDbLine
 10
119.9536316516
 20
152.803777451
 30
0.0
 11
119.6000266516
 21
152.911465451
 31
0.0
  0
LINE
  5
26F
330
1F
100
AcDbEntity
  8
SLD-0
  6
Continuous
 62
   179
100
AcDbLine
 10
119.6000266516
 20
152.911465451
 30
0.0
 11
119.2380506516
 21
152.988975451
 31
0.0
  0
LINE
  5
270
330
1F
100
AcDbEntity
  8
SLD-0
  6
Continuous
 62
   179
100
AcDbLine
 10
119.2380506516
 20
152.988975451
 30
0.0
 11
118.8704576516
 21
153.035718451
 31
0.0
  0
LINE
  5
271
330
1F
100
AcDbEntity
  8
SLD-0
  6
Continuous
 62
   179
100
AcDbLine
 10
118.8704576516
 20
153.035718451
 30
0.0
 11
118.5000456516
 21
153.051339451
 31
0.0
  0
LINE
  5
272
330
1F
100
AcDbEntity
  8
SLD-0
  6
Continuous
 62
   179
100
AcDbLine
 10
118.5000456516
 20
153.051339451
 30
0.0
 11
118.1296336516
 21
153.035718451
 31
0.0
  0
LINE
  5
273
330
1F
100
AcDbEntity
  8
SLD-0
  6
Continuous
 62
   179
100
AcDbLine
 10
118.1296336516
 20
153.035718451
 30
0.0
 11
117.7620416516
 21
152.988975451
 31
0.0
  0
LINE
  5
274
330
1F
100
AcDbEntity
  8
SLD-0
  6
Continuous
 62
   179
100
AcDbLine
 10
117.7620416516
 20
152.988975451
 30
0.0
 11
117.4000646516
 21
152.911465451
 31
0.0
  0
LINE
  5
275
330
1F
100
AcDbEntity
  8
SLD-0
  6
Continuous
 62
   179
100
AcDbLine
 10
117.4000646516
 20
152.911465451
 30
0.0
 11
117.0464606516
 21
152.803777451
 31
0.0
  0
LINE
  5
276
330
1F
100
AcDbEntity
  8
SLD-0
  6
Continuous
 62
   179
100
AcDbLine
 10
117.0464606516
 20
152.803777451
 30
0.0
 11
116.7039186516
 21
152.666732451
 31
0.0
  0
LINE
  5
277
330
1F
100
AcDbEntity
  8
SLD-0
  6
Continuous
 62
   179
100
AcDbLine
 10
116.7039186516
 20
152.666732451
 30
0.0
 11
116.3750456516
 21
152.501373451
 31
0.0
  0
LINE
  5
278
330
1F
100
AcDbEntity
  8
SLD-0
  6
Continuous
 62
   179
100
AcDbLine
 10
116.3750456516
 20
152.501373451
 30
0.0
 11
116.0623466516
 21
152.308958451
 31
0.0
  0
LINE
  5
279
330
1F
100
AcDbEntity
  8
SLD-0
  6
Continuous
 62
   179
100
AcDbLine
 10
116.0623466516
 20
152.308958451
 30
0.0
 11
115.7681986516
 21
152.090951451
 31
0.0
  0
LINE
  5
27A
330
1F
100
AcDbEntity
  8
SLD-0
  6
Continuous
 62
   179
100
AcDbLine
 10
115.7681986516
 20
152.090951451
 30
0.0
 11
115.4948426516
 21
151.849012451
 31
0.0
  0
LINE
  5
27B
330
1F
100
AcDbEntity
  8
SLD-0
  6
Continuous
 62
   179
100
AcDbLine
 10
115.4948426516
 20
151.849012451
 30
0.0
 11
115.2443566516
 21
151.584982451
 31
0.0
  0
LINE
  5
27C
330
1F
100
AcDbEntity
  8
SLD-0
  6
Continuous
 62
   179
100
AcDbLine
 10
115.2443566516
 20
151.584982451
 30
0.0
 11
115.0186496516
 21
151.300870451
 31
0.0
  0
LINE
  5
27D
330
1F
100
AcDbEntity
  8
SLD-0
  6
Continuous
 62
   179
100
AcDbLine
 10
115.0186496516
 20
151.300870451
 30
0.0
 11
114.8194376516
 21
150.998839451
 31
0.0
  0
LINE
  5
27E
330
1F
100
AcDbEntity
  8
SLD-0
  6
Continuous
 62
   179
100
AcDbLine
 10
114.8194376516
 20
150.998839451
 30
0.0
 11
114.6482376516
 21
150.681187451
 31
0.0
  0
LINE
  5
27F
330
1F
100
AcDbEntity
  8
SLD-0
  6
Continuous
 62
   179
100
AcDbLine
 10
114.6482376516
 20
150.681187451
 30
0.0
 11
114.5063526516
 21
150.350332451
 31
0.0
  0
LINE
  5
280
330
1F
100
AcDbEntity
  8
SLD-0
  6
Continuous
 62
   179
100
AcDbLine
 10
114.5063526516
 20
150.350332451
 30
0.0
 11
114.3948616516
 21
150.008791451
 31
0.0
  0
LINE
  5
281
330
1F
100
AcDbEntity
  8
SLD-0
  6
Continuous
 62
   179
100
AcDbLine
 10
114.3948616516
 20
150.008791451
 30
0.0
 11
114.3146126516
 21
149.659165451
 31
0.0
  0
LINE
  5
282
330
1F
100
AcDbEntity
  8
SLD-0
  6
Continuous
 62
   179
100
AcDbLine
 10
114.3146126516
 20
149.659165451
 30
0.0
 11
114.2662186516
 21
149.304113451
 31
0.0
  0
LINE
  5
283
330
1F
100
AcDbEntity
  8
SLD-0
  6
Continuous
 62
   179
100
AcDbLine
 10
114.2662186516
 20
149.304113451
 30
0.0
 11
114.2500456516
 21
148.946339451
 31
0.0
  0
LINE
  5
284
330
1F
100
AcDbEntity
  8
SLD-0
  6
Continuous
 62
   179
100
AcDbLine
 10
114.2500456516
 20
148.946339451
 30
0.0
 11
114.2662186516
 21
148.588565451
 31
0.0
  0
LINE
  5
285
330
1F
100
AcDbEntity
  8
SLD-0
  6
Continuous
 62
   179
100
AcDbLine
 10
114.2662186516
 20
148.588565451
 30
0.0
 11
114.3146126516
 21
148.233513451
 31
0.0
  0
LINE
  5
286
330
1F
100
AcDbEntity
  8
SLD-0
  6
Continuous
 62
   179
100
AcDbLine
 10
114.3146126516
 20
148.233513451
 30
0.0
 11
114.3948616516
 21
147.883887451
 31
0.0
  0
LINE
  5
287
330
1F
100
AcDbEntity
  8
SLD-0
  6
Continuous
 62
   179
100
AcDbLine
 10
114.3948616516
 20
147.883887451
 30
0.0
 11
114.5063526516
 21
147.542346451
 31
0.0
  0
LINE
  5
288
330
1F
100
AcDbEntity
  8
SLD-0
  6
Continuous
 62
   179
100
AcDbLine
 10
114.5063526516
 20
147.542346451
 30
0.0
 11
114.6482376516
 21
147.211491451
 31
0.0
  0
LINE
  5
289
330
1F
100
AcDbEntity
  8
SLD-0
  6
Continuous
 62
   179
100
AcDbLine
 10
114.6482376516
 20
147.211491451
 30
0.0
 11
114.8194376516
 21
146.893839451
 31
0.0
  0
LINE
  5
28A
330
1F
100
AcDbEntity
  8
SLD-0
  6
Continuous
 62
   179
100
AcDbLine
 10
114.8194376516
 20
146.893839451
 30
0.0
 11
115.0186496516
 21
146.591808451
 31
0.0
  0
LINE
  5
28B
330
1F
100
AcDbEntity
  8
SLD-0
  6
Continuous
 62
   179
100
AcDbLine
 10
115.0186496516
 20
146.591808451
 30
0.0
 11
115.2443566516
 21
146.307696451
 31
0.0
  0
LINE
  5
28C
330
1F
100
AcDbEntity
  8
SLD-0
  6
Continuous
 62
   179
100
AcDbLine
 10
115.2443566516
 20
146.307696451
 30
0.0
 11
115.4948426516
 21
146.043666451
 31
0.0
  0
LINE
  5
28D
330
1F
100
AcDbEntity
  8
SLD-0
  6
Continuous
 62
   179
100
AcDbLine
 10
115.4948426516
 20
146.043666451
 30
0.0
 11
115.7681986516
 21
145.801727451
 31
0.0
  0
LINE
  5
28E
330
1F
100
AcDbEntity
  8
SLD-0
  6
Continuous
 62
   179
100
AcDbLine
 10
115.7681986516
 20
145.801727451
 30
0.0
 11
116.0623466516
 21
145.583720451
 31
0.0
  0
LINE
  5
28F
330
1F
100
AcDbEntity
  8
SLD-0
  6
Continuous
 62
   179
100
AcDbLine
 10
116.0623466516
 20
145.583720451
 30
0.0
 11
116.3750456516
 21
145.391305451
 31
0.0
  0
LINE
  5
290
330
1F
100
AcDbEntity
  8
SLD-0
  6
Continuous
 62
   179
100
AcDbLine
 10
116.3750456516
 20
145.391305451
 30
0.0
 11
116.7039186516
 21
145.225946451
 31
0.0
  0
LINE
  5
291
330
1F
100
AcDbEntity
  8
SLD-0
  6
Continuous
 62
   179
100
AcDbLine
 10
116.7039186516
 20
145.225946451
 30
0.0
 11
117.0464606516
 21
145.088901451
 31
0.0
  0
LINE
  5
292
330
1F
100
AcDbEntity
  8
SLD-0
  6
Continuous
 62
   179
100
AcDbLine
 10
117.0464606516
 20
145.088901451
 30
0.0
 11
117.4000646516
 21
144.981213451
 31
0.0
  0
LINE
  5
293
330
1F
100
AcDbEntity
  8
SLD-0
  6
Continuous
 62
   179
100
AcDbLine
 10
117.4000646516
 20
144.981213451
 30
0.0
 11
117.7620416516
 21
144.903703451
 31
0.0
  0
LINE
  5
294
330
1F
100
AcDbEntity
  8
SLD-0
  6
Continuous
 62
   179
100
AcDbLine
 10
117.7620416516
 20
144.903703451
 30
0.0
 11
118.1296336516
 21
144.856960451
 31
0.0
  0
LINE
  5
295
330
1F
100
AcDbEntity
  8
SLD-0
  6
Continuous
 62
   179
100
AcDbLine
 10
118.1296336516
 20
144.856960451
 30
0.0
 11
118.5000456516
 21
144.841339451
 31
0.0
  0
LINE
  5
296
330
1F
100
AcDbEntity
  8
SLD-0
  6
Continuous
 62
   179
100
AcDbLine
 10
118.5000456516
 20
144.841339451
 30
0.0
 11
118.8704576516
 21
144.856960451
 31
0.0
  0
LINE
  5
297
330
1F
100
AcDbEntity
  8
SLD-0
  6
Continuous
 62
   179
100
AcDbLine
 10
118.8704576516
 20
144.856960451
 30
0.0
 11
119.2380506516
 21
144.903703451
 31
0.0
  0
LINE
  5
298
330
1F
100
AcDbEntity
  8
SLD-0
  6
Continuous
 62
   179
100
AcDbLine
 10
119.2380506516
 20
144.903703451
 30
0.0
 11
119.6000266516
 21
144.981213451
 31
0.0
  0
LINE
  5
299
330
1F
100
AcDbEntity
  8
SLD-0
  6
Continuous
 62
   179
100
AcDbLine
 10
119.6000266516
 20
144.981213451
 30
0.0
 11
119.9536316516
 21
145.088901451
 31
0.0
  0
LINE
  5
29A
330
1F
100
AcDbEntity
  8
SLD-0
  6
Continuous
 62
   179
100
AcDbLine
 10
119.9536316516
 20
145.088901451
 30
0.0
 11
120.2961736516
 21
145.225946451
 31
0.0
  0
LINE
  5
29B
330
1F
100
AcDbEntity
  8
SLD-0
  6
Continuous
 62
   179
100
AcDbLine
 10
120.2961736516
 20
145.225946451
 30
0.0
 11
120.6250456516
 21
145.391305451
 31
0.0
  0
LINE
  5
29C
330
1F
100
AcDbEntity
  8
SLD-0
  6
Continuous
 62
   179
100
AcDbLine
 10
120.6250456516
 20
145.391305451
 30
0.0
 11
120.9377456516
 21
145.583720451
 31
0.0
  0
LINE
  5
29D
330
1F
100
AcDbEntity
  8
SLD-0
  6
Continuous
 62
   179
100
AcDbLine
 10
120.9377456516
 20
145.583720451
 30
0.0
 11
121.2318936516
 21
145.801727451
 31
0.0
  0
LINE
  5
29E
330
1F
100
AcDbEntity
  8
SLD-0
  6
Continuous
 62
   179
100
AcDbLine
 10
121.2318936516
 20
145.801727451
 30
0.0
 11
121.5052496516
 21
146.043666451
 31
0.0
  0
LINE
  5
29F
330
1F
100
AcDbEntity
  8
SLD-0
  6
Continuous
 62
   179
100
AcDbLine
 10
121.5052496516
 20
146.043666451
 30
0.0
 11
121.7557346516
 21
146.307696451
 31
0.0
  0
LINE
  5
2A0
330
1F
100
AcDbEntity
  8
SLD-0
  6
Continuous
 62
   179
100
AcDbLine
 10
121.7557346516
 20
146.307696451
 30
0.0
 11
121.9814426516
 21
146.591808451
 31
0.0
  0
LINE
  5
2A1
330
1F
100
AcDbEntity
  8
SLD-0
  6
Continuous
 62
   179
100
AcDbLine
 10
121.9814426516
 20
146.591808451
 30
0.0
 11
122.1806536516
 21
146.893839451
 31
0.0
  0
LINE
  5
2A2
330
1F
100
AcDbEntity
  8
SLD-0
  6
Continuous
 62
   179
100
AcDbLine
 10
122.1806536516
 20
146.893839451
 30
0.0
 11
122.3518536516
 21
147.211491451
 31
0.0
  0
LINE
  5
2A3
330
1F
100
AcDbEntity
  8
SLD-0
  6
Continuous
 62
   179
100
AcDbLine
 10
122.3518536516
 20
147.211491451
 30
0.0
 11
122.4937396516
 21
147.542346451
 31
0.0
  0
LINE
  5
2A4
330
1F
100
AcDbEntity
  8
SLD-0
  6
Continuous
 62
   179
100
AcDbLine
 10
122.4937396516
 20
147.542346451
 30
0.0
 11
122.6052306516
 21
147.883887451
 31
0.0
  0
LINE
  5
2A5
330
1F
100
AcDbEntity
  8
SLD-0
  6
Continuous
 62
   179
100
AcDbLine
 10
122.6052306516
 20
147.883887451
 30
0.0
 11
122.6854786516
 21
148.233513451
 31
0.0
  0
LINE
  5
2A6
330
1F
100
AcDbEntity
  8
SLD-0
  6
Continuous
 62
   179
100
AcDbLine
 10
122.6854786516
 20
148.233513451
 30
0.0
 11
122.7338736516
 21
148.588565451
 31
0.0
  0
LINE
  5
2A7
330
1F
100
AcDbEntity
  8
SLD-0
  6
Continuous
 62
   179
100
AcDbLine
 10
122.7338736516
 20
148.588565451
 30
0.0
 11
122.7500456516
 21
148.946339451
 31
0.0
  0
LINE
  5
2A8
330
1F
100
AcDbEntity
  8
SLD-0
  6
Continuous
 62
   179
100
AcDbLine
 10
123.2500456516
 20
148.946339451
 30
0.0
 11
123.2319706516
 21
149.345948451
 31
0.0
  0
LINE
  5
2A9
330
1F
100
AcDbEntity
  8
SLD-0
  6
Continuous
 62
   179
100
AcDbLine
 10
123.2319706516
 20
149.345948451
 30
0.0
 11
123.1778826516
 21
149.742516451
 31
0.0
  0
LINE
  5
2AA
330
1F
100
AcDbEntity
  8
SLD-0
  6
Continuous
 62
   179
100
AcDbLine
 10
123.1778826516
 20
149.742516451
 30
0.0
 11
123.0881936516
 21
150.133024451
 31
0.0
  0
LINE
  5
2AB
330
1F
100
AcDbEntity
  8
SLD-0
  6
Continuous
 62
   179
100
AcDbLine
 10
123.0881936516
 20
150.133024451
 30
0.0
 11
122.9635856516
 21
150.514501451
 31
0.0
  0
LINE
  5
2AC
330
1F
100
AcDbEntity
  8
SLD-0
  6
Continuous
 62
   179
100
AcDbLine
 10
122.9635856516
 20
150.514501451
 30
0.0
 11
122.8050076516
 21
150.884044451
 31
0.0
  0
LINE
  5
2AD
330
1F
100
AcDbEntity
  8
SLD-0
  6
Continuous
 62
   179
100
AcDbLine
 10
122.8050076516
 20
150.884044451
 30
0.0
 11
122.6136666516
 21
151.238839451
 31
0.0
  0
LINE
  5
2AE
330
1F
100
AcDbEntity
  8
SLD-0
  6
Continuous
 62
   179
100
AcDbLine
 10
122.6136666516
 20
151.238839451
 30
0.0
 11
122.3910186516
 21
151.576187451
 31
0.0
  0
LINE
  5
2AF
330
1F
100
AcDbEntity
  8
SLD-0
  6
Continuous
 62
   179
100
AcDbLine
 10
122.3910186516
 20
151.576187451
 30
0.0
 11
122.1387566516
 21
151.893520451
 31
0.0
  0
LINE
  5
2B0
330
1F
100
AcDbEntity
  8
SLD-0
  6
Continuous
 62
   179
100
AcDbLine
 10
122.1387566516
 20
151.893520451
 30
0.0
 11
121.8588036516
 21
152.188424451
 31
0.0
  0
LINE
  5
2B1
330
1F
100
AcDbEntity
  8
SLD-0
  6
Continuous
 62
   179
100
AcDbLine
 10
121.8588036516
 20
152.188424451
 30
0.0
 11
121.5532876516
 21
152.458653451
 31
0.0
  0
LINE
  5
2B2
330
1F
100
AcDbEntity
  8
SLD-0
  6
Continuous
 62
   179
100
AcDbLine
 10
121.5532876516
 20
152.458653451
 30
0.0
 11
121.2245336516
 21
152.702151451
 31
0.0
  0
LINE
  5
2B3
330
1F
100
AcDbEntity
  8
SLD-0
  6
Continuous
 62
   179
100
AcDbLine
 10
121.2245336516
 20
152.702151451
 30
0.0
 11
120.8750456516
 21
152.917065451
 31
0.0
  0
LINE
  5
2B4
330
1F
100
AcDbEntity
  8
SLD-0
  6
Continuous
 62
   179
100
AcDbLine
 10
120.8750456516
 20
152.917065451
 30
0.0
 11
120.5074826516
 21
153.101760451
 31
0.0
  0
LINE
  5
2B5
330
1F
100
AcDbEntity
  8
SLD-0
  6
Continuous
 62
   179
100
AcDbLine
 10
120.5074826516
 20
153.101760451
 30
0.0
 11
120.1246416516
 21
153.254830451
 31
0.0
  0
LINE
  5
2B6
330
1F
100
AcDbEntity
  8
SLD-0
  6
Continuous
 62
   179
100
AcDbLine
 10
120.1246416516
 20
153.254830451
 30
0.0
 11
119.7294366516
 21
153.375109451
 31
0.0
  0
LINE
  5
2B7
330
1F
100
AcDbEntity
  8
SLD-0
  6
Continuous
 62
   179
100
AcDbLine
 10
119.7294366516
 20
153.375109451
 30
0.0
 11
119.3248746516
 21
153.461683451
 31
0.0
  0
LINE
  5
2B8
330
1F
100
AcDbEntity
  8
SLD-0
  6
Continuous
 62
   179
100
AcDbLine
 10
119.3248746516
 20
153.461683451
 30
0.0
 11
118.9140356516
 21
153.513892451
 31
0.0
  0
LINE
  5
2B9
330
1F
100
AcDbEntity
  8
SLD-0
  6
Continuous
 62
   179
100
AcDbLine
 10
118.9140356516
 20
153.513892451
 30
0.0
 11
118.5000456516
 21
153.531339451
 31
0.0
  0
LINE
  5
2BA
330
1F
100
AcDbEntity
  8
SLD-0
  6
Continuous
 62
   179
100
AcDbLine
 10
118.5000456516
 20
153.531339451
 30
0.0
 11
118.0860566516
 21
153.513892451
 31
0.0
  0
LINE
  5
2BB
330
1F
100
AcDbEntity
  8
SLD-0
  6
Continuous
 62
   179
100
AcDbLine
 10
118.0860566516
 20
153.513892451
 30
0.0
 11
117.6752176516
 21
153.461683451
 31
0.0
  0
LINE
  5
2BC
330
1F
100
AcDbEntity
  8
SLD-0
  6
Continuous
 62
   179
100
AcDbLine
 10
117.6752176516
 20
153.461683451
 30
0.0
 11
117.2706556516
 21
153.375109451
 31
0.0
  0
LINE
  5
2BD
330
1F
100
AcDbEntity
  8
SLD-0
  6
Continuous
 62
   179
100
AcDbLine
 10
117.2706556516
 20
153.375109451
 30
0.0
 11
116.8754506516
 21
153.254830451
 31
0.0
  0
LINE
  5
2BE
330
1F
100
AcDbEntity
  8
SLD-0
  6
Continuous
 62
   179
100
AcDbLine
 10
116.8754506516
 20
153.254830451
 30
0.0
 11
116.4926096516
 21
153.101760451
 31
0.0
  0
LINE
  5
2BF
330
1F
100
AcDbEntity
  8
SLD-0
  6
Continuous
 62
   179
100
AcDbLine
 10
116.4926096516
 20
153.101760451
 30
0.0
 11
116.1250456516
 21
152.917065451
 31
0.0
  0
LINE
  5
2C0
330
1F
100
AcDbEntity
  8
SLD-0
  6
Continuous
 62
   179
100
AcDbLine
 10
116.1250456516
 20
152.917065451
 30
0.0
 11
115.7755576516
 21
152.702151451
 31
0.0
  0
LINE
  5
2C1
330
1F
100
AcDbEntity
  8
SLD-0
  6
Continuous
 62
   179
100
AcDbLine
 10
115.7755576516
 20
152.702151451
 30
0.0
 11
115.4468046516
 21
152.458653451
 31
0.0
  0
LINE
  5
2C2
330
1F
100
AcDbEntity
  8
SLD-0
  6
Continuous
 62
   179
100
AcDbLine
 10
115.4468046516
 20
152.458653451
 30
0.0
 11
115.1412886516
 21
152.188424451
 31
0.0
  0
LINE
  5
2C3
330
1F
100
AcDbEntity
  8
SLD-0
  6
Continuous
 62
   179
100
AcDbLine
 10
115.1412886516
 20
152.188424451
 30
0.0
 11
114.8613346516
 21
151.893520451
 31
0.0
  0
LINE
  5
2C4
330
1F
100
AcDbEntity
  8
SLD-0
  6
Continuous
 62
   179
100
AcDbLine
 10
114.8613346516
 20
151.893520451
 30
0.0
 11
114.6090736516
 21
151.576187451
 31
0.0
  0
LINE
  5
2C5
330
1F
100
AcDbEntity
  8
SLD-0
  6
Continuous
 62
   179
100
AcDbLine
 10
114.6090736516
 20
151.576187451
 30
0.0
 11
114.3864256516
 21
151.238839451
 31
0.0
  0
LINE
  5
2C6
330
1F
100
AcDbEntity
  8
SLD-0
  6
Continuous
 62
   179
100
AcDbLine
 10
114.3864256516
 20
151.238839451
 30
0.0
 11
114.1950836516
 21
150.884044451
 31
0.0
  0
LINE
  5
2C7
330
1F
100
AcDbEntity
  8
SLD-0
  6
Continuous
 62
   179
100
AcDbLine
 10
114.1950836516
 20
150.884044451
 30
0.0
 11
114.0365056516
 21
150.514501451
 31
0.0
  0
LINE
  5
2C8
330
1F
100
AcDbEntity
  8
SLD-0
  6
Continuous
 62
   179
100
AcDbLine
 10
114.0365056516
 20
150.514501451
 30
0.0
 11
113.9118986516
 21
150.133024451
 31
0.0
  0
LINE
  5
2C9
330
1F
100
AcDbEntity
  8
SLD-0
  6
Continuous
 62
   179
100
AcDbLine
 10
113.9118986516
 20
150.133024451
 30
0.0
 11
113.8222096516
 21
149.742516451
 31
0.0
  0
LINE
  5
2CA
330
1F
100
AcDbEntity
  8
SLD-0
  6
Continuous
 62
   179
100
AcDbLine
 10
113.8222096516
 20
149.742516451
 30
0.0
 11
113.7681216516
 21
149.345948451
 31
0.0
  0
LINE
  5
2CB
330
1F
100
AcDbEntity
  8
SLD-0
  6
Continuous
 62
   179
100
AcDbLine
 10
113.7681216516
 20
149.345948451
 30
0.0
 11
113.7500456516
 21
148.946339451
 31
0.0
  0
LINE
  5
2CC
330
1F
100
AcDbEntity
  8
SLD-0
  6
Continuous
 62
   179
100
AcDbLine
 10
113.7500456516
 20
148.946339451
 30
0.0
 11
113.7681216516
 21
148.546730451
 31
0.0
  0
LINE
  5
2CD
330
1F
100
AcDbEntity
  8
SLD-0
  6
Continuous
 62
   179
100
AcDbLine
 10
113.7681216516
 20
148.546730451
 30
0.0
 11
113.8222096516
 21
148.150162451
 31
0.0
  0
LINE
  5
2CE
330
1F
100
AcDbEntity
  8
SLD-0
  6
Continuous
 62
   179
100
AcDbLine
 10
113.8222096516
 20
148.150162451
 30
0.0
 11
113.9118986516
 21
147.759654451
 31
0.0
  0
LINE
  5
2CF
330
1F
100
AcDbEntity
  8
SLD-0
  6
Continuous
 62
   179
100
AcDbLine
 10
113.9118986516
 20
147.759654451
 30
0.0
 11
114.0365056516
 21
147.378177451
 31
0.0
  0
LINE
  5
2D0
330
1F
100
AcDbEntity
  8
SLD-0
  6
Continuous
 62
   179
100
AcDbLine
 10
114.0365056516
 20
147.378177451
 30
0.0
 11
114.1950836516
 21
147.008634451
 31
0.0
  0
LINE
  5
2D1
330
1F
100
AcDbEntity
  8
SLD-0
  6
Continuous
 62
   179
100
AcDbLine
 10
114.1950836516
 20
147.008634451
 30
0.0
 11
114.3864256516
 21
146.653839451
 31
0.0
  0
LINE
  5
2D2
330
1F
100
AcDbEntity
  8
SLD-0
  6
Continuous
 62
   179
100
AcDbLine
 10
114.3864256516
 20
146.653839451
 30
0.0
 11
114.6090736516
 21
146.316491451
 31
0.0
  0
LINE
  5
2D3
330
1F
100
AcDbEntity
  8
SLD-0
  6
Continuous
 62
   179
100
AcDbLine
 10
114.6090736516
 20
146.316491451
 30
0.0
 11
114.8613346516
 21
145.999158451
 31
0.0
  0
LINE
  5
2D4
330
1F
100
AcDbEntity
  8
SLD-0
  6
Continuous
 62
   179
100
AcDbLine
 10
114.8613346516
 20
145.999158451
 30
0.0
 11
115.1412886516
 21
145.704254451
 31
0.0
  0
LINE
  5
2D5
330
1F
100
AcDbEntity
  8
SLD-0
  6
Continuous
 62
   179
100
AcDbLine
 10
115.1412886516
 20
145.704254451
 30
0.0
 11
115.4468046516
 21
145.434025451
 31
0.0
  0
LINE
  5
2D6
330
1F
100
AcDbEntity
  8
SLD-0
  6
Continuous
 62
   179
100
AcDbLine
 10
115.4468046516
 20
145.434025451
 30
0.0
 11
115.7755576516
 21
145.190527451
 31
0.0
  0
LINE
  5
2D7
330
1F
100
AcDbEntity
  8
SLD-0
  6
Continuous
 62
   179
100
AcDbLine
 10
115.7755576516
 20
145.190527451
 30
0.0
 11
116.1250456516
 21
144.975613451
 31
0.0
  0
LINE
  5
2D8
330
1F
100
AcDbEntity
  8
SLD-0
  6
Continuous
 62
   179
100
AcDbLine
 10
116.1250456516
 20
144.975613451
 30
0.0
 11
116.4926096516
 21
144.790918451
 31
0.0
  0
LINE
  5
2D9
330
1F
100
AcDbEntity
  8
SLD-0
  6
Continuous
 62
   179
100
AcDbLine
 10
116.4926096516
 20
144.790918451
 30
0.0
 11
116.8754506516
 21
144.637848451
 31
0.0
  0
LINE
  5
2DA
330
1F
100
AcDbEntity
  8
SLD-0
  6
Continuous
 62
   179
100
AcDbLine
 10
116.8754506516
 20
144.637848451
 30
0.0
 11
117.2706556516
 21
144.517569451
 31
0.0
  0
LINE
  5
2DB
330
1F
100
AcDbEntity
  8
SLD-0
  6
Continuous
 62
   179
100
AcDbLine
 10
117.2706556516
 20
144.517569451
 30
0.0
 11
117.6752176516
 21
144.430995451
 31
0.0
  0
LINE
  5
2DC
330
1F
100
AcDbEntity
  8
SLD-0
  6
Continuous
 62
   179
100
AcDbLine
 10
117.6752176516
 20
144.430995451
 30
0.0
 11
118.0860566516
 21
144.378786451
 31
0.0
  0
LINE
  5
2DD
330
1F
100
AcDbEntity
  8
SLD-0
  6
Continuous
 62
   179
100
AcDbLine
 10
118.0860566516
 20
144.378786451
 30
0.0
 11
118.5000456516
 21
144.361339451
 31
0.0
  0
LINE
  5
2DE
330
1F
100
AcDbEntity
  8
SLD-0
  6
Continuous
 62
   179
100
AcDbLine
 10
118.5000456516
 20
144.361339451
 30
0.0
 11
118.9140356516
 21
144.378786451
 31
0.0
  0
LINE
  5
2DF
330
1F
100
AcDbEntity
  8
SLD-0
  6
Continuous
 62
   179
100
AcDbLine
 10
118.9140356516
 20
144.378786451
 30
0.0
 11
119.3248746516
 21
144.430995451
 31
0.0
  0
LINE
  5
2E0
330
1F
100
AcDbEntity
  8
SLD-0
  6
Continuous
 62
   179
100
AcDbLine
 10
119.3248746516
 20
144.430995451
 30
0.0
 11
119.7294366516
 21
144.517569451
 31
0.0
  0
LINE
  5
2E1
330
1F
100
AcDbEntity
  8
SLD-0
  6
Continuous
 62
   179
100
AcDbLine
 10
119.7294366516
 20
144.517569451
 30
0.0
 11
120.1246416516
 21
144.637848451
 31
0.0
  0
LINE
  5
2E2
330
1F
100
AcDbEntity
  8
SLD-0
  6
Continuous
 62
   179
100
AcDbLine
 10
120.1246416516
 20
144.637848451
 30
0.0
 11
120.5074826516
 21
144.790918451
 31
0.0
  0
LINE
  5
2E3
330
1F
100
AcDbEntity
  8
SLD-0
  6
Continuous
 62
   179
100
AcDbLine
 10
120.5074826516
 20
144.790918451
 30
0.0
 11
120.8750456516
 21
144.975613451
 31
0.0
  0
LINE
  5
2E4
330
1F
100
AcDbEntity
  8
SLD-0
  6
Continuous
 62
   179
100
AcDbLine
 10
120.8750456516
 20
144.975613451
 30
0.0
 11
121.2245336516
 21
145.190527451
 31
0.0
  0
LINE
  5
2E5
330
1F
100
AcDbEntity
  8
SLD-0
  6
Continuous
 62
   179
100
AcDbLine
 10
121.2245336516
 20
145.190527451
 30
0.0
 11
121.5532876516
 21
145.434025451
 31
0.0
  0
LINE
  5
2E6
330
1F
100
AcDbEntity
  8
SLD-0
  6
Continuous
 62
   179
100
AcDbLine
 10
121.5532876516
 20
145.434025451
 30
0.0
 11
121.8588036516
 21
145.704254451
 31
0.0
  0
LINE
  5
2E7
330
1F
100
AcDbEntity
  8
SLD-0
  6
Continuous
 62
   179
100
AcDbLine
 10
121.8588036516
 20
145.704254451
 30
0.0
 11
122.1387566516
 21
145.999158451
 31
0.0
  0
LINE
  5
2E8
330
1F
100
AcDbEntity
  8
SLD-0
  6
Continuous
 62
   179
100
AcDbLine
 10
122.1387566516
 20
145.999158451
 30
0.0
 11
122.3910186516
 21
146.316491451
 31
0.0
  0
LINE
  5
2E9
330
1F
100
AcDbEntity
  8
SLD-0
  6
Continuous
 62
   179
100
AcDbLine
 10
122.3910186516
 20
146.316491451
 30
0.0
 11
122.6136666516
 21
146.653839451
 31
0.0
  0
LINE
  5
2EA
330
1F
100
AcDbEntity
  8
SLD-0
  6
Continuous
 62
   179
100
AcDbLine
 10
122.6136666516
 20
146.653839451
 30
0.0
 11
122.8050076516
 21
147.008634451
 31
0.0
  0
LINE
  5
2EB
330
1F
100
AcDbEntity
  8
SLD-0
  6
Continuous
 62
   179
100
AcDbLine
 10
122.8050076516
 20
147.008634451
 30
0.0
 11
122.9635856516
 21
147.378177451
 31
0.0
  0
LINE
  5
2EC
330
1F
100
AcDbEntity
  8
SLD-0
  6
Continuous
 62
   179
100
AcDbLine
 10
122.9635856516
 20
147.378177451
 30
0.0
 11
123.0881936516
 21
147.759654451
 31
0.0
  0
LINE
  5
2ED
330
1F
100
AcDbEntity
  8
SLD-0
  6
Continuous
 62
   179
100
AcDbLine
 10
123.0881936516
 20
147.759654451
 30
0.0
 11
123.1778826516
 21
148.150162451
 31
0.0
  0
LINE
  5
2EE
330
1F
100
AcDbEntity
  8
SLD-0
  6
Continuous
 62
   179
100
AcDbLine
 10
123.1778826516
 20
148.150162451
 30
0.0
 11
123.2319706516
 21
148.546730451
 31
0.0
  0
LINE
  5
2EF
330
1F
100
AcDbEntity
  8
SLD-0
  6
Continuous
 62
   179
100
AcDbLine
 10
123.2319706516
 20
148.546730451
 30
0.0
 11
123.2500456516
 21
148.946339451
 31
0.0
  0
ARC
  5
2F0
330
1F
100
AcDbEntity
  8
SLD-0
  6
Continuous
 62
   179
100
AcDbCircle
 10
94.6766176516
 20
83.246339451
 30
0.0
 40
4.0
100
AcDbArc
 50
90.0
 51
180.0
  0
ARC
  5
2F1
330
1F
100
AcDbEntity
  8
SLD-0
  6
Continuous
 62
   179
100
AcDbCircle
 10
94.6766176516
 20
46.246339451
 30
0.0
 40
4.000000000000014
100
AcDbArc
 50
180.0
 51
270.0
  0
ARC
  5
2F2
330
1F
100
AcDbEntity
  8
SLD-0
  6
Continuous
 62
   179
100
AcDbCircle
 10
94.6766176516
 20
38.246339451
 30
0.0
 40
4.0
100
AcDbArc
 50
0.0
 51
90.0
  0
ARC
  5
2F3
330
1F
100
AcDbEntity
  8
SLD-0
  6
Continuous
 62
   179
100
AcDbCircle
 10
106.6766176516
 20
36.246339451
 30
0.0
 40
8.0
100
AcDbArc
 50
180.0
 51
270.0
  0
ARC
  5
2F4
330
1F
100
AcDbEntity
  8
SLD-0
  6
Continuous
 62
   179
100
AcDbCircle
 10
111.6766176516
 20
36.246339451
 30
0.0
 40
8.0
100
AcDbArc
 50
270.0
 51
0.0
  0
ARC
  5
2F5
330
1F
100
AcDbEntity
  8
SLD-0
  6
Continuous
 62
   179
100
AcDbCircle
 10
123.6766176516
 20
38.246339451
 30
0.0
 40
4.0
100
AcDbArc
 50
90.0
 51
180.0
  0
ARC
  5
2F6
330
1F
100
AcDbEntity
  8
SLD-0
  6
Continuous
 62
   179
100
AcDbCircle
 10
123.6766176516
 20
91.246339451
 30
0.0
 40
4.0
100
AcDbArc
 50
180.0
 51
270.0
  0
ARC
  5
2F7
330
1F
100
AcDbEntity
  8
SLD-0
  6
Continuous
 62
   179
100
AcDbCircle
 10
111.6766176516
 20
93.246339451
 30
0.0
 40
8.0
100
AcDbArc
 50
0.0
 51
90.0
  0
ARC
  5
2F8
330
1F
100
AcDbEntity
  8
SLD-0
  6
Continuous
 62
   179
100
AcDbCircle
 10
106.6766176516
 20
93.246339451
 30
0.0
 40
8.0
100
AcDbArc
 50
90.0
 51
180.0
  0
ARC
  5
2F9
330
1F
100
AcDbEntity
  8
SLD-0
  6
Continuous
 62
   179
100
AcDbCircle
 10
94.6766176516
 20
91.246339451
 30
0.0
 40
4.0
100
AcDbArc
 50
270.0
 51
0.0
  0
ARC
  5
2FA
330
1F
100
AcDbEntity
  8
SLD-0
  6
Continuous
 62
   179
100
AcDbCircle
 10
110.9766176516
 20
93.246339451
 30
0.0
 40
3.199999999999989
100
AcDbArc
 50
270.0
 51
90.0
  0
ARC
  5
2FB
330
1F
100
AcDbEntity
  8
SLD-0
  6
Continuous
 62
   179
100
AcDbCircle
 10
107.3766176516
 20
93.246339451
 30
0.0
 40
3.199999999999989
100
AcDbArc
 50
90.0
 51
270.0
  0
ARC
  5
2FC
330
1F
100
AcDbEntity
  8
SLD-0
  6
Continuous
 62
   179
100
AcDbCircle
 10
147.1766176516
 20
133.246339451
 30
0.0
 40
2.0
100
AcDbArc
 50
270.0
 51
0.0
  0
ARC
  5
2FD
330
1F
100
AcDbEntity
  8
SLD-0
  6
Continuous
 62
   179
100
AcDbCircle
 10
92.6766176516
 20
151.946339451
 30
0.0
 40
2.0
100
AcDbArc
 50
0.0
 51
90.0
  0
ARC
  5
2FE
330
1F
100
AcDbEntity
  8
SLD-0
  6
Continuous
 62
   179
100
AcDbCircle
 10
139.6766181094
 20
257.2034132643
 30
0.0
 40
14.00000019716921
100
AcDbArc
 50
180.0
 51
251.2506597008
  0
ARC
  5
2FF
330
1F
100
AcDbEntity
  8
SLD-0
  6
Continuous
 62
   179
100
AcDbCircle
 10
85.676617715
 20
257.2034132643
 30
0.0
 40
14.00000019716923
100
AcDbArc
 50
288.7493402992
 51
0.0
  0
ARC
  5
300
330
1F
100
AcDbEntity
  8
SLD-0
  6
Continuous
 62
   179
100
AcDbCircle
 10
100.9812576516
 20
170.946339451
 30
0.0
 40
2.0
100
AcDbArc
 50
0.0
 51
90.0
  0
ARC
  5
301
330
1F
100
AcDbEntity
  8
SLD-0
  6
Continuous
 62
   179
100
AcDbCircle
 10
124.3719776516
 20
170.946339451
 30
0.0
 40
2.0
100
AcDbArc
 50
90.0
 51
180.0
  0
ARC
  5
302
330
1F
100
AcDbEntity
  8
SLD-0
  6
Continuous
 62
   179
100
AcDbCircle
 10
159.4766176516
 20
227.146339451
 30
0.0
 40
0.299999999999983
100
AcDbArc
 50
0.0
 51
180.0
  0
ARC
  5
303
330
1F
100
AcDbEntity
  8
SLD-0
  6
Continuous
 62
   179
100
AcDbCircle
 10
159.4766176516
 20
219.746339451
 30
0.0
 40
0.299999999999983
100
AcDbArc
 50
180.0
 51
0.0
  0
ARC
  5
304
330
1F
100
AcDbEntity
  8
SLD-0
  6
Continuous
 62
   179
100
AcDbCircle
 10
162.5520831296
 20
227.1463395537
 30
0.0
 40
0.3000000757971393
100
AcDbArc
 50
12.1195943162
 51
192.1196344143
  0
ARC
  5
305
330
1F
100
AcDbEntity
  8
SLD-0
  6
Continuous
 62
   179
100
AcDbCircle
 10
167.2920830711
 20
219.7463396564
 30
0.0
 40
0.3000000976173488
100
AcDbArc
 50
206.0847760675
 51
347.8804056838
  0
ARC
  5
306
330
1F
100
AcDbEntity
  8
SLD-0
  6
Continuous
 62
   179
100
AcDbCircle
 10
170.4520830711
 20
219.7463396564
 30
0.0
 40
0.3000000976174004
100
AcDbArc
 50
206.0847760675
 51
347.8804056837
  0
ARC
  5
307
330
1F
100
AcDbEntity
  8
SLD-0
  6
Continuous
 62
   179
100
AcDbCircle
 10
173.6211521516
 20
219.746339451
 30
0.0
 40
0.300000075797101
100
AcDbArc
 50
192.1196143653
 51
12.1196143653
  0
ARC
  5
308
330
1F
100
AcDbEntity
  8
SLD-0
  6
Continuous
 62
   179
100
AcDbCircle
 10
172.0320831296
 20
227.1463395537
 30
0.0
 40
0.3000000757970578
100
AcDbArc
 50
12.1195943162
 51
192.1196344144
  0
ARC
  5
309
330
1F
100
AcDbEntity
  8
SLD-0
  6
Continuous
 62
   179
100
AcDbCircle
 10
175.8766174316
 20
227.1463395184
 30
0.0
 40
0.30000023010723
100
AcDbArc
 50
0.0
 51
162.9713682762
  0
ARC
  5
30A
330
1F
100
AcDbEntity
  8
SLD-0
  6
Continuous
 62
   179
100
AcDbCircle
 10
165.7120829277
 20
227.1463395103
 30
0.0
 40
0.3000002823264864
100
AcDbArc
 50
12.1195943162
 51
192.119591
  0
ARC
  5
30B
330
1F
100
AcDbEntity
  8
SLD-0
  6
Continuous
 62
   179
100
AcDbCircle
 10
168.8720829277
 20
227.1463395103
 30
0.0
 40
0.300000282326382
100
AcDbArc
 50
12.1195943162
 51
192.119591
  0
ARC
  5
30C
330
1F
100
AcDbEntity
  8
SLD-0
  6
Continuous
 62
   179
100
AcDbCircle
 10
180.1766176516
 20
227.946339451
 30
0.0
 40
0.5
100
AcDbArc
 50
0.0
 51
90.0
  0
ARC
  5
30D
330
1F
100
AcDbEntity
  8
SLD-0
  6
Continuous
 62
   179
100
AcDbCircle
 10
180.1766176516
 20
218.946339451
 30
0.0
 40
0.5
100
AcDbArc
 50
270.0
 51
0.0
  0
ARC
  5
30E
330
1F
100
AcDbEntity
  8
SLD-0
  6
Continuous
 62
   179
100
AcDbCircle
 10
175.8766176516
 20
219.746339451
 30
0.0
 40
0.3000000000000966
100
AcDbArc
 50
180.0
 51
0.0
  0
ARC
  5
30F
330
1F
100
AcDbEntity
  8
SLD-0
  6
Continuous
 62
   179
100
AcDbCircle
 10
180.1766176516
 20
187.946339451
 30
0.0
 40
0.5
100
AcDbArc
 50
0.0
 51
90.0
  0
ARC
  5
310
330
1F
100
AcDbEntity
  8
SLD-0
  6
Continuous
 62
   179
100
AcDbCircle
 10
180.1766176516
 20
178.946339451
 30
0.0
 40
0.5
100
AcDbArc
 50
270.0
 51
0.0
  0
ARC
  5
311
330
1F
100
AcDbEntity
  8
SLD-0
  6
Continuous
 62
   179
100
AcDbCircle
 10
175.8766174316
 20
187.1463395184
 30
0.0
 40
0.3000002301073153
100
AcDbArc
 50
0.0
 51
162.9713682762
  0
ARC
  5
312
330
1F
100
AcDbEntity
  8
SLD-0
  6
Continuous
 62
   179
100
AcDbCircle
 10
173.6211521516
 20
179.746339451
 30
0.0
 40
0.3000000757970712
100
AcDbArc
 50
192.1196143653
 51
12.1196143652
  0
ARC
  5
313
330
1F
100
AcDbEntity
  8
SLD-0
  6
Continuous
 62
   179
100
AcDbCircle
 10
172.0320831296
 20
187.1463395537
 30
0.0
 40
0.3000000757970936
100
AcDbArc
 50
12.1195943162
 51
192.1196344143
  0
ARC
  5
314
330
1F
100
AcDbEntity
  8
SLD-0
  6
Continuous
 62
   179
100
AcDbCircle
 10
168.8720829277
 20
187.1463395103
 30
0.0
 40
0.3000002823264248
100
AcDbArc
 50
12.1195943162
 51
192.119591
  0
ARC
  5
315
330
1F
100
AcDbEntity
  8
SLD-0
  6
Continuous
 62
   179
100
AcDbCircle
 10
170.4520830711
 20
179.7463396564
 30
0.0
 40
0.3000000976172912
100
AcDbArc
 50
206.0847760675
 51
347.8804056838
  0
ARC
  5
316
330
1F
100
AcDbEntity
  8
SLD-0
  6
Continuous
 62
   179
100
AcDbCircle
 10
167.2920830711
 20
179.7463396564
 30
0.0
 40
0.3000000976174009
100
AcDbArc
 50
206.0847760675
 51
347.8804056837
  0
ARC
  5
317
330
1F
100
AcDbEntity
  8
SLD-0
  6
Continuous
 62
   179
100
AcDbCircle
 10
165.7120829277
 20
187.1463395103
 30
0.0
 40
0.3000002823264157
100
AcDbArc
 50
12.1195943162
 51
192.119591
  0
ARC
  5
318
330
1F
100
AcDbEntity
  8
SLD-0
  6
Continuous
 62
   179
100
AcDbCircle
 10
162.5520831296
 20
187.1463395537
 30
0.0
 40
0.3000000757970858
100
AcDbArc
 50
12.1195943162
 51
192.1196344143
  0
ARC
  5
319
330
1F
100
AcDbEntity
  8
SLD-0
  6
Continuous
 62
   179
100
AcDbCircle
 10
164.1320830711
 20
179.7463396564
 30
0.0
 40
0.3000000976174129
100
AcDbArc
 50
206.0847760675
 51
347.8804056838
  0
ARC
  5
31A
330
1F
100
AcDbEntity
  8
SLD-0
  6
Continuous
 62
   179
100
AcDbCircle
 10
159.4766176516
 20
187.146339451
 30
0.0
 40
0.299999999999983
100
AcDbArc
 50
0.0
 51
180.0
  0
ARC
  5
31B
330
1F
100
AcDbEntity
  8
SLD-0
  6
Continuous
 62
   179
100
AcDbCircle
 10
159.4766176516
 20
179.746339451
 30
0.0
 40
0.299999999999983
100
AcDbArc
 50
180.0
 51
0.0
  0
ARC
  5
31C
330
1F
100
AcDbEntity
  8
SLD-0
  6
Continuous
 62
   179
100
AcDbCircle
 10
175.8766176516
 20
179.746339451
 30
0.0
 40
0.3000000000000966
100
AcDbArc
 50
180.0
 51
0.0
  0
CIRCLE
  5
31D
330
1F
100
AcDbEntity
  8
SLD-0
  6
Continuous
 62
   179
100
AcDbCircle
 10
166.1766176516
 20
203.446339451
 30
0.0
 40
2.099999999999994
  0
ARC
  5
31E
330
1F
100
AcDbEntity
  8
SLD-0
  6
Continuous
 62
   179
100
AcDbCircle
 10
164.1320830711
 20
219.7463396564
 30
0.0
 40
0.3000000976173547
100
AcDbArc
 50
206.0847760675
 51
347.8804056838
  0
ARC
  5
31F
330
1F
100
AcDbEntity
  8
SLD-0
  6
Continuous
 62
   179
100
AcDbCircle
 10
146.1736259545
 20
207.6192818805
 30
0.0
 40
5.000000106256368
100
AcDbArc
 50
181.9821695854
 51
201.8827401547
  0
ARC
  5
320
330
1F
100
AcDbEntity
  8
SLD-0
  6
Continuous
 62
   179
100
AcDbCircle
 10
148.8193520006
 20
203.4463395248
 30
0.0
 40
7.642734558308415
100
AcDbArc
 50
162.4120471819
 51
197.5879528181
  0
ARC
  5
321
330
1F
100
AcDbEntity
  8
SLD-0
  6
Continuous
 62
   179
100
AcDbCircle
 10
136.2338830006
 20
203.4463395248
 30
0.0
 40
7.642734558308415
100
AcDbArc
 50
342.4120471819
 51
17.5879528181
  0
ARC
  5
322
330
1F
100
AcDbEntity
  8
SLD-0
  6
Continuous
 62
   179
100
AcDbCircle
 10
138.8796098382
 20
207.6192826062
 30
0.0
 40
4.999999642282026
100
AcDbArc
 50
338.1172487482
 51
358.0178219097
  0
ARC
  5
323
330
1F
100
AcDbEntity
  8
SLD-0
  6
Continuous
 62
   179
100
AcDbCircle
 10
146.1736259601
 20
199.273397183
 30
0.0
 40
5.000000106256359
100
AcDbArc
 50
158.117260017
 51
178.0178322651
  0
ARC
  5
324
330
1F
100
AcDbEntity
  8
SLD-0
  6
Continuous
 62
   179
100
AcDbCircle
 10
138.8796098326
 20
199.2733964573
 30
0.0
 40
4.999999642281995
100
AcDbArc
 50
1.9821762398
 51
21.8827510801
  0
CIRCLE
  5
325
330
1F
100
AcDbEntity
  8
SLD-0
  6
Continuous
 62
   179
100
AcDbCircle
 10
156.1766176516
 20
203.446339451
 30
0.0
 40
2.500000000000028
  0
CIRCLE
  5
326
330
1F
100
AcDbEntity
  8
SLD-0
  6
Continuous
 62
   179
100
AcDbCircle
 10
94.6766176516
 20
222.946339451
 30
0.0
 40
1.650000000000006
  0
CIRCLE
  5
327
330
1F
100
AcDbEntity
  8
SLD-0
  6
Continuous
 62
   179
100
AcDbCircle
 10
130.6766176516
 20
222.946339451
 30
0.0
 40
1.650000000000006
  0
CIRCLE
  5
328
330
1F
100
AcDbEntity
  8
SLD-0
  6
Continuous
 62
   179
100
AcDbCircle
 10
94.6766176516
 20
182.946339451
 30
0.0
 40
1.650000000000006
  0
ARC
  5
329
330
1F
100
AcDbEntity
  8
SLD-0
  6
Continuous
 62
   179
100
AcDbCircle
 10
132.6766176516
 20
151.946339451
 30
0.0
 40
2.0
100
AcDbArc
 50
90.0
 51
180.0
  0
ARC
  5
32A
330
1F
100
AcDbEntity
  8
SLD-0
  6
Continuous
 62
   179
100
AcDbCircle
 10
142.976617526
 20
54.2463399172
 30
0.0
 40
0.7999999241107927
100
AcDbArc
 50
105.087485083
 51
254.9124962748
  0
ARC
  5
32B
330
1F
100
AcDbEntity
  8
SLD-0
  6
Continuous
 62
   179
100
AcDbCircle
 10
180.1766176516
 20
60.246339451
 30
0.0
 40
0.5
100
AcDbArc
 50
270.0
 51
0.0
  0
ARC
  5
32C
330
1F
100
AcDbEntity
  8
SLD-0
  6
Continuous
 62
   179
100
AcDbCircle
 10
180.1766176516
 20
69.246339451
 30
0.0
 40
0.5
100
AcDbArc
 50
0.0
 51
90.0
  0
ARC
  5
32D
330
1F
100
AcDbEntity
  8
SLD-0
  6
Continuous
 62
   179
100
AcDbCircle
 10
159.4766176516
 20
68.446339451
 30
0.0
 40
0.299999999999983
100
AcDbArc
 50
0.0
 51
180.0
  0
ARC
  5
32E
330
1F
100
AcDbEntity
  8
SLD-0
  6
Continuous
 62
   179
100
AcDbCircle
 10
159.4766176516
 20
61.046339451
 30
0.0
 40
0.299999999999983
100
AcDbArc
 50
180.0
 51
360.0
  0
ARC
  5
32F
330
1F
100
AcDbEntity
  8
SLD-0
  6
Continuous
 62
   179
100
AcDbCircle
 10
175.8766176516
 20
61.046339451
 30
0.0
 40
0.3000000000000114
100
AcDbArc
 50
180.0
 51
0.0
  0
ARC
  5
330
330
1F
100
AcDbEntity
  8
SLD-0
  6
Continuous
 62
   179
100
AcDbCircle
 10
175.8766172916
 20
68.4463395613
 30
0.0
 40
0.3000003765329235
100
AcDbArc
 50
0.0
 51
162.9711856639
  0
ARC
  5
331
330
1F
100
AcDbEntity
  8
SLD-0
  6
Continuous
 62
   179
100
AcDbCircle
 10
173.6211521516
 20
61.046339451
 30
0.0
 40
0.3000000757968886
100
AcDbArc
 50
192.1196143653
 51
12.1196143652
  0
ARC
  5
332
330
1F
100
AcDbEntity
  8
SLD-0
  6
Continuous
 62
   179
100
AcDbCircle
 10
172.0320831296
 20
68.4463395537
 30
0.0
 40
0.3000000757969021
100
AcDbArc
 50
12.1195943162
 51
192.1196344143
  0
ARC
  5
333
330
1F
100
AcDbEntity
  8
SLD-0
  6
Continuous
 62
   179
100
AcDbCircle
 10
170.4520830711
 20
61.0463396564
 30
0.0
 40
0.3000000976168932
100
AcDbArc
 50
206.0847760676
 51
347.8804056838
  0
ARC
  5
334
330
1F
100
AcDbEntity
  8
SLD-0
  6
Continuous
 62
   179
100
AcDbCircle
 10
168.8720829277
 20
68.4463395103
 30
0.0
 40
0.3000002823264217
100
AcDbArc
 50
12.1195943162
 51
192.119591
  0
ARC
  5
335
330
1F
100
AcDbEntity
  8
SLD-0
  6
Continuous
 62
   179
100
AcDbCircle
 10
167.2920830711
 20
61.0463396564
 30
0.0
 40
0.3000000976169353
100
AcDbArc
 50
206.0847760676
 51
347.8804056838
  0
ARC
  5
336
330
1F
100
AcDbEntity
  8
SLD-0
  6
Continuous
 62
   179
100
AcDbCircle
 10
165.7120829277
 20
68.4463395103
 30
0.0
 40
0.3000002823264772
100
AcDbArc
 50
12.1195943162
 51
192.119591
  0
ARC
  5
337
330
1F
100
AcDbEntity
  8
SLD-0
  6
Continuous
 62
   179
100
AcDbCircle
 10
164.1320830711
 20
61.0463396564
 30
0.0
 40
0.3000000976169751
100
AcDbArc
 50
206.0847760675
 51
347.8804056838
  0
ARC
  5
338
330
1F
100
AcDbEntity
  8
SLD-0
  6
Continuous
 62
   179
100
AcDbCircle
 10
162.5520831296
 20
68.4463395537
 30
0.0
 40
0.3000000757971035
100
AcDbArc
 50
12.1195943162
 51
192.1196344143
  0
ARC
  5
339
330
1F
100
AcDbEntity
  8
SLD-0
  6
Continuous
 62
   179
100
AcDbCircle
 10
160.5219968348
 20
49.4963393834
 30
0.0
 40
5.054620195255453
100
AcDbArc
 50
339.7438420414
 51
20.256158
  0
ARC
  5
33A
330
1F
100
AcDbEntity
  8
SLD-0
  6
Continuous
 62
   179
100
AcDbCircle
 10
157.3219968348
 20
45.9963395186
 30
0.0
 40
5.054620195255501
100
AcDbArc
 50
339.743842
 51
20.2561579586
  0
ARC
  5
33B
330
1F
100
AcDbEntity
  8
SLD-0
  6
Continuous
 62
   179
100
AcDbCircle
 10
157.3219968348
 20
49.4963393834
 30
0.0
 40
5.054620195255506
100
AcDbArc
 50
339.7438420414
 51
20.256158
  0
ARC
  5
33C
330
1F
100
AcDbEntity
  8
SLD-0
  6
Continuous
 62
   179
100
AcDbCircle
 10
160.5219968348
 20
45.9963395186
 30
0.0
 40
5.05462019525545
100
AcDbArc
 50
339.743842
 51
20.2561579586
  0
ARC
  5
33D
330
1F
100
AcDbEntity
  8
SLD-0
  6
Continuous
 62
   179
100
AcDbCircle
 10
259.5555396516
 20
188.946339451
 30
0.0
 40
4.0
100
AcDbArc
 50
0.0
 51
90.0
  0
ARC
  5
33E
330
1F
100
AcDbEntity
  8
SLD-0
  6
Continuous
 62
   179
100
AcDbCircle
 10
257.5555396516
 20
200.946339451
 30
0.0
 40
8.0
100
AcDbArc
 50
180.0
 51
270.0
  0
ARC
  5
33F
330
1F
100
AcDbEntity
  8
SLD-0
  6
Continuous
 62
   179
100
AcDbCircle
 10
257.5555396516
 20
205.946339451
 30
0.0
 40
8.0
100
AcDbArc
 50
90.0
 51
180.0
  0
ARC
  5
340
330
1F
100
AcDbEntity
  8
SLD-0
  6
Continuous
 62
   179
100
AcDbCircle
 10
268.0555396516
 20
217.946339451
 30
0.0
 40
4.0
100
AcDbArc
 50
270.0
 51
90.0
  0
ARC
  5
341
330
1F
100
AcDbEntity
  8
SLD-0
  6
Continuous
 62
   179
100
AcDbCircle
 10
266.5555396516
 20
224.946339451
 30
0.0
 40
3.0
100
AcDbArc
 50
180.0
 51
270.0
  0
CIRCLE
  5
342
330
1F
100
AcDbEntity
  8
SLD-0
  6
Continuous
 62
   179
100
AcDbCircle
 10
268.0555396516
 20
217.946339451
 30
0.0
 40
2.980385000000013
  0
CIRCLE
  5
343
330
1F
100
AcDbEntity
  8
SLD-0
  6
Continuous
 62
   179
100
AcDbCircle
 10
268.0555396516
 20
217.946339451
 30
0.0
 40
3.5
  0
ARC
  5
344
330
1F
100
AcDbEntity
  8
SLD-0
  6
Continuous
 62
   179
100
AcDbCircle
 10
303.5555396516
 20
239.446339451
 30
0.0
 40
5.0
100
AcDbArc
 50
0.0
 51
90.0
  0
CIRCLE
  5
345
330
1F
100
AcDbEntity
  8
SLD-0
  6
Continuous
 62
   179
100
AcDbCircle
 10
304.0555396516
 20
217.946339451
 30
0.0
 40
3.5
  0
CIRCLE
  5
346
330
1F
100
AcDbEntity
  8
SLD-0
  6
Continuous
 62
   179
100
AcDbCircle
 10
304.0555396516
 20
217.946339451
 30
0.0
 40
2.980384999999956
  0
ARC
  5
347
330
1F
100
AcDbEntity
  8
SLD-0
  6
Continuous
 62
   179
100
AcDbCircle
 10
305.5555396516
 20
224.946339451
 30
0.0
 40
3.0
100
AcDbArc
 50
270.0
 51
0.0
  0
ARC
  5
348
330
1F
100
AcDbEntity
  8
SLD-0
  6
Continuous
 62
   179
100
AcDbCircle
 10
304.0555396516
 20
217.946339451
 30
0.0
 40
4.0
100
AcDbArc
 50
90.0
 51
270.0
  0
ARC
  5
349
330
1F
100
AcDbEntity
  8
SLD-0
  6
Continuous
 62
   179
100
AcDbCircle
 10
314.5555396516
 20
205.946339451
 30
0.0
 40
8.0
100
AcDbArc
 50
0.0
 51
90.0
  0
ARC
  5
34A
330
1F
100
AcDbEntity
  8
SLD-0
  6
Continuous
 62
   179
100
AcDbCircle
 10
314.5555396516
 20
200.946339451
 30
0.0
 40
8.0
100
AcDbArc
 50
270.0
 51
0.0
  0
ARC
  5
34B
330
1F
100
AcDbEntity
  8
SLD-0
  6
Continuous
 62
   179
100
AcDbCircle
 10
312.5555396516
 20
188.946339451
 30
0.0
 40
4.0
100
AcDbArc
 50
90.0
 51
180.0
  0
ARC
  5
34C
330
1F
100
AcDbEntity
  8
SLD-0
  6
Continuous
 62
   179
100
AcDbCircle
 10
296.5555401178
 20
137.4463393254
 30
0.0
 40
0.7999999241107467
100
AcDbArc
 50
15.087485083
 51
164.9124962748
  0
ARC
  5
34D
330
1F
100
AcDbEntity
  8
SLD-0
  6
Continuous
 62
   179
100
AcDbCircle
 10
275.5555401178
 20
137.4463393254
 30
0.0
 40
0.7999999241107467
100
AcDbArc
 50
15.087485083
 51
164.9124962748
  0
ARC
  5
34E
330
1F
100
AcDbEntity
  8
SLD-0
  6
Continuous
 62
   179
100
AcDbCircle
 10
266.5555396516
 20
170.946339451
 30
0.0
 40
3.0
100
AcDbArc
 50
90.0
 51
180.0
  0
ARC
  5
34F
330
1F
100
AcDbEntity
  8
SLD-0
  6
Continuous
 62
   179
100
AcDbCircle
 10
268.0555396516
 20
177.946339451
 30
0.0
 40
4.0
100
AcDbArc
 50
270.0
 51
90.0
  0
ARC
  5
350
330
1F
100
AcDbEntity
  8
SLD-0
  6
Continuous
 62
   179
100
AcDbCircle
 10
266.5555396516
 20
184.946339451
 30
0.0
 40
3.0
100
AcDbArc
 50
180.0
 51
270.0
  0
CIRCLE
  5
351
330
1F
100
AcDbEntity
  8
SLD-0
  6
Continuous
 62
   179
100
AcDbCircle
 10
268.0555396516
 20
177.946339451
 30
0.0
 40
2.980385000000013
  0
CIRCLE
  5
352
330
1F
100
AcDbEntity
  8
SLD-0
  6
Continuous
 62
   179
100
AcDbCircle
 10
268.0555396516
 20
177.946339451
 30
0.0
 40
3.5
  0
CIRCLE
  5
353
330
1F
100
AcDbEntity
  8
SLD-0
  6
Continuous
 62
   179
100
AcDbCircle
 10
278.3055396516
 20
195.696339451
 30
0.0
 40
2.75
  0
CIRCLE
  5
354
330
1F
100
AcDbEntity
  8
SLD-0
  6
Continuous
 62
   179
100
AcDbCircle
 10
278.3055396516
 20
195.696339451
 30
0.0
 40
3.25
  0
CIRCLE
  5
355
330
1F
100
AcDbEntity
  8
SLD-0
  6
Continuous
 62
   179
100
AcDbCircle
 10
269.0555396516
 20
203.446339451
 30
0.0
 40
3.0
  0
ARC
  5
356
330
1F
100
AcDbEntity
  8
SLD-0
  6
Continuous
 62
   179
100
AcDbCircle
 10
257.5555396516
 20
201.646339451
 30
0.0
 40
3.200000000000046
100
AcDbArc
 50
180.0
 51
0.0
  0
ARC
  5
357
330
1F
100
AcDbEntity
  8
SLD-0
  6
Continuous
 62
   179
100
AcDbCircle
 10
257.5555396516
 20
205.246339451
 30
0.0
 40
3.200000000000046
100
AcDbArc
 50
0.0
 51
180.0
  0
CIRCLE
  5
358
330
1F
100
AcDbEntity
  8
SLD-0
  6
Continuous
 62
   179
100
AcDbCircle
 10
278.3055396516
 20
211.196339451
 30
0.0
 40
2.75
  0
CIRCLE
  5
359
330
1F
100
AcDbEntity
  8
SLD-0
  6
Continuous
 62
   179
100
AcDbCircle
 10
278.3055396516
 20
211.196339451
 30
0.0
 40
3.25
  0
CIRCLE
  5
35A
330
1F
100
AcDbEntity
  8
SLD-0
  6
Continuous
 62
   179
100
AcDbCircle
 10
286.0555396516
 20
223.446339451
 30
0.0
 40
4.5
  0
CIRCLE
  5
35B
330
1F
100
AcDbEntity
  8
SLD-0
  6
Continuous
 62
   179
100
AcDbCircle
 10
286.0555396516
 20
223.446339451
 30
0.0
 40
5.0
  0
CIRCLE
  5
35C
330
1F
100
AcDbEntity
  8
SLD-0
  6
Continuous
 62
   179
100
AcDbCircle
 10
286.0555396516
 20
223.446339451
 30
0.0
 40
5.5
  0
CIRCLE
  5
35D
330
1F
100
AcDbEntity
  8
SLD-0
  6
Continuous
 62
   179
100
AcDbCircle
 10
293.8055396516
 20
211.196339451
 30
0.0
 40
2.75
  0
CIRCLE
  5
35E
330
1F
100
AcDbEntity
  8
SLD-0
  6
Continuous
 62
   179
100
AcDbCircle
 10
293.8055396516
 20
211.196339451
 30
0.0
 40
3.25
  0
CIRCLE
  5
35F
330
1F
100
AcDbEntity
  8
SLD-0
  6
Continuous
 62
   179
100
AcDbCircle
 10
303.0555396516
 20
203.446339451
 30
0.0
 40
2.0
  0
CIRCLE
  5
360
330
1F
100
AcDbEntity
  8
SLD-0
  6
Continuous
 62
   179
100
AcDbCircle
 10
303.0555396516
 20
203.446339451
 30
0.0
 40
3.5
  0
CIRCLE
  5
361
330
1F
100
AcDbEntity
  8
SLD-0
  6
Continuous
 62
   179
100
AcDbCircle
 10
293.8055396516
 20
195.696339451
 30
0.0
 40
2.75
  0
CIRCLE
  5
362
330
1F
100
AcDbEntity
  8
SLD-0
  6
Continuous
 62
   179
100
AcDbCircle
 10
293.8055396516
 20
195.696339451
 30
0.0
 40
3.25
  0
CIRCLE
  5
363
330
1F
100
AcDbEntity
  8
SLD-0
  6
Continuous
 62
   179
100
AcDbCircle
 10
286.0555396516
 20
183.446339451
 30
0.0
 40
4.5
  0
CIRCLE
  5
364
330
1F
100
AcDbEntity
  8
SLD-0
  6
Continuous
 62
   179
100
AcDbCircle
 10
286.0555396516
 20
183.446339451
 30
0.0
 40
5.0
  0
CIRCLE
  5
365
330
1F
100
AcDbEntity
  8
SLD-0
  6
Continuous
 62
   179
100
AcDbCircle
 10
286.0555396516
 20
183.446339451
 30
0.0
 40
5.5
  0
CIRCLE
  5
366
330
1F
100
AcDbEntity
  8
SLD-0
  6
Continuous
 62
   179
100
AcDbCircle
 10
304.0555396516
 20
177.946339451
 30
0.0
 40
2.980384999999956
  0
CIRCLE
  5
367
330
1F
100
AcDbEntity
  8
SLD-0
  6
Continuous
 62
   179
100
AcDbCircle
 10
304.0555396516
 20
177.946339451
 30
0.0
 40
3.5
  0
ARC
  5
368
330
1F
100
AcDbEntity
  8
SLD-0
  6
Continuous
 62
   179
100
AcDbCircle
 10
304.0555396516
 20
177.946339451
 30
0.0
 40
4.0
100
AcDbArc
 50
90.0
 51
270.0
  0
ARC
  5
369
330
1F
100
AcDbEntity
  8
SLD-0
  6
Continuous
 62
   179
100
AcDbCircle
 10
305.5555396516
 20
170.946339451
 30
0.0
 40
3.0
100
AcDbArc
 50
0.0
 51
90.0
  0
ARC
  5
36A
330
1F
100
AcDbEntity
  8
SLD-0
  6
Continuous
 62
   179
100
AcDbCircle
 10
305.5555396516
 20
184.946339451
 30
0.0
 40
3.0
100
AcDbArc
 50
270.0
 51
0.0
  0
CIRCLE
  5
36B
330
1F
100
AcDbEntity
  8
SLD-0
  6
Continuous
 62
   179
100
AcDbCircle
 10
301.0555396516
 20
235.446339451
 30
0.0
 40
1.649999999999977
  0
ARC
  5
36C
330
1F
100
AcDbEntity
  8
SLD-0
  6
Continuous
 62
   179
100
AcDbCircle
 10
268.5555396516
 20
239.446339451
 30
0.0
 40
5.0
100
AcDbArc
 50
90.0
 51
180.0
  0
CIRCLE
  5
36D
330
1F
100
AcDbEntity
  8
SLD-0
  6
Continuous
 62
   179
100
AcDbCircle
 10
271.0555396516
 20
235.446339451
 30
0.0
 40
1.649999999999977
  0
ARC
  5
36E
330
1F
100
AcDbEntity
  8
SLD-0
  6
Continuous
 62
   179
100
AcDbCircle
 10
283.7751886516
 20
259.246339451
 30
0.0
 40
0.3000000000001251
100
AcDbArc
 50
172.5052829998
 51
270.0
  0
ARC
  5
36F
330
1F
100
AcDbEntity
  8
SLD-0
  6
Continuous
 62
   179
100
AcDbCircle
 10
286.055539578
 20
258.9463394607
 30
0.0
 40
2.60000007426099
100
AcDbArc
 50
118.569153
 51
172.505283029
  0
ARC
  5
370
330
1F
100
AcDbEntity
  8
SLD-0
  6
Continuous
 62
   179
100
AcDbCircle
 10
284.9556355629
 20
260.9662924885
 30
0.0
 40
0.3000002749827382
100
AcDbArc
 50
15.0000403852
 51
118.5691129234
  0
ARC
  5
371
330
1F
100
AcDbEntity
  8
SLD-0
  6
Continuous
 62
   179
100
AcDbCircle
 10
287.1554435576
 20
260.9662924232
 30
0.0
 40
0.3000001588332174
100
AcDbArc
 50
61.430847
 51
164.9999596148
  0
ARC
  5
372
330
1F
100
AcDbEntity
  8
SLD-0
  6
Continuous
 62
   179
100
AcDbCircle
 10
286.055539578
 20
258.9463394607
 30
0.0
 40
2.599999883850505
100
AcDbArc
 50
7.494717
 51
61.4308423758
  0
ARC
  5
373
330
1F
100
AcDbEntity
  8
SLD-0
  6
Continuous
 62
   179
100
AcDbCircle
 10
288.335890397
 20
259.2463393768
 30
0.0
 40
0.2999999257391381
100
AcDbArc
 50
270.0000486315
 51
7.4947286383
  0
ARC
  5
374
330
1F
100
AcDbEntity
  8
SLD-0
  6
Continuous
 62
   179
100
AcDbCircle
 10
286.055539578
 20
258.9463394607
 30
0.0
 40
3.499999864068863
100
AcDbArc
 50
312.4015680896
 51
227.5984319104
  0
CIRCLE
  5
375
330
1F
100
AcDbEntity
  8
SLD-0
  6
Continuous
 62
   179
100
AcDbCircle
 10
286.055539578
 20
258.9463394607
 30
0.0
 40
5.500000000000023
  0
CIRCLE
  5
376
330
1F
100
AcDbEntity
  8
SLD-0
  6
Continuous
 62
   179
100
AcDbCircle
 10
286.055539578
 20
258.9463394607
 30
0.0
 40
1.499999999999979
  0
CIRCLE
  5
377
330
1F
100
AcDbEntity
  8
SLD-0
  6
Continuous
 62
   179
100
AcDbCircle
 10
286.055539578
 20
258.9463394607
 30
0.0
 40
1.999999999999979
  0
ARC
  5
378
330
1F
100
AcDbEntity
  8
SLD-0
  6
Continuous
 62
   179
100
AcDbCircle
 10
314.5555396516
 20
201.646339451
 30
0.0
 40
3.200000000000046
100
AcDbArc
 50
180.0
 51
0.0
  0
ARC
  5
379
330
1F
100
AcDbEntity
  8
SLD-0
  6
Continuous
 62
   179
100
AcDbCircle
 10
314.5555396516
 20
205.246339451
 30
0.0
 40
3.200000000000046
100
AcDbArc
 50
0.0
 51
180.0
  0
CIRCLE
  5
37A
330
1F
100
AcDbEntity
  8
SLD-0
  6
Continuous
 62
   179
100
AcDbCircle
 10
130.6766176516
 20
182.946339451
 30
0.0
 40
1.650000000000006
  0
ARC
  5
37B
330
1F
100
AcDbEntity
  8
SLD-0
  6
Continuous
 62
   179
100
AcDbCircle
 10
97.7766176516
 20
256.346339451
 30
0.0
 40
0.5
100
AcDbArc
 50
180.0
 51
0.0
  0
ARC
  5
37C
330
1F
100
AcDbEntity
  8
SLD-0
  6
Continuous
 62
   179
100
AcDbCircle
 10
97.7766176516
 20
260.346339451
 30
0.0
 40
0.5
100
AcDbArc
 50
0.0
 51
180.0
  0
ARC
  5
37D
330
1F
100
AcDbEntity
  8
SLD-0
  6
Continuous
 62
   179
100
AcDbCircle
 10
97.7766176516
 20
258.946339451
 30
0.0
 40
0.5999999999999952
100
AcDbArc
 50
146.44269
 51
213.55731
  0
ARC
  5
37E
330
1F
100
AcDbEntity
  8
SLD-0
  6
Continuous
 62
   179
100
AcDbCircle
 10
97.7766176516
 20
258.946339451
 30
0.0
 40
0.5999999999999638
100
AcDbArc
 50
326.44269
 51
33.55731
  0
ARC
  5
37F
330
1F
100
AcDbEntity
  8
SLD-0
  6
Continuous
 62
   179
100
AcDbCircle
 10
142.9766177773
 20
75.2463399172
 30
0.0
 40
0.799999924110807
100
AcDbArc
 50
105.087485083
 51
254.9124962748
  0
ARC
  5
380
330
1F
100
AcDbEntity
  8
SLD-0
  6
Continuous
 62
   179
100
AcDbCircle
 10
107.3766176516
 20
36.246339451
 30
0.0
 40
3.199999999999989
100
AcDbArc
 50
90.0
 51
270.0
  0
ARC
  5
381
330
1F
100
AcDbEntity
  8
SLD-0
  6
Continuous
 62
   179
100
AcDbCircle
 10
110.9766176516
 20
36.246339451
 30
0.0
 40
3.199999999999989
100
AcDbArc
 50
270.0
 51
90.0
  0
ARC
  5
382
330
1F
100
AcDbEntity
  8
SLD-0
  6
Continuous
 62
   179
100
AcDbCircle
 10
112.6766176516
 20
64.746339451
 30
0.0
 40
22.49999999999999
100
AcDbArc
 50
167.898508
 51
192.101492
  0
CIRCLE
  5
383
330
1F
100
AcDbEntity
  8
SLD-0
  6
Continuous
 62
   179
100
AcDbCircle
 10
94.6766176516
 20
182.946339451
 30
0.0
 40
2.0
  0
CIRCLE
  5
384
330
1F
100
AcDbEntity
  8
SLD-0
  6
Continuous
 62
   179
100
AcDbCircle
 10
130.6766176516
 20
182.946339451
 30
0.0
 40
2.0
  0
CIRCLE
  5
385
330
1F
100
AcDbEntity
  8
SLD-0
  6
Continuous
 62
   179
100
AcDbCircle
 10
166.1766176516
 20
203.446339451
 30
0.0
 40
2.5
  0
CIRCLE
  5
386
330
1F
100
AcDbEntity
  8
SLD-0
  6
Continuous
 62
   179
100
AcDbCircle
 10
156.1766176516
 20
203.446339451
 30
0.0
 40
2.099999999999994
  0
CIRCLE
  5
387
330
1F
100
AcDbEntity
  8
SLD-0
  6
Continuous
 62
   179
100
AcDbCircle
 10
130.6766176516
 20
222.946339451
 30
0.0
 40
2.0
  0
CIRCLE
  5
388
330
1F
100
AcDbEntity
  8
SLD-0
  6
Continuous
 62
   179
100
AcDbCircle
 10
94.6766176516
 20
222.946339451
 30
0.0
 40
2.0
  0
CIRCLE
  5
389
330
1F
100
AcDbEntity
  8
SLD-0
  6
Continuous
 62
   179
100
AcDbCircle
 10
301.0555396516
 20
235.446339451
 30
0.0
 40
2.0
  0
CIRCLE
  5
38A
330
1F
100
AcDbEntity
  8
SLD-0
  6
Continuous
 62
   179
100
AcDbCircle
 10
271.0555396516
 20
235.446339451
 30
0.0
 40
2.0
  0
CIRCLE
  5
38B
330
1F
100
AcDbEntity
  8
SLD-0
  6
Continuous
 62
   179
100
AcDbCircle
 10
303.0555396516
 20
203.446339451
 30
0.0
 40
1.649999999999977
  0
POINT
  5
38C
330
1F
100
AcDbEntity
  8
SLD-0
100
AcDbPoint
 10
17.5
 20
285.5
 30
0.0
  0
POINT
  5
38D
330
1F
100
AcDbEntity
  8
SLD-0
100
AcDbPoint
 10
17.5
 20
11.5
 30
0.0
  0
POINT
  5
38E
330
1F
100
AcDbEntity
  8
SLD-0
100
AcDbPoint
 10
402.5
 20
11.5
 30
0.0
  0
POINT
  5
38F
330
1F
100
AcDbEntity
  8
SLD-0
100
AcDbPoint
 10
402.5
 20
285.5
 30
0.0
  0
MTEXT
  5
391
330
1F
100
AcDbEntity
  8
SLD-0
 62
     7
100
AcDbMText
 10
353.734480893
 20
47.8329501335
 30
0.0
 40
4.8000001907
 41
0.0
 71
     1
 72
     1
  1
エアニッパー
  7
SLDTEXTSTYLE2
 73
     1
 44
1.0
  0
MTEXT
  5
393
330
1F
100
AcDbEntity
  8
SLD-0
 62
     7
100
AcDbMText
 10
346.2734684166
 20
42.0206618624
 30
0.0
 40
4.8000001907
 41
0.0
 71
     1
 72
     1
  1
（スライドタイプ）
  7
SLDTEXTSTYLE3
 73
     1
 44
1.0
  0
MTEXT
  5
395
330
1F
100
AcDbEntity
  8
SLD-0
 62
     7
100
AcDbMText
 10
338.9190760456
 20
31.8502288313
 30
0.0
 40
4.8000001907
 41
0.0
 71
     1
 72
     1
  1
ＧＴ－ＮＢ２０（５－Ｏｓｈｉ）
  7
SLDTEXTSTYLE4
 73
     1
 44
1.0
  0
MTEXT
  5
396
330
1F
100
AcDbEntity
  8
SLD-0
 62
     7
100
AcDbMText
 10
353.734480893
 20
19.7511594343
 30
0.0
 40
4.8000001907
 41
0.0
 71
     1
 72
     1
  1
１３０２３０
  7
SLDTEXTSTYLE2
 73
     1
 44
1.0
  0
INSERT
  5
397
330
1F
100
AcDbEntity
  8
0
  6
Continuous
 62
     7
370
     0
100
AcDbBlockReference
  2
KOZU0001
 10
302.1212256534
 20
237.1387676905
 30
0.0
  0
INSERT
  5
398
330
1F
100
AcDbEntity
  8
0
  6
Continuous
 62
     7
370
     0
100
AcDbBlockReference
  2
KOZU0002
 10
119.8367640938
 20
144.0292262365
 30
0.0
  0
ENDSEC
  0
SECTION
  2
OBJECTS
  0
DICTIONARY
  5
C
330
0
100
AcDbDictionary
281
     1
  3
ACAD_GROUP
350
D
  3
ACAD_LAYOUT
350
1A
  3
ACAD_MLINESTYLE
350
17
  3
ACAD_PLOTSETTINGS
350
19
  3
ACAD_PLOTSTYLENAME
350
E
  0
DICTIONARY
  5
D
102
{ACAD_REACTORS
330
C
102
}
330
C
100
AcDbDictionary
281
     1
  0
DICTIONARY
  5
1A
102
{ACAD_REACTORS
330
C
102
}
330
C
100
AcDbDictionary
281
     1
  3
Layout1
350
1E
  3
Layout2
350
26
  3
Model
350
22
  0
DICTIONARY
  5
17
102
{ACAD_REACTORS
330
C
102
}
330
C
100
AcDbDictionary
281
     1
  3
Standard
350
18
  0
DICTIONARY
  5
19
102
{ACAD_REACTORS
330
C
102
}
330
C
100
AcDbDictionary
281
     1
  0
ACDBDICTIONARYWDFLT
  5
E
102
{ACAD_REACTORS
330
C
102
}
330
C
100
AcDbDictionary
281
     1
  3
Normal
350
F
100
AcDbDictionaryWithDefault
340
F
  0
LAYOUT
  5
1E
102
{ACAD_REACTORS
330
1A
102
}
330
1A
100
AcDbPlotSettings
  1

  2

  4

  6

 40
0.0
 41
0.0
 42
0.0
 43
0.0
 44
0.0
 45
0.0
 46
0.0
 47
0.0
 48
0.0
 49
0.0
140
0.0
141
0.0
142
1.0
143
1.0
 70
   688
 72
     0
 73
     0
 74
     5
  7

 75
    16
147
1.0
148
0.0
149
0.0
100
AcDbLayout
  1
Layout1
 70
     1
 71
     1
 10
0.0
 20
0.0
 11
0.0
 21
0.0
 12
0.0
 22
0.0
 32
0.0
 14
0.0
 24
0.0
 34
0.0
 15
0.0
 25
0.0
 35
0.0
146
0.0
 13
0.0
 23
0.0
 33
0.0
 16
1.0
 26
0.0
 36
0.0
 17
0.0
 27
1.0
 37
0.0
 76
     0
330
1B
  0
LAYOUT
  5
26
102
{ACAD_REACTORS
330
1A
102
}
330
1A
100
AcDbPlotSettings
  1

  2

  4

  6

 40
0.0
 41
0.0
 42
0.0
 43
0.0
 44
0.0
 45
0.0
 46
0.0
 47
0.0
 48
0.0
 49
0.0
140
0.0
141
0.0
142
1.0
143
1.0
 70
   688
 72
     0
 73
     0
 74
     5
  7

 75
    16
147
1.0
148
0.0
149
0.0
100
AcDbLayout
  1
Layout2
 70
     1
 71
     2
 10
0.0
 20
0.0
 11
0.0
 21
0.0
 12
0.0
 22
0.0
 32
0.0
 14
0.0
 24
0.0
 34
0.0
 15
0.0
 25
0.0
 35
0.0
146
0.0
 13
0.0
 23
0.0
 33
0.0
 16
1.0
 26
0.0
 36
0.0
 17
0.0
 27
1.0
 37
0.0
 76
     0
330
23
  0
LAYOUT
  5
22
102
{ACAD_REACTORS
330
1A
102
}
330
1A
100
AcDbPlotSettings
  1

  2

  4

  6

 40
0.0
 41
0.0
 42
0.0
 43
0.0
 44
0.0
 45
0.0
 46
0.0
 47
0.0
 48
0.0
 49
0.0
140
0.0
141
0.0
142
1.0
143
1.0
 70
  1712
 72
     0
 73
     0
 74
     0
  7

 75
     0
147
1.0
148
0.0
149
0.0
100
AcDbLayout
  1
Model
 70
     1
 71
     0
 10
0.0
 20
0.0
 11
0.0
 21
0.0
 12
0.0
 22
0.0
 32
0.0
 14
0.0
 24
0.0
 34
0.0
 15
420.0
 25
297.0
 35
0.0
146
0.0
 13
0.0
 23
0.0
 33
0.0
 16
1.0
 26
0.0
 36
0.0
 17
0.0
 27
1.0
 37
0.0
 76
     0
330
1F
  0
MLINESTYLE
  5
18
102
{ACAD_REACTORS
330
17
102
}
330
17
100
AcDbMlineStyle
  2
Standard
 70
     0
  3

 62
   256
 51
90.0
 52
90.0
 71
     2
 49
0.5
 62
   256
  6
BYLAYER
 49
-0.5
 62
   256
  6
BYLAYER
  0
ACDBPLACEHOLDER
  5
F
102
{ACAD_REACTORS
330
E
102
}
330
E
  0
ENDSEC
  0
EOF
