  0
SECTION
  2
HEADER
  9
$ACADVER
  1
AC1015
  9
$ACADMAINTVER
 70
     6
  9
$DWGCODEPAGE
  3
DOS932
  9
$INSBASE
 10
0.0
 20
0.0
 30
0.0
  9
$EXTMIN
 10
0.0
 20
0.0
 30
0.0
  9
$EXTMAX
 10
420.0
 20
297.0
 30
0.0
  9
$LIMMIN
 10
0.0
 20
0.0
  9
$LIMMAX
 10
0.0
 20
0.0
  9
$ORTHOMODE
 70
     0
  9
$REGENMODE
 70
     1
  9
$FILLMODE
 70
     1
  9
$QTEXTMODE
 70
     0
  9
$MIRRTEXT
 70
     1
  9
$LTSCALE
 40
1.0
  9
$ATTMODE
 70
     1
  9
$TEXTSIZE
 40
3.5
  9
$TRACEWID
 40
1.0
  9
$TEXTSTYLE
  7
Standard
  9
$CLAYER
  8
0
  9
$CELTYPE
  6
ByLayer
  9
$CECOLOR
 62
   256
  9
$CELTSCALE
 40
1.0
  9
$DISPSILH
 70
     0
  9
$DIMSCALE
 40
1.0
  9
$DIMASZ
 40
3.0
  9
$DIMEXO
 40
1.0
  9
$DIMDLI
 40
3.75
  9
$DIMRND
 40
0.0
  9
$DIMDLE
 40
0.0
  9
$DIMEXE
 40
1.0
  9
$DIMTP
 40
0.0
  9
$DIMTM
 40
0.0
  9
$DIMTXT
 40
3.2000000477
  9
$DIMCEN
 40
2.5
  9
$DIMTSZ
 40
0.0
  9
$DIMTOL
 70
     0
  9
$DIMLIM
 70
     0
  9
$DIMTIH
 70
     1
  9
$DIMTOH
 70
     1
  9
$DIMSE1
 70
     0
  9
$DIMSE2
 70
     0
  9
$DIMTAD
 70
     1
  9
$DIMZIN
 70
     1
  9
$DIMBLK
  1

  9
$DIMASO
 70
     1
  9
$DIMSHO
 70
     1
  9
$DIMPOST
  1

  9
$DIMAPOST
  1

  9
$DIMALT
 70
     0
  9
$DIMALTD
 70
     3
  9
$DIMALTF
 40
0.0393700787
  9
$DIMLFAC
 40
1.0
  9
$DIMTOFL
 70
     1
  9
$DIMTVP
 40
0.0
  9
$DIMTIX
 70
     0
  9
$DIMSOXD
 70
     0
  9
$DIMSAH
 70
     0
  9
$DIMBLK1
  1

  9
$DIMBLK2
  1

  9
$DIMSTYLE
  2
ISO-25
  9
$DIMCLRD
 70
     0
  9
$DIMCLRE
 70
     0
  9
$DIMCLRT
 70
     0
  9
$DIMTFAC
 40
1.0
  9
$DIMGAP
 40
1.524
  9
$DIMJUST
 70
     0
  9
$DIMSD1
 70
     0
  9
$DIMSD2
 70
     0
  9
$DIMTOLJ
 70
     0
  9
$DIMTZIN
 70
     1
  9
$DIMALTZ
 70
     0
  9
$DIMALTTZ
 70
     0
  9
$DIMUPT
 70
     0
  9
$DIMDEC
 70
     2
  9
$DIMTDEC
 70
     2
  9
$DIMALTU
 70
     2
  9
$DIMALTTD
 70
     3
  9
$DIMTXSTY
  7
Standard
  9
$DIMAUNIT
 70
     0
  9
$DIMADEC
 70
     0
  9
$DIMALTRND
 40
0.0
  9
$DIMAZIN
 70
     0
  9
$DIMDSEP
 70
    44
  9
$DIMATFIT
 70
     3
  9
$DIMFRAC
 70
     0
  9
$DIMLDRBLK
  1

  9
$DIMLUNIT
 70
     2
  9
$DIMLWD
 70
    -2
  9
$DIMLWE
 70
    -2
  9
$DIMTMOVE
 70
     0
  9
$LUNITS
 70
     2
  9
$LUPREC
 70
     4
  9
$SKETCHINC
 40
1.0
  9
$FILLETRAD
 40
10.0
  9
$AUNITS
 70
     0
  9
$AUPREC
 70
     0
  9
$MENU
  1
.
  9
$ELEVATION
 40
0.0
  9
$PELEVATION
 40
0.0
  9
$THICKNESS
 40
0.0
  9
$LIMCHECK
 70
     0
  9
$CHAMFERA
 40
10.0
  9
$CHAMFERB
 40
10.0
  9
$CHAMFERC
 40
20.0
  9
$CHAMFERD
 40
0.0
  9
$SKPOLY
 70
     0
  9
$TDCREATE
 40
2454307.565922118
  9
$TDUCREATE
 40
2454307.190922118
  9
$TDUPDATE
 40
2454307.565922129
  9
$TDUUPDATE
 40
2454307.190922129
  9
$TDINDWG
 40
0.0000000116
  9
$TDUSRTIMER
 40
0.0000000116
  9
$USRTIMER
 70
     1
  9
$ANGBASE
 50
0.0
  9
$ANGDIR
 70
     0
  9
$PDMODE
 70
     0
  9
$PDSIZE
 40
-1.0
  9
$PLINEWID
 40
0.0
  9
$SPLFRAME
 70
     0
  9
$SPLINETYPE
 70
     6
  9
$SPLINESEGS
 70
     8
  9
$HANDSEED
  5
357
  9
$SURFTAB1
 70
     6
  9
$SURFTAB2
 70
     6
  9
$SURFTYPE
 70
     6
  9
$SURFU
 70
     6
  9
$SURFV
 70
     6
  9
$UCSBASE
  2

  9
$UCSNAME
  2

  9
$UCSORG
 10
0.0
 20
0.0
 30
0.0
  9
$UCSXDIR
 10
1.0
 20
0.0
 30
0.0
  9
$UCSYDIR
 10
0.0
 20
1.0
 30
0.0
  9
$UCSORTHOREF
  2

  9
$UCSORTHOVIEW
 70
     0
  9
$UCSORGTOP
 10
0.0
 20
0.0
 30
0.0
  9
$UCSORGBOTTOM
 10
0.0
 20
0.0
 30
0.0
  9
$UCSORGLEFT
 10
0.0
 20
0.0
 30
0.0
  9
$UCSORGRIGHT
 10
0.0
 20
0.0
 30
0.0
  9
$UCSORGFRONT
 10
0.0
 20
0.0
 30
0.0
  9
$UCSORGBACK
 10
0.0
 20
0.0
 30
0.0
  9
$PUCSBASE
  2

  9
$PUCSNAME
  2

  9
$PUCSORG
 10
0.0
 20
0.0
 30
0.0
  9
$PUCSXDIR
 10
1.0
 20
0.0
 30
0.0
  9
$PUCSYDIR
 10
0.0
 20
1.0
 30
0.0
  9
$PUCSORTHOREF
  2

  9
$PUCSORTHOVIEW
 70
     0
  9
$PUCSORGTOP
 10
0.0
 20
0.0
 30
0.0
  9
$PUCSORGBOTTOM
 10
0.0
 20
0.0
 30
0.0
  9
$PUCSORGLEFT
 10
0.0
 20
0.0
 30
0.0
  9
$PUCSORGRIGHT
 10
0.0
 20
0.0
 30
0.0
  9
$PUCSORGFRONT
 10
0.0
 20
0.0
 30
0.0
  9
$PUCSORGBACK
 10
0.0
 20
0.0
 30
0.0
  9
$USERI1
 70
     0
  9
$USERI2
 70
     0
  9
$USERI3
 70
     0
  9
$USERI4
 70
     0
  9
$USERI5
 70
     0
  9
$USERR1
 40
0.0
  9
$USERR2
 40
0.0
  9
$USERR3
 40
0.0
  9
$USERR4
 40
0.0
  9
$USERR5
 40
0.0
  9
$WORLDVIEW
 70
     1
  9
$SHADEDGE
 70
     3
  9
$SHADEDIF
 70
    70
  9
$TILEMODE
 70
     1
  9
$MAXACTVP
 70
    64
  9
$PINSBASE
 10
0.0
 20
0.0
 30
0.0
  9
$PLIMCHECK
 70
     0
  9
$PEXTMIN
 10
1.0000000000E+20
 20
1.0000000000E+20
 30
1.0000000000E+20
  9
$PEXTMAX
 10
-1.0000000000E+20
 20
-1.0000000000E+20
 30
-1.0000000000E+20
  9
$PLIMMIN
 10
0.0
 20
0.0
  9
$PLIMMAX
 10
420.0
 20
297.0
  9
$UNITMODE
 70
     0
  9
$VISRETAIN
 70
     1
  9
$PLINEGEN
 70
     0
  9
$PSLTSCALE
 70
     1
  9
$TREEDEPTH
 70
  3020
  9
$CMLSTYLE
  2
Standard
  9
$CMLJUST
 70
     0
  9
$CMLSCALE
 40
20.0
  9
$PROXYGRAPHICS
 70
     1
  9
$MEASUREMENT
 70
     1
  9
$CELWEIGHT
370
    -1
  9
$ENDCAPS
280
     0
  9
$JOINSTYLE
280
     0
  9
$LWDISPLAY
290
     1
  9
$INSUNITS
 70
     4
  9
$HYPERLINKBASE
  1

  9
$STYLESHEET
  1

  9
$XEDIT
290
     1
  9
$CEPSNTYPE
380
     0
  9
$PSTYLEMODE
290
     1
  9
$FINGERPRINTGUID
  2
{0BF40FE9-9CFC-4F72-9B4F-FFC2C3B66B98}
  9
$VERSIONGUID
  2
{FAEB1C32-E019-11D5-929B-00C0DF256EC4}
  9
$EXTNAMES
290
     1
  9
$PSVPSCALE
 40
0.0
  9
$OLESTARTUP
290
     0
  0
ENDSEC
  0
SECTION
  2
CLASSES
  0
CLASS
  1
ACDBDICTIONARYWDFLT
  2
AcDbDictionaryWithDefault
  3
ObjectDBX Classes
 90
        0
280
     0
281
     0
  0
CLASS
  1
ACDBPLACEHOLDER
  2
AcDbPlaceHolder
  3
ObjectDBX Classes
 90
        0
280
     0
281
     0
  0
CLASS
  1
LAYOUT
  2
AcDbLayout
  3
ObjectDBX Classes
 90
        0
280
     0
281
     0
  0
ENDSEC
  0
SECTION
  2
TABLES
  0
TABLE
  2
VPORT
  5
8
330
0
100
AcDbSymbolTable
 70
     1
  0
VPORT
  5
29
330
8
100
AcDbSymbolTableRecord
100
AcDbViewportTableRecord
  2
*Active
 70
     0
 10
0.0
 20
0.0
 11
1.0
 21
1.0
 12
210.0
 22
148.5
 13
0.0
 23
0.0
 14
10.0
 24
10.0
 15
10.0
 25
10.0
 16
0.0
 26
0.0
 36
1.0
 17
0.0
 27
0.0
 37
0.0
 40
297.0
 41
1.9729729729
 42
50.0
 43
0.0
 44
0.0
 50
0.0
 51
0.0
 71
     0
 72
  2000
 73
     1
 74
     3
 75
     0
 76
     0
 77
     0
 78
     0
281
     0
 65
     1
110
0.0
120
0.0
130
0.0
111
1.0
121
0.0
131
0.0
112
0.0
122
1.0
132
0.0
 79
     0
146
0.0
  0
ENDTAB
  0
TABLE
  2
LTYPE
  5
5
330
0
100
AcDbSymbolTable
 70
     6
  0
LTYPE
  5
14
330
5
100
AcDbSymbolTableRecord
100
AcDbLinetypeTableRecord
  2
ByBlock
 70
     0
  3

 72
    65
 73
     0
 40
0.0
  0
LTYPE
  5
15
330
5
100
AcDbSymbolTableRecord
100
AcDbLinetypeTableRecord
  2
ByLayer
 70
     0
  3

 72
    65
 73
     0
 40
0.0
  0
LTYPE
  5
16
330
5
100
AcDbSymbolTableRecord
100
AcDbLinetypeTableRecord
  2
Continuous
 70
     0
  3
Solid line
 72
    65
 73
     0
 40
0.0
  0
LTYPE
  5
2A
330
5
100
AcDbSymbolTableRecord
100
AcDbLinetypeTableRecord
  2
HIDDEN
 70
     0
  3
Hidden __ __ __ __ __ __ __ __ __ __ __ __ __ __
 72
    65
 73
     2
 40
1.905
 49
1.27
 74
     0
 49
-0.635
 74
     0
  0
LTYPE
  5
2B
330
5
100
AcDbSymbolTableRecord
100
AcDbLinetypeTableRecord
  2
PHANTOM
 70
     0
  3
Phantom ______  __  __  ______  __  __  ______
 72
    65
 73
     6
 40
12.7
 49
6.35
 74
     0
 49
-1.27
 74
     0
 49
1.27
 74
     0
 49
-1.27
 74
     0
 49
1.27
 74
     0
 49
-1.27
 74
     0
  0
LTYPE
  5
2C
330
5
100
AcDbSymbolTableRecord
100
AcDbLinetypeTableRecord
  2
CENTER
 70
     0
  3
Center ____ _ ____ _ ____ _ ____ _ ____ _ ____
 72
    65
 73
     4
 40
10.16
 49
6.35
 74
     0
 49
-1.27
 74
     0
 49
1.27
 74
     0
 49
-1.27
 74
     0
  0
LTYPE
  5
2D
330
5
100
AcDbSymbolTableRecord
100
AcDbLinetypeTableRecord
  2
CENTERX2
 70
     0
  3
Center (2x) ________  __  ________  __  _____
 72
    65
 73
     4
 40
20.32
 49
12.7
 74
     0
 49
-2.54
 74
     0
 49
2.54
 74
     0
 49
-2.54
 74
     0
  0
LTYPE
  5
2E
330
5
100
AcDbSymbolTableRecord
100
AcDbLinetypeTableRecord
  2
DOT2
 70
     0
  3
Dot (.5x) ........................................
 72
    65
 73
     2
 40
0.635
 49
0.0
 74
     0
 49
-0.635
 74
     0
  0
ENDTAB
  0
TABLE
  2
LAYER
  5
2
330
0
100
AcDbSymbolTable
 70
     2
  0
LAYER
  5
10
330
2
100
AcDbSymbolTableRecord
100
AcDbLayerTableRecord
  2
0
 70
     0
 62
     7
  6
Continuous
370
    -3
390
F
  0
LAYER
  5
2F
330
2
100
AcDbSymbolTableRecord
100
AcDbLayerTableRecord
  2
SLD-0
 70
     0
 62
   179
  6
Continuous
370
     0
390
F
  0
ENDTAB
  0
TABLE
  2
STYLE
  5
3
330
0
100
AcDbSymbolTable
 70
     7
  0
STYLE
  5
11
330
3
100
AcDbSymbolTableRecord
100
AcDbTextStyleTableRecord
  2
Standard
 70
     0
 40
0.0
 41
1.0
 50
0.0
 71
     0
 42
2.5
  3
txt
  4
bigfont
  0
STYLE
  5
38
330
3
100
AcDbSymbolTableRecord
100
AcDbTextStyleTableRecord
  2
SLDTEXTSTYLE0
 70
     0
 40
0.0
 41
0.6230481785
 50
0.0
 71
     0
 42
0.2
  3
TXT
  4
bigfont
  0
STYLE
  5
42
330
3
100
AcDbSymbolTableRecord
100
AcDbTextStyleTableRecord
  2
SLDTEXTSTYLE1
 70
     0
 40
0.0
 41
0.6255251993
 50
0.0
 71
     0
 42
0.2
  3
TXT
  4
bigfont
  0
STYLE
  5
34D
330
3
100
AcDbSymbolTableRecord
100
AcDbTextStyleTableRecord
  2
SLDTEXTSTYLE2
 70
     0
 40
0.0
 41
0.6244080763
 50
0.0
 71
     0
 42
0.2
  3
TXT
  4
bigfont
  0
STYLE
  5
34F
330
3
100
AcDbSymbolTableRecord
100
AcDbTextStyleTableRecord
  2
SLDTEXTSTYLE3
 70
     0
 40
0.0
 41
0.6226035039
 50
0.0
 71
     0
 42
0.2
  3
TXT
  4
bigfont
  0
STYLE
  5
351
330
3
100
AcDbSymbolTableRecord
100
AcDbTextStyleTableRecord
  2
SLDTEXTSTYLE4
 70
     0
 40
0.0
 41
0.5081015067
 50
0.0
 71
     0
 42
0.2
  3
TXT
  4
bigfont
  0
STYLE
  5
353
330
3
100
AcDbSymbolTableRecord
100
AcDbTextStyleTableRecord
  2
SLDTEXTSTYLE5
 70
     0
 40
0.0
 41
0.6244080302
 50
0.0
 71
     0
 42
0.2
  3
TXT
  4
bigfont
  0
ENDTAB
  0
TABLE
  2
VIEW
  5
6
330
0
100
AcDbSymbolTable
 70
     0
  0
ENDTAB
  0
TABLE
  2
UCS
  5
7
330
0
100
AcDbSymbolTable
 70
     0
  0
ENDTAB
  0
TABLE
  2
APPID
  5
9
330
0
100
AcDbSymbolTable
 70
     1
  0
APPID
  5
12
330
9
100
AcDbSymbolTableRecord
100
AcDbRegAppTableRecord
  2
ACAD
 70
     0
  0
ENDTAB
  0
TABLE
  2
DIMSTYLE
  5
A
330
0
100
AcDbSymbolTable
 70
     1
100
AcDbDimStyleTable
  0
DIMSTYLE
105
27
330
A
100
AcDbSymbolTableRecord
100
AcDbDimStyleTableRecord
  2
ISO-25
 70
     0
 41
2.5
 42
0.625
 43
3.75
 44
1.25
 73
     0
 74
     0
 77
     1
 78
     8
140
2.5
141
2.5
143
0.0393700787
147
0.625
171
     3
172
     1
271
     2
272
     2
274
     3
278
    44
283
     0
284
     8
340
11
  0
ENDTAB
  0
TABLE
  2
BLOCK_RECORD
  5
1
330
0
100
AcDbSymbolTable
 70
     3
  0
BLOCK_RECORD
  5
1F
330
1
100
AcDbSymbolTableRecord
100
AcDbBlockTableRecord
  2
*Model_Space
340
22
  0
BLOCK_RECORD
  5
1B
330
1
100
AcDbSymbolTableRecord
100
AcDbBlockTableRecord
  2
*Paper_Space
340
1E
  0
BLOCK_RECORD
  5
23
330
1
100
AcDbSymbolTableRecord
100
AcDbBlockTableRecord
  2
*Paper_Space0
340
26
  0
BLOCK_RECORD
  5
30
330
1
100
AcDbSymbolTableRecord
100
AcDbBlockTableRecord
  2
KOZU0001
340
0
102
{BLKREFS
331
355
102
}
  0
BLOCK_RECORD
  5
3A
330
1
100
AcDbSymbolTableRecord
100
AcDbBlockTableRecord
  2
KOZU0002
340
0
102
{BLKREFS
331
356
102
}
  0
ENDTAB
  0
ENDSEC
  0
SECTION
  2
BLOCKS
  0
BLOCK
  5
20
330
1F
100
AcDbEntity
  8
0
100
AcDbBlockBegin
  2
*Model_Space
 70
     0
 71
     0
 10
0.0
 20
0.0
 30
0.0
  3
*Model_Space
  1

  0
ENDBLK
  5
21
330
1F
100
AcDbEntity
  8
0
100
AcDbBlockEnd
  0
BLOCK
  5
1C
330
1B
100
AcDbEntity
 67
     1
  8
0
100
AcDbBlockBegin
  2
*Paper_Space
 70
     0
 71
     0
 10
0.0
 20
0.0
 30
0.0
  3
*Paper_Space
  1

  0
ENDBLK
  5
1D
330
1B
100
AcDbEntity
 67
     1
  8
0
100
AcDbBlockEnd
  0
BLOCK
  5
24
330
23
100
AcDbEntity
  8
0
100
AcDbBlockBegin
  2
*Paper_Space0
 70
     0
 71
     0
 10
0.0
 20
0.0
 30
0.0
  3
*Paper_Space0
  1

  0
ENDBLK
  5
25
330
23
100
AcDbEntity
  8
0
100
AcDbBlockEnd
  0
BLOCK
  5
31
330
30
100
AcDbEntity
  8
0
100
AcDbBlockBegin
  2
KOZU0001
 70
     0
 71
     0
 10
0.0
 20
0.0
 30
0.0
  3
KOZU0001
  1

  0
LINE
  5
33
330
30
100
AcDbEntity
  8
SLD-0
  6
Continuous
 62
   179
100
AcDbLine
 10
0.0
 20
0.0
 30
0.0
 11
8.2873603349
 21
13.3270736702
 31
0.0
  0
LINE
  5
34
330
30
100
AcDbEntity
  8
SLD-0
  6
Continuous
 62
   179
100
AcDbLine
 10
0.0
 20
0.0
 30
0.0
 11
1.1745531224
 21
2.9530751192
 31
0.0
  0
LINE
  5
35
330
30
100
AcDbEntity
  8
SLD-0
  6
Continuous
 62
   179
100
AcDbLine
 10
0.0
 20
0.0
 30
0.0
 11
2.1290546458
 21
2.3595241071
 31
0.0
  0
LINE
  5
36
330
30
100
AcDbEntity
  8
SLD-0
  6
Continuous
 62
   179
100
AcDbLine
 10
0.0
 20
0.0
 30
0.0
 11
8.2873603349
 21
13.3270736702
 31
0.0
  0
LINE
  5
37
330
30
100
AcDbEntity
  8
SLD-0
  6
Continuous
 62
   179
100
AcDbLine
 10
8.2873603349
 20
13.3270736702
 30
0.0
 11
37.172870315
 21
13.3270736702
 31
0.0
  0
MTEXT
  5
39
330
30
100
AcDbEntity
  8
SLD-0
100
AcDbMText
 10
10.6588704356
 20
16.7817930978
 30
0.0
 40
3.2000000477
 41
0.0
 71
     1
 72
     1
  1
２－Ｍ４Ｘ０．４
  7
SLDTEXTSTYLE0
 73
     1
 44
1.0
  0
ENDBLK
  5
32
330
30
100
AcDbEntity
  8
0
100
AcDbBlockEnd
  0
BLOCK
  5
3B
330
3A
100
AcDbEntity
  8
0
100
AcDbBlockBegin
  2
KOZU0002
 70
     0
 71
     0
 10
0.0
 20
0.0
 30
0.0
  3
KOZU0002
  1

  0
LINE
  5
3D
330
3A
100
AcDbEntity
  8
SLD-0
  6
Continuous
 62
   179
100
AcDbLine
 10
0.0
 20
0.0
 30
0.0
 11
10.6672108251
 21
-23.9250299934
 31
0.0
  0
LINE
  5
3E
330
3A
100
AcDbEntity
  8
SLD-0
  6
Continuous
 62
   179
100
AcDbLine
 10
0.0
 20
0.0
 30
0.0
 11
1.7870690295
 21
-2.6280433749
 31
0.0
  0
LINE
  5
3F
330
3A
100
AcDbEntity
  8
SLD-0
  6
Continuous
 62
   179
100
AcDbLine
 10
0.0
 20
0.0
 30
0.0
 11
0.7604848596
 21
-3.0857560621
 31
0.0
  0
LINE
  5
40
330
3A
100
AcDbEntity
  8
SLD-0
  6
Continuous
 62
   179
100
AcDbLine
 10
0.0
 20
0.0
 30
0.0
 11
10.6672108251
 21
-23.9250299934
 31
0.0
  0
LINE
  5
41
330
3A
100
AcDbEntity
  8
SLD-0
  6
Continuous
 62
   179
100
AcDbLine
 10
10.6672108251
 20
-23.9250299934
 30
0.0
 11
31.5429852364
 21
-23.9250299934
 31
0.0
  0
MTEXT
  5
43
330
3A
100
AcDbEntity
  8
SLD-0
100
AcDbMText
 10
14.6289853213
 20
-20.4703105658
 30
0.0
 40
3.2000000477
 41
0.0
 71
     1
 72
     1
  1
Ｒｃ１／８
  7
SLDTEXTSTYLE1
 73
     1
 44
1.0
  0
ENDBLK
  5
3C
330
3A
100
AcDbEntity
  8
0
100
AcDbBlockEnd
  0
ENDSEC
  0
SECTION
  2
ENTITIES
  0
LINE
  5
44
330
1F
100
AcDbEntity
  8
SLD-0
  6
Continuous
 62
   179
100
AcDbLine
 10
87.7059206427
 20
36.9848510085
 30
0.0
 11
102.9059206427
 21
36.9848510085
 31
0.0
  0
LINE
  5
45
330
1F
100
AcDbEntity
  8
SLD-0
  6
Continuous
 62
   179
100
AcDbLine
 10
98.9059206427
 20
40.9848510085
 30
0.0
 11
98.9059206427
 21
77.9848510085
 31
0.0
  0
LINE
  5
46
330
1F
100
AcDbEntity
  8
SLD-0
  6
Continuous
 62
   179
100
AcDbLine
 10
106.9059206427
 20
85.9848510085
 30
0.0
 11
106.9059206427
 21
87.9848510085
 31
0.0
  0
LINE
  5
47
330
1F
100
AcDbEntity
  8
SLD-0
  6
Continuous
 62
   179
100
AcDbLine
 10
114.9059206427
 20
95.9848510085
 30
0.0
 11
119.9059206427
 21
95.9848510085
 31
0.0
  0
LINE
  5
48
330
1F
100
AcDbEntity
  8
SLD-0
  6
Continuous
 62
   179
100
AcDbLine
 10
127.9059206427
 20
87.9848510085
 30
0.0
 11
127.9059206427
 21
85.9848510085
 31
0.0
  0
LINE
  5
49
330
1F
100
AcDbEntity
  8
SLD-0
  6
Continuous
 62
   179
100
AcDbLine
 10
131.9059206427
 20
81.9848510085
 30
0.0
 11
154.2059206427
 21
81.9848510085
 31
0.0
  0
LINE
  5
4A
330
1F
100
AcDbEntity
  8
SLD-0
  6
Continuous
 62
   179
100
AcDbLine
 10
154.2059206427
 20
81.9848510085
 30
0.0
 11
154.2059206427
 21
95.9848510085
 31
0.0
  0
LINE
  5
4B
330
1F
100
AcDbEntity
  8
SLD-0
  6
Continuous
 62
   179
100
AcDbLine
 10
154.2059206427
 20
95.9848510085
 30
0.0
 11
157.4059206427
 21
95.9848510085
 31
0.0
  0
LINE
  5
4C
330
1F
100
AcDbEntity
  8
SLD-0
  6
Continuous
 62
   179
100
AcDbLine
 10
157.4059206427
 20
95.9848510085
 30
0.0
 11
157.4059206427
 21
22.9848510085
 31
0.0
  0
LINE
  5
4D
330
1F
100
AcDbEntity
  8
SLD-0
  6
Continuous
 62
   179
100
AcDbLine
 10
157.4059206427
 20
22.9848510085
 30
0.0
 11
154.2059206427
 21
22.9848510085
 31
0.0
  0
LINE
  5
4E
330
1F
100
AcDbEntity
  8
SLD-0
  6
Continuous
 62
   179
100
AcDbLine
 10
154.2059206427
 20
22.9848510085
 30
0.0
 11
154.2059206427
 21
36.9848510085
 31
0.0
  0
LINE
  5
4F
330
1F
100
AcDbEntity
  8
SLD-0
  6
Continuous
 62
   179
100
AcDbLine
 10
154.2059206427
 20
36.9848510085
 30
0.0
 11
131.9059206427
 21
36.9848510085
 31
0.0
  0
LINE
  5
50
330
1F
100
AcDbEntity
  8
SLD-0
  6
Continuous
 62
   179
100
AcDbLine
 10
127.9059206427
 20
32.9848510085
 30
0.0
 11
127.9059206427
 21
30.9848510085
 31
0.0
  0
LINE
  5
51
330
1F
100
AcDbEntity
  8
SLD-0
  6
Continuous
 62
   179
100
AcDbLine
 10
119.9059206427
 20
22.9848510085
 30
0.0
 11
114.9059206427
 21
22.9848510085
 31
0.0
  0
LINE
  5
52
330
1F
100
AcDbEntity
  8
SLD-0
  6
Continuous
 62
   179
100
AcDbLine
 10
106.9059206427
 20
30.9848510085
 30
0.0
 11
106.9059206427
 21
32.9848510085
 31
0.0
  0
LINE
  5
53
330
1F
100
AcDbEntity
  8
SLD-0
  6
Continuous
 62
   179
100
AcDbLine
 10
102.9059206427
 20
81.9848510085
 30
0.0
 11
87.7059206427
 21
81.9848510085
 31
0.0
  0
LINE
  5
54
330
1F
100
AcDbEntity
  8
SLD-0
  6
Continuous
 62
   179
100
AcDbLine
 10
87.7059206427
 20
81.9848510085
 30
0.0
 11
87.7059206427
 21
36.9848510085
 31
0.0
  0
LINE
  5
55
330
1F
100
AcDbEntity
  8
SLD-0
  6
Continuous
 62
   179
100
AcDbLine
 10
92.2059206427
 20
45.9848510085
 30
0.0
 11
92.2059206427
 21
72.9848510085
 31
0.0
  0
LINE
  5
56
330
1F
100
AcDbEntity
  8
SLD-0
  6
Continuous
 62
   179
100
AcDbLine
 10
115.6059206427
 20
34.1848510085
 30
0.0
 11
119.2059206427
 21
34.1848510085
 31
0.0
  0
LINE
  5
57
330
1F
100
AcDbEntity
  8
SLD-0
  6
Continuous
 62
   179
100
AcDbLine
 10
119.2059206427
 20
27.7848510085
 30
0.0
 11
115.6059206427
 21
27.7848510085
 31
0.0
  0
LINE
  5
58
330
1F
100
AcDbEntity
  8
SLD-0
  6
Continuous
 62
   179
100
AcDbLine
 10
150.9976856427
 20
48.2124280085
 30
0.0
 11
157.4059206427
 21
46.4848510085
 31
0.0
  0
LINE
  5
59
330
1F
100
AcDbEntity
  8
SLD-0
  6
Continuous
 62
   179
100
AcDbLine
 10
157.4059206427
 20
46.9848510085
 30
0.0
 11
184.4059206427
 21
46.9848510085
 31
0.0
  0
LINE
  5
5A
330
1F
100
AcDbEntity
  8
SLD-0
  6
Continuous
 62
   179
100
AcDbLine
 10
184.4059206427
 20
46.9848510085
 30
0.0
 11
184.4059206427
 21
71.9848510085
 31
0.0
  0
LINE
  5
5B
330
1F
100
AcDbEntity
  8
SLD-0
  6
Continuous
 62
   179
100
AcDbLine
 10
184.4059206427
 20
71.9848510085
 30
0.0
 11
157.4059206427
 21
71.9848510085
 31
0.0
  0
LINE
  5
5C
330
1F
100
AcDbEntity
  8
SLD-0
  6
Continuous
 62
   179
100
AcDbLine
 10
157.4059208941
 20
72.4848510085
 30
0.0
 11
150.9976858941
 21
70.7572750085
 31
0.0
  0
LINE
  5
5D
330
1F
100
AcDbEntity
  8
SLD-0
  6
Continuous
 62
   179
100
AcDbLine
 10
150.9976856427
 20
69.2124280085
 30
0.0
 11
157.4059206427
 21
67.4848510085
 31
0.0
  0
LINE
  5
5E
330
1F
100
AcDbEntity
  8
SLD-0
  6
Continuous
 62
   179
100
AcDbLine
 10
157.4059206427
 20
69.4848510085
 30
0.0
 11
184.4059206427
 21
69.4848510085
 31
0.0
  0
LINE
  5
5F
330
1F
100
AcDbEntity
  8
SLD-0
  6
Continuous
 62
   179
100
AcDbLine
 10
184.4059206427
 20
65.4848510085
 30
0.0
 11
157.4059206427
 21
65.4848510085
 31
0.0
  0
LINE
  5
60
330
1F
100
AcDbEntity
  8
SLD-0
  6
Continuous
 62
   179
100
AcDbLine
 10
157.4059206427
 20
64.9848510085
 30
0.0
 11
166.6059206427
 21
64.9848510085
 31
0.0
  0
LINE
  5
61
330
1F
100
AcDbEntity
  8
SLD-0
  6
Continuous
 62
   179
100
AcDbLine
 10
166.6059206427
 20
64.9848510085
 30
0.0
 11
166.6059206427
 21
53.9848510085
 31
0.0
  0
LINE
  5
62
330
1F
100
AcDbEntity
  8
SLD-0
  6
Continuous
 62
   179
100
AcDbLine
 10
166.6059206427
 20
53.9848510085
 30
0.0
 11
157.4059206427
 21
53.9848510085
 31
0.0
  0
LINE
  5
63
330
1F
100
AcDbEntity
  8
SLD-0
  6
Continuous
 62
   179
100
AcDbLine
 10
157.4059206427
 20
53.4848510085
 30
0.0
 11
184.4059206427
 21
53.4848510085
 31
0.0
  0
LINE
  5
64
330
1F
100
AcDbEntity
  8
SLD-0
  6
Continuous
 62
   179
100
AcDbLine
 10
184.4059206427
 20
55.9848510085
 30
0.0
 11
178.2059206427
 21
55.9848510085
 31
0.0
  0
LINE
  5
65
330
1F
100
AcDbEntity
  8
SLD-0
  6
Continuous
 62
   179
100
AcDbLine
 10
178.2059206427
 20
54.9848510085
 30
0.0
 11
178.2059206427
 21
63.9848510085
 31
0.0
  0
LINE
  5
66
330
1F
100
AcDbEntity
  8
SLD-0
  6
Continuous
 62
   179
100
AcDbLine
 10
177.7059206427
 20
64.4848510085
 30
0.0
 11
173.7059206427
 21
64.4848510085
 31
0.0
  0
LINE
  5
67
330
1F
100
AcDbEntity
  8
SLD-0
  6
Continuous
 62
   179
100
AcDbLine
 10
173.7059206427
 20
64.4848510085
 30
0.0
 11
173.7059206427
 21
54.4848510085
 31
0.0
  0
LINE
  5
68
330
1F
100
AcDbEntity
  8
SLD-0
  6
Continuous
 62
   179
100
AcDbLine
 10
173.7059206427
 20
54.4848510085
 30
0.0
 11
177.7059206427
 21
54.4848510085
 31
0.0
  0
LINE
  5
69
330
1F
100
AcDbEntity
  8
SLD-0
  6
Continuous
 62
   179
100
AcDbLine
 10
173.4559206427
 20
56.5248510085
 30
0.0
 11
171.2059206427
 21
56.5248510085
 31
0.0
  0
LINE
  5
6A
330
1F
100
AcDbEntity
  8
SLD-0
  6
Continuous
 62
   179
100
AcDbLine
 10
171.2059206427
 20
56.5248510085
 30
0.0
 11
170.9159206427
 21
56.2348510085
 31
0.0
  0
LINE
  5
6B
330
1F
100
AcDbEntity
  8
SLD-0
  6
Continuous
 62
   179
100
AcDbLine
 10
170.9159206427
 20
56.2348510085
 30
0.0
 11
170.9159206427
 21
62.7348510085
 31
0.0
  0
LINE
  5
6C
330
1F
100
AcDbEntity
  8
SLD-0
  6
Continuous
 62
   179
100
AcDbLine
 10
170.9159206427
 20
62.7348510085
 30
0.0
 11
167.4059206427
 21
62.7348510085
 31
0.0
  0
LINE
  5
6D
330
1F
100
AcDbEntity
  8
SLD-0
  6
Continuous
 62
   179
100
AcDbLine
 10
167.4059206427
 20
64.1848510085
 30
0.0
 11
167.4059206427
 21
54.7848510085
 31
0.0
  0
LINE
  5
6E
330
1F
100
AcDbEntity
  8
SLD-0
  6
Continuous
 62
   179
100
AcDbLine
 10
167.4059206427
 20
54.7848510085
 30
0.0
 11
166.6059206427
 21
53.9848510085
 31
0.0
  0
LINE
  5
6F
330
1F
100
AcDbEntity
  8
SLD-0
  6
Continuous
 62
   179
100
AcDbLine
 10
167.4059206427
 20
56.2348510085
 30
0.0
 11
170.9159206427
 21
56.2348510085
 31
0.0
  0
LINE
  5
70
330
1F
100
AcDbEntity
  8
SLD-0
  6
Continuous
 62
   179
100
AcDbLine
 10
171.2059206427
 20
56.5248510085
 30
0.0
 11
171.2059206427
 21
62.4448510085
 31
0.0
  0
LINE
  5
71
330
1F
100
AcDbEntity
  8
SLD-0
  6
Continuous
 62
   179
100
AcDbLine
 10
171.2059206427
 20
62.4448510085
 30
0.0
 11
173.4559206427
 21
62.4448510085
 31
0.0
  0
LINE
  5
72
330
1F
100
AcDbEntity
  8
SLD-0
  6
Continuous
 62
   179
100
AcDbLine
 10
171.2059206427
 20
62.4448510085
 30
0.0
 11
170.9159206427
 21
62.7348510085
 31
0.0
  0
LINE
  5
73
330
1F
100
AcDbEntity
  8
SLD-0
  6
Continuous
 62
   179
100
AcDbLine
 10
167.4059206427
 20
64.1848510085
 30
0.0
 11
166.6059206427
 21
64.9848510085
 31
0.0
  0
LINE
  5
74
330
1F
100
AcDbEntity
  8
SLD-0
  6
Continuous
 62
   179
100
AcDbLine
 10
178.2059206427
 20
62.9848510085
 30
0.0
 11
184.4059206427
 21
62.9848510085
 31
0.0
  0
LINE
  5
75
330
1F
100
AcDbEntity
  8
SLD-0
  6
Continuous
 62
   179
100
AcDbLine
 10
184.4059206427
 20
49.4848510085
 30
0.0
 11
157.4059206427
 21
49.4848510085
 31
0.0
  0
LINE
  5
76
330
1F
100
AcDbEntity
  8
SLD-0
  6
Continuous
 62
   179
100
AcDbLine
 10
157.4059208941
 20
51.4848510085
 30
0.0
 11
150.9976858941
 21
49.7572750085
 31
0.0
  0
LINE
  5
77
330
1F
100
AcDbEntity
  8
SLD-0
  6
Continuous
 62
   179
100
AcDbLine
 10
157.4059206427
 20
44.4848510085
 30
0.0
 11
167.2059206427
 21
44.4848510085
 31
0.0
  0
LINE
  5
78
330
1F
100
AcDbEntity
  8
SLD-0
  6
Continuous
 62
   179
100
AcDbLine
 10
167.2059206427
 20
44.4848510085
 30
0.0
 11
167.2059206427
 21
40.4848510085
 31
0.0
  0
LINE
  5
79
330
1F
100
AcDbEntity
  8
SLD-0
  6
Continuous
 62
   179
100
AcDbLine
 10
167.2059206427
 20
40.4848510085
 30
0.0
 11
167.7059206427
 21
40.9848510085
 31
0.0
  0
LINE
  5
7A
330
1F
100
AcDbEntity
  8
SLD-0
  6
Continuous
 62
   179
100
AcDbLine
 10
167.7059206427
 20
40.9848510085
 30
0.0
 11
167.7059206427
 21
43.9848510085
 31
0.0
  0
LINE
  5
7B
330
1F
100
AcDbEntity
  8
SLD-0
  6
Continuous
 62
   179
100
AcDbLine
 10
167.7059206427
 20
43.9848510085
 30
0.0
 11
167.2059206427
 21
44.4848510085
 31
0.0
  0
LINE
  5
7C
330
1F
100
AcDbEntity
  8
SLD-0
  6
Continuous
 62
   179
100
AcDbLine
 10
167.2059206427
 20
40.4848510085
 30
0.0
 11
157.4059206427
 21
40.4848510085
 31
0.0
  0
LINE
  5
7D
330
1F
100
AcDbEntity
  8
SLD-0
  6
Continuous
 62
   179
100
AcDbLine
 10
330.7848426427
 20
130.9848510085
 30
0.0
 11
257.7848426427
 21
130.9848510085
 31
0.0
  0
LINE
  5
7E
330
1F
100
AcDbEntity
  8
SLD-0
  6
Continuous
 62
   179
100
AcDbLine
 10
257.7848426427
 20
130.9848510085
 30
0.0
 11
257.7848426427
 21
134.1848510085
 31
0.0
  0
LINE
  5
7F
330
1F
100
AcDbEntity
  8
SLD-0
  6
Continuous
 62
   179
100
AcDbLine
 10
257.7848426427
 20
134.1848510085
 30
0.0
 11
271.7848426427
 21
134.1848510085
 31
0.0
  0
LINE
  5
80
330
1F
100
AcDbEntity
  8
SLD-0
  6
Continuous
 62
   179
100
AcDbLine
 10
271.7848426427
 20
130.9848510085
 30
0.0
 11
271.7848426427
 21
188.6848510085
 31
0.0
  0
LINE
  5
81
330
1F
100
AcDbEntity
  8
SLD-0
  6
Continuous
 62
   179
100
AcDbLine
 10
267.7848426427
 20
192.6848510085
 30
0.0
 11
265.7848426427
 21
192.6848510085
 31
0.0
  0
LINE
  5
82
330
1F
100
AcDbEntity
  8
SLD-0
  6
Continuous
 62
   179
100
AcDbLine
 10
257.7848426427
 20
200.6848510085
 30
0.0
 11
257.7848426427
 21
205.6848510085
 31
0.0
  0
LINE
  5
83
330
1F
100
AcDbEntity
  8
SLD-0
  6
Continuous
 62
   179
100
AcDbLine
 10
265.7848426427
 20
213.6848510085
 30
0.0
 11
276.2848426427
 21
213.6848510085
 31
0.0
  0
LINE
  5
84
330
1F
100
AcDbEntity
  8
SLD-0
  6
Continuous
 62
   179
100
AcDbLine
 10
276.2848426427
 20
221.6848510085
 30
0.0
 11
274.7848426427
 21
221.6848510085
 31
0.0
  0
LINE
  5
85
330
1F
100
AcDbEntity
  8
SLD-0
  6
Continuous
 62
   179
100
AcDbLine
 10
274.7848426427
 20
218.5508760085
 30
0.0
 11
274.7848426427
 21
216.8188260085
 31
0.0
  0
LINE
  5
86
330
1F
100
AcDbEntity
  8
SLD-0
  6
Continuous
 62
   179
100
AcDbLine
 10
274.7848426427
 20
216.8188260085
 30
0.0
 11
276.2848426427
 21
215.9528000085
 31
0.0
  0
LINE
  5
87
330
1F
100
AcDbEntity
  8
SLD-0
  6
Continuous
 62
   179
100
AcDbLine
 10
276.2848426427
 20
215.9528000085
 30
0.0
 11
277.7848426427
 21
216.8188260085
 31
0.0
  0
LINE
  5
88
330
1F
100
AcDbEntity
  8
SLD-0
  6
Continuous
 62
   179
100
AcDbLine
 10
277.7848426427
 20
216.8188260085
 30
0.0
 11
277.7848426427
 21
218.5508760085
 31
0.0
  0
LINE
  5
89
330
1F
100
AcDbEntity
  8
SLD-0
  6
Continuous
 62
   179
100
AcDbLine
 10
277.7848426427
 20
218.5508760085
 30
0.0
 11
276.2848426427
 21
219.4169020085
 31
0.0
  0
LINE
  5
8A
330
1F
100
AcDbEntity
  8
SLD-0
  6
Continuous
 62
   179
100
AcDbLine
 10
276.2848426427
 20
219.4169020085
 30
0.0
 11
274.7848426427
 21
218.5508760085
 31
0.0
  0
LINE
  5
8B
330
1F
100
AcDbEntity
  8
SLD-0
  6
Continuous
 62
   179
100
AcDbLine
 10
271.7848426427
 20
213.6848510085
 30
0.0
 11
271.7848426427
 21
243.6848510085
 31
0.0
  0
LINE
  5
8C
330
1F
100
AcDbEntity
  8
SLD-0
  6
Continuous
 62
   179
100
AcDbLine
 10
271.7848426427
 20
243.6848510085
 30
0.0
 11
274.6053936427
 21
243.6848510085
 31
0.0
  0
LINE
  5
8D
330
1F
100
AcDbEntity
  8
SLD-0
  6
Continuous
 62
   179
100
AcDbLine
 10
276.7848426427
 20
244.1848510085
 30
0.0
 11
311.7848426427
 21
244.1848510085
 31
0.0
  0
LINE
  5
8E
330
1F
100
AcDbEntity
  8
SLD-0
  6
Continuous
 62
   179
100
AcDbLine
 10
316.7848426427
 20
243.6848510085
 30
0.0
 11
316.7848426427
 21
213.6848510085
 31
0.0
  0
LINE
  5
8F
330
1F
100
AcDbEntity
  8
SLD-0
  6
Continuous
 62
   179
100
AcDbLine
 10
313.7848426427
 20
216.8188260085
 30
0.0
 11
313.7848426427
 21
218.5508760085
 31
0.0
  0
LINE
  5
90
330
1F
100
AcDbEntity
  8
SLD-0
  6
Continuous
 62
   179
100
AcDbLine
 10
313.7848426427
 20
218.5508760085
 30
0.0
 11
312.2848426427
 21
219.4169020085
 31
0.0
  0
LINE
  5
91
330
1F
100
AcDbEntity
  8
SLD-0
  6
Continuous
 62
   179
100
AcDbLine
 10
312.2848426427
 20
219.4169020085
 30
0.0
 11
310.7848426427
 21
218.5508760085
 31
0.0
  0
LINE
  5
92
330
1F
100
AcDbEntity
  8
SLD-0
  6
Continuous
 62
   179
100
AcDbLine
 10
310.7848426427
 20
218.5508760085
 30
0.0
 11
310.7848426427
 21
216.8188260085
 31
0.0
  0
LINE
  5
93
330
1F
100
AcDbEntity
  8
SLD-0
  6
Continuous
 62
   179
100
AcDbLine
 10
310.7848426427
 20
216.8188260085
 30
0.0
 11
312.2848426427
 21
215.9528000085
 31
0.0
  0
LINE
  5
94
330
1F
100
AcDbEntity
  8
SLD-0
  6
Continuous
 62
   179
100
AcDbLine
 10
312.2848426427
 20
215.9528000085
 30
0.0
 11
313.7848426427
 21
216.8188260085
 31
0.0
  0
LINE
  5
95
330
1F
100
AcDbEntity
  8
SLD-0
  6
Continuous
 62
   179
100
AcDbLine
 10
312.2848426427
 20
221.6848510085
 30
0.0
 11
313.7848426427
 21
221.6848510085
 31
0.0
  0
LINE
  5
96
330
1F
100
AcDbEntity
  8
SLD-0
  6
Continuous
 62
   179
100
AcDbLine
 10
312.2848426427
 20
213.6848510085
 30
0.0
 11
322.7848426427
 21
213.6848510085
 31
0.0
  0
LINE
  5
97
330
1F
100
AcDbEntity
  8
SLD-0
  6
Continuous
 62
   179
100
AcDbLine
 10
330.7848426427
 20
205.6848510085
 30
0.0
 11
330.7848426427
 21
200.6848510085
 31
0.0
  0
LINE
  5
98
330
1F
100
AcDbEntity
  8
SLD-0
  6
Continuous
 62
   179
100
AcDbLine
 10
322.7848426427
 20
192.6848510085
 30
0.0
 11
320.7848426427
 21
192.6848510085
 31
0.0
  0
LINE
  5
99
330
1F
100
AcDbEntity
  8
SLD-0
  6
Continuous
 62
   179
100
AcDbLine
 10
316.7848426427
 20
188.6848510085
 30
0.0
 11
316.7848426427
 21
130.9848510085
 31
0.0
  0
LINE
  5
9A
330
1F
100
AcDbEntity
  8
SLD-0
  6
Continuous
 62
   179
100
AcDbLine
 10
316.7848426427
 20
134.1848510085
 30
0.0
 11
330.7848426427
 21
134.1848510085
 31
0.0
  0
LINE
  5
9B
330
1F
100
AcDbEntity
  8
SLD-0
  6
Continuous
 62
   179
100
AcDbLine
 10
330.7848426427
 20
134.1848510085
 30
0.0
 11
330.7848426427
 21
130.9848510085
 31
0.0
  0
LINE
  5
9C
330
1F
100
AcDbEntity
  8
SLD-0
  6
Continuous
 62
   179
100
AcDbLine
 10
307.2848426427
 20
130.9848507572
 30
0.0
 11
305.5572666427
 21
137.3930857572
 31
0.0
  0
LINE
  5
9D
330
1F
100
AcDbEntity
  8
SLD-0
  6
Continuous
 62
   179
100
AcDbLine
 10
304.0124196427
 20
137.3930860085
 30
0.0
 11
302.2848426427
 21
130.9848510085
 31
0.0
  0
LINE
  5
9E
330
1F
100
AcDbEntity
  8
SLD-0
  6
Continuous
 62
   179
100
AcDbLine
 10
286.2848426427
 20
130.9848507572
 30
0.0
 11
284.5572666427
 21
137.3930857572
 31
0.0
  0
LINE
  5
9F
330
1F
100
AcDbEntity
  8
SLD-0
  6
Continuous
 62
   179
100
AcDbLine
 10
283.0124196427
 20
137.3930860085
 30
0.0
 11
281.2848426427
 21
130.9848510085
 31
0.0
  0
LINE
  5
A0
330
1F
100
AcDbEntity
  8
SLD-0
  6
Continuous
 62
   179
100
AcDbLine
 10
274.7848426427
 20
173.6848510085
 30
0.0
 11
276.2848426427
 21
173.6848510085
 31
0.0
  0
LINE
  5
A1
330
1F
100
AcDbEntity
  8
SLD-0
  6
Continuous
 62
   179
100
AcDbLine
 10
276.2848426427
 20
181.6848510085
 30
0.0
 11
274.7848426427
 21
181.6848510085
 31
0.0
  0
LINE
  5
A2
330
1F
100
AcDbEntity
  8
SLD-0
  6
Continuous
 62
   179
100
AcDbLine
 10
274.7848426427
 20
178.5508760085
 30
0.0
 11
276.2848426427
 21
179.4169020085
 31
0.0
  0
LINE
  5
A3
330
1F
100
AcDbEntity
  8
SLD-0
  6
Continuous
 62
   179
100
AcDbLine
 10
276.2848426427
 20
179.4169020085
 30
0.0
 11
277.7848426427
 21
178.5508760085
 31
0.0
  0
LINE
  5
A4
330
1F
100
AcDbEntity
  8
SLD-0
  6
Continuous
 62
   179
100
AcDbLine
 10
277.7848426427
 20
178.5508760085
 30
0.0
 11
277.7848426427
 21
176.8188260085
 31
0.0
  0
LINE
  5
A5
330
1F
100
AcDbEntity
  8
SLD-0
  6
Continuous
 62
   179
100
AcDbLine
 10
277.7848426427
 20
176.8188260085
 30
0.0
 11
276.2848426427
 21
175.9528000085
 31
0.0
  0
LINE
  5
A6
330
1F
100
AcDbEntity
  8
SLD-0
  6
Continuous
 62
   179
100
AcDbLine
 10
276.2848426427
 20
175.9528000085
 30
0.0
 11
274.7848426427
 21
176.8188260085
 31
0.0
  0
LINE
  5
A7
330
1F
100
AcDbEntity
  8
SLD-0
  6
Continuous
 62
   179
100
AcDbLine
 10
274.7848426427
 20
176.8188260085
 30
0.0
 11
274.7848426427
 21
178.5508760085
 31
0.0
  0
LINE
  5
A8
330
1F
100
AcDbEntity
  8
SLD-0
  6
Continuous
 62
   179
100
AcDbLine
 10
284.2848426427
 20
190.6848510085
 30
0.0
 11
281.7848426427
 21
193.1848510085
 31
0.0
  0
LINE
  5
A9
330
1F
100
AcDbEntity
  8
SLD-0
  6
Continuous
 62
   179
100
AcDbLine
 10
281.7848426427
 20
193.1848510085
 30
0.0
 11
281.7848426427
 21
213.1848510085
 31
0.0
  0
LINE
  5
AA
330
1F
100
AcDbEntity
  8
SLD-0
  6
Continuous
 62
   179
100
AcDbLine
 10
281.7848426427
 20
213.1848510085
 30
0.0
 11
284.2848426427
 21
215.6848510085
 31
0.0
  0
LINE
  5
AB
330
1F
100
AcDbEntity
  8
SLD-0
  6
Continuous
 62
   179
100
AcDbLine
 10
284.2848426427
 20
215.6848510085
 30
0.0
 11
288.2848426427
 21
215.6848510085
 31
0.0
  0
LINE
  5
AC
330
1F
100
AcDbEntity
  8
SLD-0
  6
Continuous
 62
   179
100
AcDbLine
 10
288.2848426427
 20
215.6848510085
 30
0.0
 11
290.7848426427
 21
213.1848510085
 31
0.0
  0
LINE
  5
AD
330
1F
100
AcDbEntity
  8
SLD-0
  6
Continuous
 62
   179
100
AcDbLine
 10
290.7848426427
 20
213.1848510085
 30
0.0
 11
297.7848426427
 21
213.1848510085
 31
0.0
  0
LINE
  5
AE
330
1F
100
AcDbEntity
  8
SLD-0
  6
Continuous
 62
   179
100
AcDbLine
 10
297.7848426427
 20
213.1848510085
 30
0.0
 11
300.2848426427
 21
215.6848510085
 31
0.0
  0
LINE
  5
AF
330
1F
100
AcDbEntity
  8
SLD-0
  6
Continuous
 62
   179
100
AcDbLine
 10
300.2848426427
 20
215.6848510085
 30
0.0
 11
304.2848426427
 21
215.6848510085
 31
0.0
  0
LINE
  5
B0
330
1F
100
AcDbEntity
  8
SLD-0
  6
Continuous
 62
   179
100
AcDbLine
 10
304.2848426427
 20
215.6848510085
 30
0.0
 11
306.7848426427
 21
213.1848510085
 31
0.0
  0
LINE
  5
B1
330
1F
100
AcDbEntity
  8
SLD-0
  6
Continuous
 62
   179
100
AcDbLine
 10
306.7848426427
 20
213.1848510085
 30
0.0
 11
306.7848426427
 21
209.1848510085
 31
0.0
  0
LINE
  5
B2
330
1F
100
AcDbEntity
  8
SLD-0
  6
Continuous
 62
   179
100
AcDbLine
 10
306.7848426427
 20
209.1848510085
 30
0.0
 11
304.2848426427
 21
206.6848510085
 31
0.0
  0
LINE
  5
B3
330
1F
100
AcDbEntity
  8
SLD-0
  6
Continuous
 62
   179
100
AcDbLine
 10
304.2848426427
 20
206.6848510085
 30
0.0
 11
304.2848426427
 21
199.6848510085
 31
0.0
  0
LINE
  5
B4
330
1F
100
AcDbEntity
  8
SLD-0
  6
Continuous
 62
   179
100
AcDbLine
 10
304.2848426427
 20
199.6848510085
 30
0.0
 11
306.7848426427
 21
197.1848510085
 31
0.0
  0
LINE
  5
B5
330
1F
100
AcDbEntity
  8
SLD-0
  6
Continuous
 62
   179
100
AcDbLine
 10
306.7848426427
 20
197.1848510085
 30
0.0
 11
306.7848426427
 21
193.1848510085
 31
0.0
  0
LINE
  5
B6
330
1F
100
AcDbEntity
  8
SLD-0
  6
Continuous
 62
   179
100
AcDbLine
 10
306.7848426427
 20
193.1848510085
 30
0.0
 11
304.2848426427
 21
190.6848510085
 31
0.0
  0
LINE
  5
B7
330
1F
100
AcDbEntity
  8
SLD-0
  6
Continuous
 62
   179
100
AcDbLine
 10
304.2848426427
 20
190.6848510085
 30
0.0
 11
300.2848426427
 21
190.6848510085
 31
0.0
  0
LINE
  5
B8
330
1F
100
AcDbEntity
  8
SLD-0
  6
Continuous
 62
   179
100
AcDbLine
 10
300.2848426427
 20
190.6848510085
 30
0.0
 11
297.7848426427
 21
193.1848510085
 31
0.0
  0
LINE
  5
B9
330
1F
100
AcDbEntity
  8
SLD-0
  6
Continuous
 62
   179
100
AcDbLine
 10
297.7848426427
 20
193.1848510085
 30
0.0
 11
290.7848426427
 21
193.1848510085
 31
0.0
  0
LINE
  5
BA
330
1F
100
AcDbEntity
  8
SLD-0
  6
Continuous
 62
   179
100
AcDbLine
 10
290.7848426427
 20
193.1848510085
 30
0.0
 11
288.2848426427
 21
190.6848510085
 31
0.0
  0
LINE
  5
BB
330
1F
100
AcDbEntity
  8
SLD-0
  6
Continuous
 62
   179
100
AcDbLine
 10
288.2848426427
 20
190.6848510085
 30
0.0
 11
284.2848426427
 21
190.6848510085
 31
0.0
  0
LINE
  5
BC
330
1F
100
AcDbEntity
  8
SLD-0
  6
Continuous
 62
   179
100
AcDbLine
 10
285.7848426427
 20
194.1358130085
 30
0.0
 11
285.0348426427
 21
195.4348510085
 31
0.0
  0
LINE
  5
BD
330
1F
100
AcDbEntity
  8
SLD-0
  6
Continuous
 62
   179
100
AcDbLine
 10
285.0348426427
 20
195.4348510085
 30
0.0
 11
285.7848426427
 21
196.7338890085
 31
0.0
  0
LINE
  5
BE
330
1F
100
AcDbEntity
  8
SLD-0
  6
Continuous
 62
   179
100
AcDbLine
 10
285.7848426427
 20
196.7338890085
 30
0.0
 11
287.2848426427
 21
196.7338890085
 31
0.0
  0
LINE
  5
BF
330
1F
100
AcDbEntity
  8
SLD-0
  6
Continuous
 62
   179
100
AcDbLine
 10
287.2848426427
 20
196.7338890085
 30
0.0
 11
288.0348426427
 21
195.4348510085
 31
0.0
  0
LINE
  5
C0
330
1F
100
AcDbEntity
  8
SLD-0
  6
Continuous
 62
   179
100
AcDbLine
 10
288.0348426427
 20
195.4348510085
 30
0.0
 11
287.2848426427
 21
194.1358130085
 31
0.0
  0
LINE
  5
C1
330
1F
100
AcDbEntity
  8
SLD-0
  6
Continuous
 62
   179
100
AcDbLine
 10
287.2848426427
 20
194.1358130085
 30
0.0
 11
285.7848426427
 21
194.1358130085
 31
0.0
  0
LINE
  5
C2
330
1F
100
AcDbEntity
  8
SLD-0
  6
Continuous
 62
   179
100
AcDbLine
 10
268.9848426427
 20
204.9848510085
 30
0.0
 11
268.9848426427
 21
201.3848510085
 31
0.0
  0
LINE
  5
C3
330
1F
100
AcDbEntity
  8
SLD-0
  6
Continuous
 62
   179
100
AcDbLine
 10
262.5848426427
 20
201.3848510085
 30
0.0
 11
262.5848426427
 21
204.9848510085
 31
0.0
  0
LINE
  5
C4
330
1F
100
AcDbEntity
  8
SLD-0
  6
Continuous
 62
   179
100
AcDbLine
 10
285.2358046427
 20
210.1848510085
 30
0.0
 11
286.5348426427
 21
209.4348510085
 31
0.0
  0
LINE
  5
C5
330
1F
100
AcDbEntity
  8
SLD-0
  6
Continuous
 62
   179
100
AcDbLine
 10
286.5348426427
 20
209.4348510085
 30
0.0
 11
287.8338806427
 21
210.1848510085
 31
0.0
  0
LINE
  5
C6
330
1F
100
AcDbEntity
  8
SLD-0
  6
Continuous
 62
   179
100
AcDbLine
 10
287.8338806427
 20
210.1848510085
 30
0.0
 11
287.8338806427
 21
211.6848510085
 31
0.0
  0
LINE
  5
C7
330
1F
100
AcDbEntity
  8
SLD-0
  6
Continuous
 62
   179
100
AcDbLine
 10
287.8338806427
 20
211.6848510085
 30
0.0
 11
286.5348426427
 21
212.4348510085
 31
0.0
  0
LINE
  5
C8
330
1F
100
AcDbEntity
  8
SLD-0
  6
Continuous
 62
   179
100
AcDbLine
 10
286.5348426427
 20
212.4348510085
 30
0.0
 11
285.2358046427
 21
211.6848510085
 31
0.0
  0
LINE
  5
C9
330
1F
100
AcDbEntity
  8
SLD-0
  6
Continuous
 62
   179
100
AcDbLine
 10
285.2358046427
 20
211.6848510085
 30
0.0
 11
285.2358046427
 21
210.1848510085
 31
0.0
  0
LINE
  5
CA
330
1F
100
AcDbEntity
  8
SLD-0
  6
Continuous
 62
   179
100
AcDbLine
 10
293.2918006427
 20
221.4648510085
 30
0.0
 11
295.2778856427
 21
221.4648510085
 31
0.0
  0
LINE
  5
CB
330
1F
100
AcDbEntity
  8
SLD-0
  6
Continuous
 62
   179
100
AcDbLine
 10
295.2778856427
 20
221.4648510085
 30
0.0
 11
296.2709276427
 21
223.1848510085
 31
0.0
  0
LINE
  5
CC
330
1F
100
AcDbEntity
  8
SLD-0
  6
Continuous
 62
   179
100
AcDbLine
 10
296.2709276427
 20
223.1848510085
 30
0.0
 11
295.2778856427
 21
224.9048510085
 31
0.0
  0
LINE
  5
CD
330
1F
100
AcDbEntity
  8
SLD-0
  6
Continuous
 62
   179
100
AcDbLine
 10
295.2778856427
 20
224.9048510085
 30
0.0
 11
293.2918006427
 21
224.9048510085
 31
0.0
  0
LINE
  5
CE
330
1F
100
AcDbEntity
  8
SLD-0
  6
Continuous
 62
   179
100
AcDbLine
 10
293.2918006427
 20
224.9048510085
 30
0.0
 11
292.2987576427
 21
223.1848510085
 31
0.0
  0
LINE
  5
CF
330
1F
100
AcDbEntity
  8
SLD-0
  6
Continuous
 62
   179
100
AcDbLine
 10
292.2987576427
 20
223.1848510085
 30
0.0
 11
293.2918006427
 21
221.4648510085
 31
0.0
  0
LINE
  5
D0
330
1F
100
AcDbEntity
  8
SLD-0
  6
Continuous
 62
   179
100
AcDbLine
 10
301.2848426427
 20
212.2338890085
 30
0.0
 11
302.7848426427
 21
212.2338890085
 31
0.0
  0
LINE
  5
D1
330
1F
100
AcDbEntity
  8
SLD-0
  6
Continuous
 62
   179
100
AcDbLine
 10
302.7848426427
 20
212.2338890085
 30
0.0
 11
303.5348426427
 21
210.9348510085
 31
0.0
  0
LINE
  5
D2
330
1F
100
AcDbEntity
  8
SLD-0
  6
Continuous
 62
   179
100
AcDbLine
 10
303.5348426427
 20
210.9348510085
 30
0.0
 11
302.7848426427
 21
209.6358130085
 31
0.0
  0
LINE
  5
D3
330
1F
100
AcDbEntity
  8
SLD-0
  6
Continuous
 62
   179
100
AcDbLine
 10
302.7848426427
 20
209.6358130085
 30
0.0
 11
301.2848426427
 21
209.6358130085
 31
0.0
  0
LINE
  5
D4
330
1F
100
AcDbEntity
  8
SLD-0
  6
Continuous
 62
   179
100
AcDbLine
 10
301.2848426427
 20
209.6358130085
 30
0.0
 11
300.5348426427
 21
210.9348510085
 31
0.0
  0
LINE
  5
D5
330
1F
100
AcDbEntity
  8
SLD-0
  6
Continuous
 62
   179
100
AcDbLine
 10
300.5348426427
 20
210.9348510085
 30
0.0
 11
301.2848426427
 21
212.2338890085
 31
0.0
  0
LINE
  5
D6
330
1F
100
AcDbEntity
  8
SLD-0
  6
Continuous
 62
   179
100
AcDbLine
 10
303.3338806427
 20
196.1848510085
 30
0.0
 11
302.0348426427
 21
196.9348510085
 31
0.0
  0
LINE
  5
D7
330
1F
100
AcDbEntity
  8
SLD-0
  6
Continuous
 62
   179
100
AcDbLine
 10
302.0348426427
 20
196.9348510085
 30
0.0
 11
300.7358046427
 21
196.1848510085
 31
0.0
  0
LINE
  5
D8
330
1F
100
AcDbEntity
  8
SLD-0
  6
Continuous
 62
   179
100
AcDbLine
 10
300.7358046427
 20
196.1848510085
 30
0.0
 11
300.7358046427
 21
194.6848510085
 31
0.0
  0
LINE
  5
D9
330
1F
100
AcDbEntity
  8
SLD-0
  6
Continuous
 62
   179
100
AcDbLine
 10
300.7358046427
 20
194.6848510085
 30
0.0
 11
302.0348426427
 21
193.9348510085
 31
0.0
  0
LINE
  5
DA
330
1F
100
AcDbEntity
  8
SLD-0
  6
Continuous
 62
   179
100
AcDbLine
 10
302.0348426427
 20
193.9348510085
 30
0.0
 11
303.3338806427
 21
194.6848510085
 31
0.0
  0
LINE
  5
DB
330
1F
100
AcDbEntity
  8
SLD-0
  6
Continuous
 62
   179
100
AcDbLine
 10
303.3338806427
 20
194.6848510085
 30
0.0
 11
303.3338806427
 21
196.1848510085
 31
0.0
  0
LINE
  5
DC
330
1F
100
AcDbEntity
  8
SLD-0
  6
Continuous
 62
   179
100
AcDbLine
 10
295.2778856427
 20
184.9048510085
 30
0.0
 11
296.2709276427
 21
183.1848510085
 31
0.0
  0
LINE
  5
DD
330
1F
100
AcDbEntity
  8
SLD-0
  6
Continuous
 62
   179
100
AcDbLine
 10
296.2709276427
 20
183.1848510085
 30
0.0
 11
295.2778856427
 21
181.4648510085
 31
0.0
  0
LINE
  5
DE
330
1F
100
AcDbEntity
  8
SLD-0
  6
Continuous
 62
   179
100
AcDbLine
 10
295.2778856427
 20
181.4648510085
 30
0.0
 11
293.2918006427
 21
181.4648510085
 31
0.0
  0
LINE
  5
DF
330
1F
100
AcDbEntity
  8
SLD-0
  6
Continuous
 62
   179
100
AcDbLine
 10
293.2918006427
 20
181.4648510085
 30
0.0
 11
292.2987576427
 21
183.1848510085
 31
0.0
  0
LINE
  5
E0
330
1F
100
AcDbEntity
  8
SLD-0
  6
Continuous
 62
   179
100
AcDbLine
 10
292.2987576427
 20
183.1848510085
 30
0.0
 11
293.2918006427
 21
184.9048510085
 31
0.0
  0
LINE
  5
E1
330
1F
100
AcDbEntity
  8
SLD-0
  6
Continuous
 62
   179
100
AcDbLine
 10
293.2918006427
 20
184.9048510085
 30
0.0
 11
295.2778856427
 21
184.9048510085
 31
0.0
  0
LINE
  5
E2
330
1F
100
AcDbEntity
  8
SLD-0
  6
Continuous
 62
   179
100
AcDbLine
 10
310.7848426427
 20
178.5508760085
 30
0.0
 11
312.2848426427
 21
179.4169020085
 31
0.0
  0
LINE
  5
E3
330
1F
100
AcDbEntity
  8
SLD-0
  6
Continuous
 62
   179
100
AcDbLine
 10
312.2848426427
 20
179.4169020085
 30
0.0
 11
313.7848426427
 21
178.5508760085
 31
0.0
  0
LINE
  5
E4
330
1F
100
AcDbEntity
  8
SLD-0
  6
Continuous
 62
   179
100
AcDbLine
 10
313.7848426427
 20
178.5508760085
 30
0.0
 11
313.7848426427
 21
176.8188260085
 31
0.0
  0
LINE
  5
E5
330
1F
100
AcDbEntity
  8
SLD-0
  6
Continuous
 62
   179
100
AcDbLine
 10
313.7848426427
 20
176.8188260085
 30
0.0
 11
312.2848426427
 21
175.9528000085
 31
0.0
  0
LINE
  5
E6
330
1F
100
AcDbEntity
  8
SLD-0
  6
Continuous
 62
   179
100
AcDbLine
 10
312.2848426427
 20
175.9528000085
 30
0.0
 11
310.7848426427
 21
176.8188260085
 31
0.0
  0
LINE
  5
E7
330
1F
100
AcDbEntity
  8
SLD-0
  6
Continuous
 62
   179
100
AcDbLine
 10
310.7848426427
 20
176.8188260085
 30
0.0
 11
310.7848426427
 21
178.5508760085
 31
0.0
  0
LINE
  5
E8
330
1F
100
AcDbEntity
  8
SLD-0
  6
Continuous
 62
   179
100
AcDbLine
 10
312.2848426427
 20
173.6848510085
 30
0.0
 11
313.7848426427
 21
173.6848510085
 31
0.0
  0
LINE
  5
E9
330
1F
100
AcDbEntity
  8
SLD-0
  6
Continuous
 62
   179
100
AcDbLine
 10
313.7848426427
 20
181.6848510085
 30
0.0
 11
312.2848426427
 21
181.6848510085
 31
0.0
  0
LINE
  5
EA
330
1F
100
AcDbEntity
  8
SLD-0
  6
Continuous
 62
   179
100
AcDbLine
 10
313.9642926427
 20
243.6848510085
 30
0.0
 11
316.7848426427
 21
243.6848510085
 31
0.0
  0
LINE
  5
EB
330
1F
100
AcDbEntity
  8
SLD-0
  6
Continuous
 62
   179
100
AcDbLine
 10
316.7848426427
 20
243.6848510085
 30
0.0
 11
304.2848426427
 21
267.6848510085
 31
0.0
  0
LINE
  5
EC
330
1F
100
AcDbEntity
  8
SLD-0
  6
Continuous
 62
   179
100
AcDbLine
 10
304.2848426427
 20
267.6848510085
 30
0.0
 11
284.2848426427
 21
267.6848510085
 31
0.0
  0
LINE
  5
ED
330
1F
100
AcDbEntity
  8
SLD-0
  6
Continuous
 62
   179
100
AcDbLine
 10
284.2848426427
 20
267.6848510085
 30
0.0
 11
271.7848426427
 21
243.6848510085
 31
0.0
  0
LINE
  5
EE
330
1F
100
AcDbEntity
  8
SLD-0
  6
Continuous
 62
   179
100
AcDbLine
 10
291.9247135691
 20
256.1003220182
 30
0.0
 11
292.7071925691
 21
257.4556150182
 31
0.0
  0
LINE
  5
EF
330
1F
100
AcDbEntity
  8
SLD-0
  6
Continuous
 62
   179
100
AcDbLine
 10
292.2848426427
 20
258.6848510085
 30
0.0
 11
292.0044916427
 21
258.6848510085
 31
0.0
  0
LINE
  5
F0
330
1F
100
AcDbEntity
  8
SLD-0
  6
Continuous
 62
   179
100
AcDbLine
 10
293.4747165128
 20
260.7824500349
 30
0.0
 11
293.5394755128
 21
260.5407680349
 31
0.0
  0
LINE
  5
F1
330
1F
100
AcDbEntity
  8
SLD-0
  6
Continuous
 62
   179
100
AcDbLine
 10
295.0302107021
 20
260.5407679396
 30
0.0
 11
295.0949687021
 21
260.7824499396
 31
0.0
  0
LINE
  5
F2
330
1F
100
AcDbEntity
  8
SLD-0
  6
Continuous
 62
   179
100
AcDbLine
 10
296.5651936427
 20
258.6848510085
 30
0.0
 11
296.2848426427
 21
258.6848510085
 31
0.0
  0
LINE
  5
F3
330
1F
100
AcDbEntity
  8
SLD-0
  6
Continuous
 62
   179
100
AcDbLine
 10
295.8624925691
 20
257.4556150182
 30
0.0
 11
296.6449715691
 21
256.1003220182
 31
0.0
  0
LINE
  5
F4
330
1F
100
AcDbEntity
  8
SLD-0
  6
Continuous
 62
   179
100
AcDbLine
 10
319.5848426427
 20
204.9848510085
 30
0.0
 11
319.5848426427
 21
201.3848510085
 31
0.0
  0
LINE
  5
F5
330
1F
100
AcDbEntity
  8
SLD-0
  6
Continuous
 62
   179
100
AcDbLine
 10
325.9848426427
 20
201.3848510085
 30
0.0
 11
325.9848426427
 21
204.9848510085
 31
0.0
  0
LINE
  5
F6
330
1F
100
AcDbEntity
  8
SLD-0
  6
Continuous
 62
   179
100
AcDbLine
 10
184.4059206427
 20
213.1848510085
 30
0.0
 11
157.4059206427
 21
213.1848510085
 31
0.0
  0
LINE
  5
F7
330
1F
100
AcDbEntity
  8
SLD-0
  6
Continuous
 62
   179
100
AcDbLine
 10
157.4059206427
 20
213.6848510085
 30
0.0
 11
154.2059206427
 21
213.6848510085
 31
0.0
  0
LINE
  5
F8
330
1F
100
AcDbEntity
  8
SLD-0
  6
Continuous
 62
   179
100
AcDbLine
 10
157.4059206427
 20
215.6848510085
 30
0.0
 11
184.4059206427
 21
215.6848510085
 31
0.0
  0
LINE
  5
F9
330
1F
100
AcDbEntity
  8
SLD-0
  6
Continuous
 62
   179
100
AcDbLine
 10
184.4059206427
 20
215.6848510085
 30
0.0
 11
184.4059206427
 21
190.6848510085
 31
0.0
  0
LINE
  5
FA
330
1F
100
AcDbEntity
  8
SLD-0
  6
Continuous
 62
   179
100
AcDbLine
 10
184.4059206427
 20
190.6848510085
 30
0.0
 11
157.4059206427
 21
190.6848510085
 31
0.0
  0
LINE
  5
FB
330
1F
100
AcDbEntity
  8
SLD-0
  6
Continuous
 62
   179
100
AcDbLine
 10
157.4059206427
 20
188.6848510085
 30
0.0
 11
166.6059206427
 21
188.6848510085
 31
0.0
  0
LINE
  5
FC
330
1F
100
AcDbEntity
  8
SLD-0
  6
Continuous
 62
   179
100
AcDbLine
 10
166.6059206427
 20
188.6848510085
 30
0.0
 11
166.6059206427
 21
177.6848510085
 31
0.0
  0
LINE
  5
FD
330
1F
100
AcDbEntity
  8
SLD-0
  6
Continuous
 62
   179
100
AcDbLine
 10
166.6059206427
 20
177.6848510085
 30
0.0
 11
157.4059206427
 21
177.6848510085
 31
0.0
  0
LINE
  5
FE
330
1F
100
AcDbEntity
  8
SLD-0
  6
Continuous
 62
   179
100
AcDbLine
 10
153.6059206427
 20
179.4848510085
 30
0.0
 11
153.6059206427
 21
186.9297630085
 31
0.0
  0
LINE
  5
FF
330
1F
100
AcDbEntity
  8
SLD-0
  6
Continuous
 62
   179
100
AcDbLine
 10
153.6190726427
 20
186.9727060085
 30
0.0
 11
153.4543386427
 21
186.4348510085
 31
0.0
  0
LINE
  5
100
330
1F
100
AcDbEntity
  8
SLD-0
  6
Continuous
 62
   179
100
AcDbLine
 10
153.6059206427
 20
186.4348510085
 30
0.0
 11
150.4648576427
 21
186.4348510085
 31
0.0
  0
LINE
  5
101
330
1F
100
AcDbEntity
  8
SLD-0
  6
Continuous
 62
   179
100
AcDbLine
 10
150.3546996427
 20
186.9478370085
 30
0.0
 11
151.9437686427
 21
179.5478370085
 31
0.0
  0
LINE
  5
102
330
1F
100
AcDbEntity
  8
SLD-0
  6
Continuous
 62
   179
100
AcDbLine
 10
151.3571416427
 20
179.4218650085
 30
0.0
 11
149.7680726427
 21
186.8218650085
 31
0.0
  0
LINE
  5
103
330
1F
100
AcDbEntity
  8
SLD-0
  6
Continuous
 62
   179
100
AcDbLine
 10
149.7590816427
 20
186.8637340085
 30
0.0
 11
149.6669836427
 21
186.4348510085
 31
0.0
  0
LINE
  5
104
330
1F
100
AcDbEntity
  8
SLD-0
  6
Continuous
 62
   179
100
AcDbLine
 10
149.8511796427
 20
186.4348510085
 30
0.0
 11
147.3048576427
 21
186.4348510085
 31
0.0
  0
LINE
  5
105
330
1F
100
AcDbEntity
  8
SLD-0
  6
Continuous
 62
   179
100
AcDbLine
 10
147.1946996427
 20
186.9478370085
 30
0.0
 11
148.7927596427
 21
179.5059680085
 31
0.0
  0
LINE
  5
106
330
1F
100
AcDbEntity
  8
SLD-0
  6
Continuous
 62
   179
100
AcDbLine
 10
148.7746996056
 20
179.4218653119
 30
0.0
 11
148.8848576056
 21
179.9348513119
 31
0.0
  0
LINE
  5
107
330
1F
100
AcDbEntity
  8
SLD-0
  6
Continuous
 62
   179
100
AcDbLine
 10
148.7006616427
 20
179.9348510085
 30
0.0
 11
151.2469836427
 21
179.9348510085
 31
0.0
  0
LINE
  5
108
330
1F
100
AcDbEntity
  8
SLD-0
  6
Continuous
 62
   179
100
AcDbLine
 10
151.8606616427
 20
179.9348510085
 30
0.0
 11
153.6059206427
 21
179.9348510085
 31
0.0
  0
LINE
  5
109
330
1F
100
AcDbEntity
  8
SLD-0
  6
Continuous
 62
   179
100
AcDbLine
 10
152.0910346427
 20
179.9348510085
 30
0.0
 11
151.9503056427
 21
179.4753720085
 31
0.0
  0
LINE
  5
10A
330
1F
100
AcDbEntity
  8
SLD-0
  6
Continuous
 62
   179
100
AcDbLine
 10
148.2119426427
 20
179.3529410085
 30
0.0
 11
146.5990816427
 21
186.8637340085
 31
0.0
  0
LINE
  5
10B
330
1F
100
AcDbEntity
  8
SLD-0
  6
Continuous
 62
   179
100
AcDbLine
 10
146.5990816427
 20
186.8637340085
 30
0.0
 11
146.5069836427
 21
186.4348510085
 31
0.0
  0
LINE
  5
10C
330
1F
100
AcDbEntity
  8
SLD-0
  6
Continuous
 62
   179
100
AcDbLine
 10
146.6911796427
 20
186.4348510085
 30
0.0
 11
144.1448576427
 21
186.4348510085
 31
0.0
  0
LINE
  5
10D
330
1F
100
AcDbEntity
  8
SLD-0
  6
Continuous
 62
   179
100
AcDbLine
 10
144.0346996427
 20
186.9478370085
 30
0.0
 11
145.6327596427
 21
179.5059680085
 31
0.0
  0
LINE
  5
10E
330
1F
100
AcDbEntity
  8
SLD-0
  6
Continuous
 62
   179
100
AcDbLine
 10
145.6146996056
 20
179.4218653119
 30
0.0
 11
145.7248576056
 21
179.9348513119
 31
0.0
  0
LINE
  5
10F
330
1F
100
AcDbEntity
  8
SLD-0
  6
Continuous
 62
   179
100
AcDbLine
 10
145.5406616427
 20
179.9348510085
 30
0.0
 11
148.0869836427
 21
179.9348510085
 31
0.0
  0
LINE
  5
110
330
1F
100
AcDbEntity
  8
SLD-0
  6
Continuous
 62
   179
100
AcDbLine
 10
145.0519426427
 20
179.3529410085
 30
0.0
 11
143.4390816427
 21
186.8637340085
 31
0.0
  0
LINE
  5
111
330
1F
100
AcDbEntity
  8
SLD-0
  6
Continuous
 62
   179
100
AcDbLine
 10
143.4390816427
 20
186.8637340085
 30
0.0
 11
143.3469836427
 21
186.4348510085
 31
0.0
  0
LINE
  5
112
330
1F
100
AcDbEntity
  8
SLD-0
  6
Continuous
 62
   179
100
AcDbLine
 10
143.5311796427
 20
186.4348510085
 30
0.0
 11
140.9848576427
 21
186.4348510085
 31
0.0
  0
LINE
  5
113
330
1F
100
AcDbEntity
  8
SLD-0
  6
Continuous
 62
   179
100
AcDbLine
 10
140.8746996427
 20
186.9478370085
 30
0.0
 11
142.1122376427
 21
181.1848510085
 31
0.0
  0
LINE
  5
114
330
1F
100
AcDbEntity
  8
SLD-0
  6
Continuous
 62
   179
100
AcDbLine
 10
142.4059206427
 20
181.1848510085
 30
0.0
 11
138.7059206427
 21
181.1848510085
 31
0.0
  0
LINE
  5
115
330
1F
100
AcDbEntity
  8
SLD-0
  6
Continuous
 62
   179
100
AcDbLine
 10
139.3059206427
 20
181.1848510085
 30
0.0
 11
139.3059206427
 21
186.8848510085
 31
0.0
  0
LINE
  5
116
330
1F
100
AcDbEntity
  8
SLD-0
  6
Continuous
 62
   179
100
AcDbLine
 10
139.3059206427
 20
186.4348510085
 30
0.0
 11
140.3711796427
 21
186.4348510085
 31
0.0
  0
LINE
  5
117
330
1F
100
AcDbEntity
  8
SLD-0
  6
Continuous
 62
   179
100
AcDbLine
 10
140.1869836427
 20
186.4348510085
 30
0.0
 11
140.2790816427
 21
186.8637340085
 31
0.0
  0
LINE
  5
118
330
1F
100
AcDbEntity
  8
SLD-0
  6
Continuous
 62
   179
100
AcDbLine
 10
140.2790816427
 20
186.8637340085
 30
0.0
 11
141.4985596427
 21
181.1848510085
 31
0.0
  0
LINE
  5
119
330
1F
100
AcDbEntity
  8
SLD-0
  6
Continuous
 62
   179
100
AcDbLine
 10
142.4059206427
 20
181.1848510085
 30
0.0
 11
142.4059206427
 21
174.1848510085
 31
0.0
  0
LINE
  5
11A
330
1F
100
AcDbEntity
  8
SLD-0
  6
Continuous
 62
   179
100
AcDbLine
 10
142.4059206427
 20
174.1848510085
 30
0.0
 11
138.7059206427
 21
174.1848510085
 31
0.0
  0
LINE
  5
11B
330
1F
100
AcDbEntity
  8
SLD-0
  6
Continuous
 62
   179
100
AcDbLine
 10
142.4059206427
 20
174.1848510085
 30
0.0
 11
142.7059206427
 21
174.7044660085
 31
0.0
  0
LINE
  5
11C
330
1F
100
AcDbEntity
  8
SLD-0
  6
Continuous
 62
   179
100
AcDbLine
 10
142.7059206427
 20
174.7044660085
 30
0.0
 11
142.7059206427
 21
180.6652360085
 31
0.0
  0
LINE
  5
11D
330
1F
100
AcDbEntity
  8
SLD-0
  6
Continuous
 62
   179
100
AcDbLine
 10
142.7059206427
 20
180.6652360085
 30
0.0
 11
142.4059206427
 21
181.1848510085
 31
0.0
  0
LINE
  5
11E
330
1F
100
AcDbEntity
  8
SLD-0
  6
Continuous
 62
   179
100
AcDbLine
 10
142.7059206427
 20
179.9348510085
 30
0.0
 11
144.9269836427
 21
179.9348510085
 31
0.0
  0
LINE
  5
11F
330
1F
100
AcDbEntity
  8
SLD-0
  6
Continuous
 62
   179
100
AcDbLine
 10
132.7059206427
 20
187.6848510085
 30
0.0
 11
87.7059206427
 21
187.6848510085
 31
0.0
  0
LINE
  5
120
330
1F
100
AcDbEntity
  8
SLD-0
  6
Continuous
 62
   179
100
AcDbLine
 10
87.7059206427
 20
212.6848510085
 30
0.0
 11
132.7059206427
 21
212.6848510085
 31
0.0
  0
LINE
  5
121
330
1F
100
AcDbEntity
  8
SLD-0
  6
Continuous
 62
   179
100
AcDbLine
 10
138.7059206427
 20
214.1848510085
 30
0.0
 11
142.4059206427
 21
214.1848510085
 31
0.0
  0
LINE
  5
122
330
1F
100
AcDbEntity
  8
SLD-0
  6
Continuous
 62
   179
100
AcDbLine
 10
142.4059206427
 20
214.1848510085
 30
0.0
 11
142.4059206427
 21
221.1848510085
 31
0.0
  0
LINE
  5
123
330
1F
100
AcDbEntity
  8
SLD-0
  6
Continuous
 62
   179
100
AcDbLine
 10
142.4059206427
 20
221.1848510085
 30
0.0
 11
138.7059206427
 21
221.1848510085
 31
0.0
  0
LINE
  5
124
330
1F
100
AcDbEntity
  8
SLD-0
  6
Continuous
 62
   179
100
AcDbLine
 10
139.3059206427
 20
221.1848510085
 30
0.0
 11
139.3059206427
 21
226.8848510085
 31
0.0
  0
LINE
  5
125
330
1F
100
AcDbEntity
  8
SLD-0
  6
Continuous
 62
   179
100
AcDbLine
 10
139.3059206427
 20
226.4348510085
 30
0.0
 11
140.3711796427
 21
226.4348510085
 31
0.0
  0
LINE
  5
126
330
1F
100
AcDbEntity
  8
SLD-0
  6
Continuous
 62
   179
100
AcDbLine
 10
140.1869836427
 20
226.4348510085
 30
0.0
 11
140.2790816427
 21
226.8637340085
 31
0.0
  0
LINE
  5
127
330
1F
100
AcDbEntity
  8
SLD-0
  6
Continuous
 62
   179
100
AcDbLine
 10
140.2790816427
 20
226.8637340085
 30
0.0
 11
141.4985596427
 21
221.1848510085
 31
0.0
  0
LINE
  5
128
330
1F
100
AcDbEntity
  8
SLD-0
  6
Continuous
 62
   179
100
AcDbLine
 10
142.1122376427
 20
221.1848510085
 30
0.0
 11
140.8746996427
 21
226.9478370085
 31
0.0
  0
LINE
  5
129
330
1F
100
AcDbEntity
  8
SLD-0
  6
Continuous
 62
   179
100
AcDbLine
 10
140.9848576427
 20
226.4348510085
 30
0.0
 11
143.5311796427
 21
226.4348510085
 31
0.0
  0
LINE
  5
12A
330
1F
100
AcDbEntity
  8
SLD-0
  6
Continuous
 62
   179
100
AcDbLine
 10
143.3469836427
 20
226.4348510085
 30
0.0
 11
143.4390816427
 21
226.8637340085
 31
0.0
  0
LINE
  5
12B
330
1F
100
AcDbEntity
  8
SLD-0
  6
Continuous
 62
   179
100
AcDbLine
 10
143.4390816427
 20
226.8637340085
 30
0.0
 11
145.0519426427
 21
219.3529410085
 31
0.0
  0
LINE
  5
12C
330
1F
100
AcDbEntity
  8
SLD-0
  6
Continuous
 62
   179
100
AcDbLine
 10
145.6146996056
 20
219.4218653119
 30
0.0
 11
145.7248576056
 21
219.9348513119
 31
0.0
  0
LINE
  5
12D
330
1F
100
AcDbEntity
  8
SLD-0
  6
Continuous
 62
   179
100
AcDbLine
 10
145.5406616427
 20
219.9348510085
 30
0.0
 11
148.0869836427
 21
219.9348510085
 31
0.0
  0
LINE
  5
12E
330
1F
100
AcDbEntity
  8
SLD-0
  6
Continuous
 62
   179
100
AcDbLine
 10
148.7746996056
 20
219.4218653119
 30
0.0
 11
148.8848576056
 21
219.9348513119
 31
0.0
  0
LINE
  5
12F
330
1F
100
AcDbEntity
  8
SLD-0
  6
Continuous
 62
   179
100
AcDbLine
 10
148.7006616427
 20
219.9348510085
 30
0.0
 11
151.2469836427
 21
219.9348510085
 31
0.0
  0
LINE
  5
130
330
1F
100
AcDbEntity
  8
SLD-0
  6
Continuous
 62
   179
100
AcDbLine
 10
151.9437686427
 20
219.5478370085
 30
0.0
 11
150.3546996427
 21
226.9478370085
 31
0.0
  0
LINE
  5
131
330
1F
100
AcDbEntity
  8
SLD-0
  6
Continuous
 62
   179
100
AcDbLine
 10
149.7680726427
 20
226.8218650085
 30
0.0
 11
151.3571416427
 21
219.4218650085
 31
0.0
  0
LINE
  5
132
330
1F
100
AcDbEntity
  8
SLD-0
  6
Continuous
 62
   179
100
AcDbLine
 10
151.9503056427
 20
219.4753720085
 30
0.0
 11
152.0910346427
 21
219.9348510085
 31
0.0
  0
LINE
  5
133
330
1F
100
AcDbEntity
  8
SLD-0
  6
Continuous
 62
   179
100
AcDbLine
 10
151.8606616427
 20
219.9348510085
 30
0.0
 11
153.6059206427
 21
219.9348510085
 31
0.0
  0
LINE
  5
134
330
1F
100
AcDbEntity
  8
SLD-0
  6
Continuous
 62
   179
100
AcDbLine
 10
153.6059206427
 20
219.4848510085
 30
0.0
 11
153.6059206427
 21
226.9297630085
 31
0.0
  0
LINE
  5
135
330
1F
100
AcDbEntity
  8
SLD-0
  6
Continuous
 62
   179
100
AcDbLine
 10
153.6190726427
 20
226.9727060085
 30
0.0
 11
153.4543386427
 21
226.4348510085
 31
0.0
  0
LINE
  5
136
330
1F
100
AcDbEntity
  8
SLD-0
  6
Continuous
 62
   179
100
AcDbLine
 10
153.6059206427
 20
226.4348510085
 30
0.0
 11
150.4648576427
 21
226.4348510085
 31
0.0
  0
LINE
  5
137
330
1F
100
AcDbEntity
  8
SLD-0
  6
Continuous
 62
   179
100
AcDbLine
 10
149.8511796427
 20
226.4348510085
 30
0.0
 11
147.3048576427
 21
226.4348510085
 31
0.0
  0
LINE
  5
138
330
1F
100
AcDbEntity
  8
SLD-0
  6
Continuous
 62
   179
100
AcDbLine
 10
147.1946996427
 20
226.9478370085
 30
0.0
 11
148.7927596427
 21
219.5059680085
 31
0.0
  0
LINE
  5
139
330
1F
100
AcDbEntity
  8
SLD-0
  6
Continuous
 62
   179
100
AcDbLine
 10
148.2119426427
 20
219.3529410085
 30
0.0
 11
146.5990816427
 21
226.8637340085
 31
0.0
  0
LINE
  5
13A
330
1F
100
AcDbEntity
  8
SLD-0
  6
Continuous
 62
   179
100
AcDbLine
 10
146.5990816427
 20
226.8637340085
 30
0.0
 11
146.5069836427
 21
226.4348510085
 31
0.0
  0
LINE
  5
13B
330
1F
100
AcDbEntity
  8
SLD-0
  6
Continuous
 62
   179
100
AcDbLine
 10
146.6911796427
 20
226.4348510085
 30
0.0
 11
144.1448576427
 21
226.4348510085
 31
0.0
  0
LINE
  5
13C
330
1F
100
AcDbEntity
  8
SLD-0
  6
Continuous
 62
   179
100
AcDbLine
 10
144.0346996427
 20
226.9478370085
 30
0.0
 11
145.6327596427
 21
219.5059680085
 31
0.0
  0
LINE
  5
13D
330
1F
100
AcDbEntity
  8
SLD-0
  6
Continuous
 62
   179
100
AcDbLine
 10
144.9269836427
 20
219.9348510085
 30
0.0
 11
142.7059206427
 21
219.9348510085
 31
0.0
  0
LINE
  5
13E
330
1F
100
AcDbEntity
  8
SLD-0
  6
Continuous
 62
   179
100
AcDbLine
 10
142.7059206427
 20
220.6652360085
 30
0.0
 11
142.7059206427
 21
214.7044660085
 31
0.0
  0
LINE
  5
13F
330
1F
100
AcDbEntity
  8
SLD-0
  6
Continuous
 62
   179
100
AcDbLine
 10
142.7059206427
 20
214.7044660085
 30
0.0
 11
142.4059206427
 21
214.1848510085
 31
0.0
  0
LINE
  5
140
330
1F
100
AcDbEntity
  8
SLD-0
  6
Continuous
 62
   179
100
AcDbLine
 10
142.7059206427
 20
220.6652360085
 30
0.0
 11
142.4059206427
 21
221.1848510085
 31
0.0
  0
LINE
  5
141
330
1F
100
AcDbEntity
  8
SLD-0
  6
Continuous
 62
   179
100
AcDbLine
 10
149.6669836427
 20
226.4348510085
 30
0.0
 11
149.7590816427
 21
226.8637340085
 31
0.0
  0
LINE
  5
142
330
1F
100
AcDbEntity
  8
SLD-0
  6
Continuous
 62
   179
100
AcDbLine
 10
157.4059206427
 20
228.6848510085
 30
0.0
 11
166.6059206427
 21
228.6848510085
 31
0.0
  0
LINE
  5
143
330
1F
100
AcDbEntity
  8
SLD-0
  6
Continuous
 62
   179
100
AcDbLine
 10
166.6059206427
 20
228.6848510085
 30
0.0
 11
166.6059206427
 21
217.6848510085
 31
0.0
  0
LINE
  5
144
330
1F
100
AcDbEntity
  8
SLD-0
  6
Continuous
 62
   179
100
AcDbLine
 10
166.6059206427
 20
217.6848510085
 30
0.0
 11
167.4059206427
 21
218.4848510085
 31
0.0
  0
LINE
  5
145
330
1F
100
AcDbEntity
  8
SLD-0
  6
Continuous
 62
   179
100
AcDbLine
 10
167.4059206427
 20
218.4848510085
 30
0.0
 11
167.4059206427
 21
227.8848510085
 31
0.0
  0
LINE
  5
146
330
1F
100
AcDbEntity
  8
SLD-0
  6
Continuous
 62
   179
100
AcDbLine
 10
167.4059206427
 20
227.8848510085
 30
0.0
 11
166.6059206427
 21
228.6848510085
 31
0.0
  0
LINE
  5
147
330
1F
100
AcDbEntity
  8
SLD-0
  6
Continuous
 62
   179
100
AcDbLine
 10
167.4059206427
 20
226.4348510085
 30
0.0
 11
170.9159206427
 21
226.4348510085
 31
0.0
  0
LINE
  5
148
330
1F
100
AcDbEntity
  8
SLD-0
  6
Continuous
 62
   179
100
AcDbLine
 10
170.9159206427
 20
226.4348510085
 30
0.0
 11
170.9159206427
 21
219.9348510085
 31
0.0
  0
LINE
  5
149
330
1F
100
AcDbEntity
  8
SLD-0
  6
Continuous
 62
   179
100
AcDbLine
 10
170.9159206427
 20
219.9348510085
 30
0.0
 11
167.4059206427
 21
219.9348510085
 31
0.0
  0
LINE
  5
14A
330
1F
100
AcDbEntity
  8
SLD-0
  6
Continuous
 62
   179
100
AcDbLine
 10
166.6059206427
 20
217.6848510085
 30
0.0
 11
157.4059206427
 21
217.6848510085
 31
0.0
  0
LINE
  5
14B
330
1F
100
AcDbEntity
  8
SLD-0
  6
Continuous
 62
   179
100
AcDbLine
 10
154.2059206427
 20
206.1848510085
 30
0.0
 11
144.2719456427
 21
206.1848510085
 31
0.0
  0
LINE
  5
14C
330
1F
100
AcDbEntity
  8
SLD-0
  6
Continuous
 62
   179
100
AcDbLine
 10
144.2719456427
 20
206.1848510085
 30
0.0
 11
143.4059206427
 21
205.6848510085
 31
0.0
  0
LINE
  5
14D
330
1F
100
AcDbEntity
  8
SLD-0
  6
Continuous
 62
   179
100
AcDbLine
 10
143.4059206427
 20
205.6848510085
 30
0.0
 11
143.4059206427
 21
200.6848510085
 31
0.0
  0
LINE
  5
14E
330
1F
100
AcDbEntity
  8
SLD-0
  6
Continuous
 62
   179
100
AcDbLine
 10
143.4059206427
 20
200.6848510085
 30
0.0
 11
141.4059206427
 21
200.6848510085
 31
0.0
  0
LINE
  5
14F
330
1F
100
AcDbEntity
  8
SLD-0
  6
Continuous
 62
   179
100
AcDbLine
 10
141.4059206427
 20
207.1848510085
 30
0.0
 11
141.4059206427
 21
199.1848510085
 31
0.0
  0
LINE
  5
150
330
1F
100
AcDbEntity
  8
SLD-0
  6
Continuous
 62
   179
100
AcDbLine
 10
141.4059206427
 20
199.1848510085
 30
0.0
 11
141.0486546427
 21
198.5660490085
 31
0.0
  0
LINE
  5
151
330
1F
100
AcDbEntity
  8
SLD-0
  6
Continuous
 62
   179
100
AcDbLine
 10
141.0486546427
 20
198.5660490085
 30
0.0
 11
139.0631856427
 21
198.5660490085
 31
0.0
  0
LINE
  5
152
330
1F
100
AcDbEntity
  8
SLD-0
  6
Continuous
 62
   179
100
AcDbLine
 10
139.0631856427
 20
198.5660490085
 30
0.0
 11
138.7059206427
 21
199.1848510085
 31
0.0
  0
LINE
  5
153
330
1F
100
AcDbEntity
  8
SLD-0
  6
Continuous
 62
   179
100
AcDbLine
 10
139.0631859917
 20
200.8754500823
 30
0.0
 11
141.0486549917
 21
200.8754500823
 31
0.0
  0
LINE
  5
154
330
1F
100
AcDbEntity
  8
SLD-0
  6
Continuous
 62
   179
100
AcDbLine
 10
142.4059206427
 20
200.6848510085
 30
0.0
 11
142.4059206427
 21
205.6848510085
 31
0.0
  0
LINE
  5
155
330
1F
100
AcDbEntity
  8
SLD-0
  6
Continuous
 62
   179
100
AcDbLine
 10
143.4059206427
 20
205.6848510085
 30
0.0
 11
141.4059206427
 21
205.6848510085
 31
0.0
  0
LINE
  5
156
330
1F
100
AcDbEntity
  8
SLD-0
  6
Continuous
 62
   179
100
AcDbLine
 10
141.0486549917
 20
205.4942520823
 30
0.0
 11
139.0631859917
 21
205.4942520823
 31
0.0
  0
LINE
  5
157
330
1F
100
AcDbEntity
  8
SLD-0
  6
Continuous
 62
   179
100
AcDbLine
 10
143.4059206427
 20
200.6848510085
 30
0.0
 11
144.2719456427
 21
200.1848510085
 31
0.0
  0
LINE
  5
158
330
1F
100
AcDbEntity
  8
SLD-0
  6
Continuous
 62
   179
100
AcDbLine
 10
144.2719456427
 20
200.1848510085
 30
0.0
 11
144.2719456427
 21
206.1848510085
 31
0.0
  0
LINE
  5
159
330
1F
100
AcDbEntity
  8
SLD-0
  6
Continuous
 62
   179
100
AcDbLine
 10
141.4059206427
 20
207.1848510085
 30
0.0
 11
141.0486546427
 21
207.8036530085
 31
0.0
  0
LINE
  5
15A
330
1F
100
AcDbEntity
  8
SLD-0
  6
Continuous
 62
   179
100
AcDbLine
 10
141.0486546427
 20
207.8036530085
 30
0.0
 11
139.0631856427
 21
207.8036530085
 31
0.0
  0
LINE
  5
15B
330
1F
100
AcDbEntity
  8
SLD-0
  6
Continuous
 62
   179
100
AcDbLine
 10
139.0631856427
 20
207.8036530085
 30
0.0
 11
138.7059206427
 21
207.1848510085
 31
0.0
  0
LINE
  5
15C
330
1F
100
AcDbEntity
  8
SLD-0
  6
Continuous
 62
   179
100
AcDbLine
 10
144.2719456427
 20
200.1848510085
 30
0.0
 11
154.2059206427
 21
200.1848510085
 31
0.0
  0
LINE
  5
15D
330
1F
100
AcDbEntity
  8
SLD-0
  6
Continuous
 62
   179
100
AcDbLine
 10
154.2059206427
 20
192.6848510085
 30
0.0
 11
157.4059206427
 21
192.6848510085
 31
0.0
  0
LINE
  5
15E
330
1F
100
AcDbEntity
  8
SLD-0
  6
Continuous
 62
   179
100
AcDbLine
 10
157.4059206427
 20
193.1848510085
 30
0.0
 11
184.4059206427
 21
193.1848510085
 31
0.0
  0
LINE
  5
15F
330
1F
100
AcDbEntity
  8
SLD-0
  6
Continuous
 62
   179
100
AcDbLine
 10
177.7059206427
 20
188.1848510085
 30
0.0
 11
173.7059206427
 21
188.1848510085
 31
0.0
  0
LINE
  5
160
330
1F
100
AcDbEntity
  8
SLD-0
  6
Continuous
 62
   179
100
AcDbLine
 10
173.7059206427
 20
188.1848510085
 30
0.0
 11
173.7059206427
 21
178.1848510085
 31
0.0
  0
LINE
  5
161
330
1F
100
AcDbEntity
  8
SLD-0
  6
Continuous
 62
   179
100
AcDbLine
 10
173.7059206427
 20
178.1848510085
 30
0.0
 11
177.7059206427
 21
178.1848510085
 31
0.0
  0
LINE
  5
162
330
1F
100
AcDbEntity
  8
SLD-0
  6
Continuous
 62
   179
100
AcDbLine
 10
178.2059206427
 20
178.6848510085
 30
0.0
 11
178.2059206427
 21
187.6848510085
 31
0.0
  0
LINE
  5
163
330
1F
100
AcDbEntity
  8
SLD-0
  6
Continuous
 62
   179
100
AcDbLine
 10
173.4559206427
 20
186.1448510085
 30
0.0
 11
171.2059206427
 21
186.1448510085
 31
0.0
  0
LINE
  5
164
330
1F
100
AcDbEntity
  8
SLD-0
  6
Continuous
 62
   179
100
AcDbLine
 10
171.2059206427
 20
186.1448510085
 30
0.0
 11
170.9159206427
 21
186.4348510085
 31
0.0
  0
LINE
  5
165
330
1F
100
AcDbEntity
  8
SLD-0
  6
Continuous
 62
   179
100
AcDbLine
 10
170.9159206427
 20
186.4348510085
 30
0.0
 11
167.4059206427
 21
186.4348510085
 31
0.0
  0
LINE
  5
166
330
1F
100
AcDbEntity
  8
SLD-0
  6
Continuous
 62
   179
100
AcDbLine
 10
167.4059206427
 20
187.8848510085
 30
0.0
 11
167.4059206427
 21
178.4848510085
 31
0.0
  0
LINE
  5
167
330
1F
100
AcDbEntity
  8
SLD-0
  6
Continuous
 62
   179
100
AcDbLine
 10
167.4059206427
 20
178.4848510085
 30
0.0
 11
166.6059206427
 21
177.6848510085
 31
0.0
  0
LINE
  5
168
330
1F
100
AcDbEntity
  8
SLD-0
  6
Continuous
 62
   179
100
AcDbLine
 10
167.4059206427
 20
179.9348510085
 30
0.0
 11
170.9159206427
 21
179.9348510085
 31
0.0
  0
LINE
  5
169
330
1F
100
AcDbEntity
  8
SLD-0
  6
Continuous
 62
   179
100
AcDbLine
 10
170.9159206427
 20
179.9348510085
 30
0.0
 11
170.9159206427
 21
186.4348510085
 31
0.0
  0
LINE
  5
16A
330
1F
100
AcDbEntity
  8
SLD-0
  6
Continuous
 62
   179
100
AcDbLine
 10
171.2059206427
 20
186.1448510085
 30
0.0
 11
171.2059206427
 21
180.2248510085
 31
0.0
  0
LINE
  5
16B
330
1F
100
AcDbEntity
  8
SLD-0
  6
Continuous
 62
   179
100
AcDbLine
 10
171.2059206427
 20
180.2248510085
 30
0.0
 11
173.4559206427
 21
180.2248510085
 31
0.0
  0
LINE
  5
16C
330
1F
100
AcDbEntity
  8
SLD-0
  6
Continuous
 62
   179
100
AcDbLine
 10
171.2059206427
 20
180.2248510085
 30
0.0
 11
170.9159206427
 21
179.9348510085
 31
0.0
  0
LINE
  5
16D
330
1F
100
AcDbEntity
  8
SLD-0
  6
Continuous
 62
   179
100
AcDbLine
 10
167.4059206427
 20
187.8848510085
 30
0.0
 11
166.6059206427
 21
188.6848510085
 31
0.0
  0
LINE
  5
16E
330
1F
100
AcDbEntity
  8
SLD-0
  6
Continuous
 62
   179
100
AcDbLine
 10
178.1559206427
 20
202.4631630085
 30
0.0
 11
179.4059206427
 21
201.7414750085
 31
0.0
  0
LINE
  5
16F
330
1F
100
AcDbEntity
  8
SLD-0
  6
Continuous
 62
   179
100
AcDbLine
 10
179.4059206427
 20
201.7414750085
 30
0.0
 11
180.6559206427
 21
202.4631630085
 31
0.0
  0
LINE
  5
170
330
1F
100
AcDbEntity
  8
SLD-0
  6
Continuous
 62
   179
100
AcDbLine
 10
180.6559206427
 20
202.4631630085
 30
0.0
 11
180.6559206427
 21
203.9065390085
 31
0.0
  0
LINE
  5
171
330
1F
100
AcDbEntity
  8
SLD-0
  6
Continuous
 62
   179
100
AcDbLine
 10
180.6559206427
 20
203.9065390085
 30
0.0
 11
179.4059206427
 21
204.6282270085
 31
0.0
  0
LINE
  5
172
330
1F
100
AcDbEntity
  8
SLD-0
  6
Continuous
 62
   179
100
AcDbLine
 10
179.4059206427
 20
204.6282270085
 30
0.0
 11
178.1559206427
 21
203.9065390085
 31
0.0
  0
LINE
  5
173
330
1F
100
AcDbEntity
  8
SLD-0
  6
Continuous
 62
   179
100
AcDbLine
 10
178.1559206427
 20
203.9065390085
 30
0.0
 11
178.1559206427
 21
202.4631630085
 31
0.0
  0
LINE
  5
174
330
1F
100
AcDbEntity
  8
SLD-0
  6
Continuous
 62
   179
100
AcDbLine
 10
177.7059206427
 20
218.1848510085
 30
0.0
 11
173.7059206427
 21
218.1848510085
 31
0.0
  0
LINE
  5
175
330
1F
100
AcDbEntity
  8
SLD-0
  6
Continuous
 62
   179
100
AcDbLine
 10
173.7059206427
 20
218.1848510085
 30
0.0
 11
173.7059206427
 21
228.1848510085
 31
0.0
  0
LINE
  5
176
330
1F
100
AcDbEntity
  8
SLD-0
  6
Continuous
 62
   179
100
AcDbLine
 10
173.7059206427
 20
228.1848510085
 30
0.0
 11
177.7059206427
 21
228.1848510085
 31
0.0
  0
LINE
  5
177
330
1F
100
AcDbEntity
  8
SLD-0
  6
Continuous
 62
   179
100
AcDbLine
 10
178.2059206427
 20
227.6848510085
 30
0.0
 11
178.2059206427
 21
218.6848510085
 31
0.0
  0
LINE
  5
178
330
1F
100
AcDbEntity
  8
SLD-0
  6
Continuous
 62
   179
100
AcDbLine
 10
173.4559206427
 20
220.2248510085
 30
0.0
 11
171.2059206427
 21
220.2248510085
 31
0.0
  0
LINE
  5
179
330
1F
100
AcDbEntity
  8
SLD-0
  6
Continuous
 62
   179
100
AcDbLine
 10
171.2059206427
 20
220.2248510085
 30
0.0
 11
170.9159206427
 21
219.9348510085
 31
0.0
  0
LINE
  5
17A
330
1F
100
AcDbEntity
  8
SLD-0
  6
Continuous
 62
   179
100
AcDbLine
 10
171.2059206427
 20
220.2248510085
 30
0.0
 11
171.2059206427
 21
226.1448510085
 31
0.0
  0
LINE
  5
17B
330
1F
100
AcDbEntity
  8
SLD-0
  6
Continuous
 62
   179
100
AcDbLine
 10
171.2059206427
 20
226.1448510085
 30
0.0
 11
173.4559206427
 21
226.1448510085
 31
0.0
  0
LINE
  5
17C
330
1F
100
AcDbEntity
  8
SLD-0
  6
Continuous
 62
   179
100
AcDbLine
 10
171.2059206427
 20
226.1448510085
 30
0.0
 11
170.9159206427
 21
226.4348510085
 31
0.0
  0
LINE
  5
17D
330
1F
100
AcDbEntity
  8
SLD-0
  6
Continuous
 62
   179
100
AcDbLine
 10
157.4059206427
 20
244.1848510085
 30
0.0
 11
157.4059206427
 21
132.9848510085
 31
0.0
  0
LINE
  5
17E
330
1F
100
AcDbEntity
  8
SLD-0
  6
Continuous
 62
   179
100
AcDbLine
 10
155.4059206427
 20
130.9848510085
 30
0.0
 11
98.9059206427
 21
130.9848510085
 31
0.0
  0
LINE
  5
17F
330
1F
100
AcDbEntity
  8
SLD-0
  6
Continuous
 62
   179
100
AcDbLine
 10
98.9059206427
 20
130.9848510085
 30
0.0
 11
98.9059206427
 21
134.1848510085
 31
0.0
  0
LINE
  5
180
330
1F
100
AcDbEntity
  8
SLD-0
  6
Continuous
 62
   179
100
AcDbLine
 10
98.9059206427
 20
134.1848510085
 30
0.0
 11
154.2059206427
 21
134.1848510085
 31
0.0
  0
LINE
  5
181
330
1F
100
AcDbEntity
  8
SLD-0
  6
Continuous
 62
   179
100
AcDbLine
 10
154.2059206427
 20
134.1848510085
 30
0.0
 11
154.2059206427
 21
244.1848510085
 31
0.0
  0
LINE
  5
182
330
1F
100
AcDbEntity
  8
SLD-0
  6
Continuous
 62
   179
100
AcDbLine
 10
154.2059206427
 20
244.1848510085
 30
0.0
 11
157.4059206427
 21
244.1848510085
 31
0.0
  0
LINE
  5
183
330
1F
100
AcDbEntity
  8
SLD-0
  6
Continuous
 62
   179
100
AcDbLine
 10
138.7059206427
 20
228.6848510085
 30
0.0
 11
132.7059206427
 21
228.6848510085
 31
0.0
  0
LINE
  5
184
330
1F
100
AcDbEntity
  8
SLD-0
  6
Continuous
 62
   179
100
AcDbLine
 10
138.7059206427
 20
228.6848510085
 30
0.0
 11
138.7059206427
 21
173.1848510085
 31
0.0
  0
LINE
  5
185
330
1F
100
AcDbEntity
  8
SLD-0
  6
Continuous
 62
   179
100
AcDbLine
 10
138.7059206427
 20
173.1848510085
 30
0.0
 11
132.7059206427
 21
173.1848510085
 31
0.0
  0
LINE
  5
186
330
1F
100
AcDbEntity
  8
SLD-0
  6
Continuous
 62
   179
100
AcDbLine
 10
132.7059206427
 20
172.6848510085
 30
0.0
 11
121.9012806427
 21
172.6848510085
 31
0.0
  0
LINE
  5
187
330
1F
100
AcDbEntity
  8
SLD-0
  6
Continuous
 62
   179
100
AcDbLine
 10
119.9012806427
 20
170.6848510085
 30
0.0
 11
119.9012806427
 21
159.6848510085
 31
0.0
  0
LINE
  5
188
330
1F
100
AcDbEntity
  8
SLD-0
  6
Continuous
 62
   179
100
AcDbLine
 10
119.9012806427
 20
159.6848510085
 30
0.0
 11
118.9012806427
 21
158.6848510085
 31
0.0
  0
LINE
  5
189
330
1F
100
AcDbEntity
  8
SLD-0
  6
Continuous
 62
   179
100
AcDbLine
 10
119.9012806427
 20
159.6848510085
 30
0.0
 11
100.5105606427
 21
159.6848510085
 31
0.0
  0
LINE
  5
18A
330
1F
100
AcDbEntity
  8
SLD-0
  6
Continuous
 62
   179
100
AcDbLine
 10
100.5105606427
 20
159.6848510085
 30
0.0
 11
100.5105606427
 21
170.6848510085
 31
0.0
  0
LINE
  5
18B
330
1F
100
AcDbEntity
  8
SLD-0
  6
Continuous
 62
   179
100
AcDbLine
 10
98.5105606427
 20
172.6848510085
 30
0.0
 11
87.7059206427
 21
172.6848510085
 31
0.0
  0
LINE
  5
18C
330
1F
100
AcDbEntity
  8
SLD-0
  6
Continuous
 62
   179
100
AcDbLine
 10
87.7059206427
 20
158.6848510085
 30
0.0
 11
132.7059211638
 21
158.6848510085
 31
0.0
  0
LINE
  5
18D
330
1F
100
AcDbEntity
  8
SLD-0
  6
Continuous
 62
   179
100
AcDbLine
 10
132.7059211638
 20
158.6848510085
 30
0.0
 11
132.7059211638
 21
243.6848510085
 31
0.0
  0
LINE
  5
18E
330
1F
100
AcDbEntity
  8
SLD-0
  6
Continuous
 62
   179
100
AcDbLine
 10
123.2059209033
 20
256.9419248218
 30
0.0
 11
123.2059209033
 21
267.6848508218
 31
0.0
  0
LINE
  5
18F
330
1F
100
AcDbEntity
  8
SLD-0
  6
Continuous
 62
   179
100
AcDbLine
 10
123.2059209033
 20
267.6848508218
 30
0.0
 11
116.2059209033
 21
267.6848508218
 31
0.0
  0
LINE
  5
190
330
1F
100
AcDbEntity
  8
SLD-0
  6
Continuous
 62
   179
100
AcDbLine
 10
116.2059209033
 20
267.6848508218
 30
0.0
 11
116.2059209033
 21
235.4848508218
 31
0.0
  0
LINE
  5
191
330
1F
100
AcDbEntity
  8
SLD-0
  6
Continuous
 62
   179
100
AcDbLine
 10
116.2059209033
 20
235.4848508218
 30
0.0
 11
104.2059209033
 21
235.4848508218
 31
0.0
  0
LINE
  5
192
330
1F
100
AcDbEntity
  8
SLD-0
  6
Continuous
 62
   179
100
AcDbLine
 10
104.2059209033
 20
235.4848508218
 30
0.0
 11
104.2059209033
 21
267.6848508218
 31
0.0
  0
LINE
  5
193
330
1F
100
AcDbEntity
  8
SLD-0
  6
Continuous
 62
   179
100
AcDbLine
 10
104.2059209033
 20
267.6848508218
 30
0.0
 11
97.2059209033
 21
267.6848508218
 31
0.0
  0
LINE
  5
194
330
1F
100
AcDbEntity
  8
SLD-0
  6
Continuous
 62
   179
100
AcDbLine
 10
97.2059209033
 20
267.6848508218
 30
0.0
 11
97.2059209033
 21
256.9419248218
 31
0.0
  0
LINE
  5
195
330
1F
100
AcDbEntity
  8
SLD-0
  6
Continuous
 62
   179
100
AcDbLine
 10
87.7059206427
 20
243.6848510085
 30
0.0
 11
87.7059206427
 21
158.6848510085
 31
0.0
  0
LINE
  5
196
330
1F
100
AcDbEntity
  8
SLD-0
  6
Continuous
 62
   179
100
AcDbLine
 10
87.7059206427
 20
158.3848510085
 30
0.0
 11
88.0059206427
 21
158.6848510085
 31
0.0
  0
LINE
  5
197
330
1F
100
AcDbEntity
  8
SLD-0
  6
Continuous
 62
   179
100
AcDbLine
 10
87.7059206427
 20
158.3848510085
 30
0.0
 11
87.7059206427
 21
153.6848510085
 31
0.0
  0
LINE
  5
198
330
1F
100
AcDbEntity
  8
SLD-0
  6
Continuous
 62
   179
100
AcDbLine
 10
87.7059206427
 20
153.6848510085
 30
0.0
 11
90.2059206427
 21
153.6848510085
 31
0.0
  0
LINE
  5
199
330
1F
100
AcDbEntity
  8
SLD-0
  6
Continuous
 62
   179
100
AcDbLine
 10
92.2059206427
 20
151.6848510085
 30
0.0
 11
92.2059206427
 21
140.1848510085
 31
0.0
  0
LINE
  5
19A
330
1F
100
AcDbEntity
  8
SLD-0
  6
Continuous
 62
   179
100
AcDbLine
 10
92.2059206427
 20
140.1848510085
 30
0.0
 11
128.2059206427
 21
140.1848510085
 31
0.0
  0
LINE
  5
19B
330
1F
100
AcDbEntity
  8
SLD-0
  6
Continuous
 62
   179
100
AcDbLine
 10
128.2059206427
 20
140.1848510085
 30
0.0
 11
128.2059206427
 21
151.6848510085
 31
0.0
  0
LINE
  5
19C
330
1F
100
AcDbEntity
  8
SLD-0
  6
Continuous
 62
   179
100
AcDbLine
 10
130.2059206427
 20
153.6848510085
 30
0.0
 11
132.7059206427
 21
153.6848510085
 31
0.0
  0
LINE
  5
19D
330
1F
100
AcDbEntity
  8
SLD-0
  6
Continuous
 62
   179
100
AcDbLine
 10
132.7059206427
 20
153.6848510085
 30
0.0
 11
132.7059206427
 21
158.3848510085
 31
0.0
  0
LINE
  5
19E
330
1F
100
AcDbEntity
  8
SLD-0
  6
Continuous
 62
   179
100
AcDbLine
 10
132.7059206427
 20
158.3848510085
 30
0.0
 11
132.4059206427
 21
158.6848510085
 31
0.0
  0
LINE
  5
19F
330
1F
100
AcDbEntity
  8
SLD-0
  6
Continuous
 62
   179
100
AcDbLine
 10
128.2059206427
 20
140.1848510085
 30
0.0
 11
126.7059206427
 21
138.6848510085
 31
0.0
  0
LINE
  5
1A0
330
1F
100
AcDbEntity
  8
SLD-0
  6
Continuous
 62
   179
100
AcDbLine
 10
126.7059206427
 20
138.6848510085
 30
0.0
 11
93.7059206427
 21
138.6848510085
 31
0.0
  0
LINE
  5
1A1
330
1F
100
AcDbEntity
  8
SLD-0
  6
Continuous
 62
   179
100
AcDbLine
 10
93.7059206427
 20
138.6848510085
 30
0.0
 11
92.2059206427
 21
140.1848510085
 31
0.0
  0
LINE
  5
1A2
330
1F
100
AcDbEntity
  8
SLD-0
  6
Continuous
 62
   179
100
AcDbLine
 10
101.5105606427
 20
158.6848510085
 30
0.0
 11
100.5105606427
 21
159.6848510085
 31
0.0
  0
LINE
  5
1A3
330
1F
100
AcDbEntity
  8
SLD-0
  6
Continuous
 62
   179
100
AcDbLine
 10
119.2059206427
 20
91.1848510085
 30
0.0
 11
115.6059206427
 21
91.1848510085
 31
0.0
  0
LINE
  5
1A4
330
1F
100
AcDbEntity
  8
SLD-0
  6
Continuous
 62
   179
100
AcDbLine
 10
115.6059206427
 20
84.7848510085
 30
0.0
 11
119.2059206427
 21
84.7848510085
 31
0.0
  0
LINE
  5
1A5
330
1F
100
AcDbEntity
  8
SLD-0
  6
Continuous
 62
   179
100
AcDbLine
 10
109.4059206427
 20
130.9848510085
 30
0.0
 11
109.4059206427
 21
134.1848510085
 31
0.0
  0
LINE
  5
1A6
330
1F
100
AcDbEntity
  8
SLD-0
  6
Continuous
 62
   179
100
AcDbLine
 10
125.4059206427
 20
134.1848510085
 30
0.0
 11
125.4059206427
 21
130.9848510085
 31
0.0
  0
LINE
  5
1A7
330
1F
100
AcDbEntity
  8
SLD-0
  6
Continuous
 62
   179
100
AcDbLine
 10
148.2868606427
 20
134.1848510085
 30
0.0
 11
154.2059206427
 21
140.1039110085
 31
0.0
  0
LINE
  5
1A8
330
1F
100
AcDbEntity
  8
SLD-0
  6
Continuous
 62
   179
100
AcDbLine
 10
132.7059211638
 20
243.6848510085
 30
0.0
 11
116.2059211638
 21
243.6848510085
 31
0.0
  0
LINE
  5
1A9
330
1F
100
AcDbEntity
  8
SLD-0
  6
Continuous
 62
   179
100
AcDbLine
 10
104.2059206427
 20
243.6848510085
 30
0.0
 11
87.7059206427
 21
243.6848510085
 31
0.0
  0
LINE
  5
1AA
330
1F
100
AcDbEntity
  8
SLD-0
  6
Continuous
 62
   179
100
AcDbLine
 10
96.7168656427
 20
253.2739060085
 30
0.0
 11
96.5059206427
 21
253.4848510085
 31
0.0
  0
LINE
  5
1AB
330
1F
100
AcDbEntity
  8
SLD-0
  6
Continuous
 62
   179
100
AcDbLine
 10
96.5059206427
 20
253.4848510085
 30
0.0
 11
96.5059206427
 21
263.8848510085
 31
0.0
  0
LINE
  5
1AC
330
1F
100
AcDbEntity
  8
SLD-0
  6
Continuous
 62
   179
100
AcDbLine
 10
96.5059206427
 20
263.8848510085
 30
0.0
 11
96.8059206427
 21
264.1848510085
 31
0.0
  0
LINE
  5
1AD
330
1F
100
AcDbEntity
  8
SLD-0
  6
Continuous
 62
   179
100
AcDbLine
 10
96.8059206427
 20
264.1848510085
 30
0.0
 11
97.2059206427
 21
264.1848510085
 31
0.0
  0
LINE
  5
1AE
330
1F
100
AcDbEntity
  8
SLD-0
  6
Continuous
 62
   179
100
AcDbLine
 10
96.8059206427
 20
264.1848510085
 30
0.0
 11
96.8059206427
 21
253.6192750085
 31
0.0
  0
LINE
  5
1AF
330
1F
100
AcDbEntity
  8
SLD-0
  6
Continuous
 62
   179
100
AcDbLine
 10
94.8059206427
 20
256.0848510085
 30
0.0
 11
94.8059206427
 21
260.0848510085
 31
0.0
  0
LINE
  5
1B0
330
1F
100
AcDbEntity
  8
SLD-0
  6
Continuous
 62
   179
100
AcDbLine
 10
95.8059206427
 20
260.0848510085
 30
0.0
 11
95.8059206427
 21
256.0848510085
 31
0.0
  0
LINE
  5
1B1
330
1F
100
AcDbEntity
  8
SLD-0
  6
Continuous
 62
   179
100
AcDbLine
 10
95.8059206427
 20
256.6848510085
 30
0.0
 11
96.5059206427
 21
256.6848510085
 31
0.0
  0
LINE
  5
1B2
330
1F
100
AcDbEntity
  8
SLD-0
  6
Continuous
 62
   179
100
AcDbLine
 10
94.8059206427
 20
256.6848510085
 30
0.0
 11
93.7059206427
 21
256.6848510085
 31
0.0
  0
LINE
  5
1B3
330
1F
100
AcDbEntity
  8
SLD-0
  6
Continuous
 62
   179
100
AcDbLine
 10
93.7059206427
 20
256.6848510085
 30
0.0
 11
93.2059206427
 21
257.1848510085
 31
0.0
  0
LINE
  5
1B4
330
1F
100
AcDbEntity
  8
SLD-0
  6
Continuous
 62
   179
100
AcDbLine
 10
93.2059206427
 20
257.1848510085
 30
0.0
 11
93.2059206427
 21
260.1848510085
 31
0.0
  0
LINE
  5
1B5
330
1F
100
AcDbEntity
  8
SLD-0
  6
Continuous
 62
   179
100
AcDbLine
 10
93.2059206427
 20
260.1848510085
 30
0.0
 11
93.7059206427
 21
260.6848510085
 31
0.0
  0
LINE
  5
1B6
330
1F
100
AcDbEntity
  8
SLD-0
  6
Continuous
 62
   179
100
AcDbLine
 10
93.7059206427
 20
260.6848510085
 30
0.0
 11
96.5059206427
 21
260.6848510085
 31
0.0
  0
LINE
  5
1B7
330
1F
100
AcDbEntity
  8
SLD-0
  6
Continuous
 62
   179
100
AcDbLine
 10
93.7059206427
 20
260.6848510085
 30
0.0
 11
93.7059206427
 21
256.6848510085
 31
0.0
  0
LINE
  5
1B8
330
1F
100
AcDbEntity
  8
SLD-0
  6
Continuous
 62
   179
100
AcDbLine
 10
104.2059206427
 20
256.6848510085
 30
0.0
 11
116.2059206427
 21
256.6848510085
 31
0.0
  0
LINE
  5
1B9
330
1F
100
AcDbEntity
  8
SLD-0
  6
Continuous
 62
   179
100
AcDbLine
 10
116.2059206427
 20
260.6848510085
 30
0.0
 11
104.2059206427
 21
260.6848510085
 31
0.0
  0
LINE
  5
1BA
330
1F
100
AcDbEntity
  8
SLD-0
  6
Continuous
 62
   179
100
AcDbLine
 10
123.2059206427
 20
264.1848510085
 30
0.0
 11
123.6059206427
 21
264.1848510085
 31
0.0
  0
LINE
  5
1BB
330
1F
100
AcDbEntity
  8
SLD-0
  6
Continuous
 62
   179
100
AcDbLine
 10
123.6059206427
 20
264.1848510085
 30
0.0
 11
123.9059206427
 21
263.8848510085
 31
0.0
  0
LINE
  5
1BC
330
1F
100
AcDbEntity
  8
SLD-0
  6
Continuous
 62
   179
100
AcDbLine
 10
123.9059206427
 20
263.8848510085
 30
0.0
 11
123.9059206427
 21
253.4848510085
 31
0.0
  0
LINE
  5
1BD
330
1F
100
AcDbEntity
  8
SLD-0
  6
Continuous
 62
   179
100
AcDbLine
 10
123.9059206427
 20
253.4848510085
 30
0.0
 11
123.6949756427
 21
253.2739060085
 31
0.0
  0
LINE
  5
1BE
330
1F
100
AcDbEntity
  8
SLD-0
  6
Continuous
 62
   179
100
AcDbLine
 10
123.6059206427
 20
253.6192750085
 30
0.0
 11
123.6059206427
 21
264.1848510085
 31
0.0
  0
LINE
  5
1BF
330
1F
100
AcDbEntity
  8
SLD-0
  6
Continuous
 62
   179
100
AcDbLine
 10
124.9059206427
 20
262.1848510085
 30
0.0
 11
125.5059206427
 21
262.1848510085
 31
0.0
  0
LINE
  5
1C0
330
1F
100
AcDbEntity
  8
SLD-0
  6
Continuous
 62
   179
100
AcDbLine
 10
125.5059206427
 20
262.1848510085
 30
0.0
 11
125.5059206427
 21
256.1003220085
 31
0.0
  0
LINE
  5
1C1
330
1F
100
AcDbEntity
  8
SLD-0
  6
Continuous
 62
   179
100
AcDbLine
 10
125.5059206427
 20
256.1003220085
 30
0.0
 11
124.9059206427
 21
256.1003220085
 31
0.0
  0
LINE
  5
1C2
330
1F
100
AcDbEntity
  8
SLD-0
  6
Continuous
 62
   179
100
AcDbLine
 10
124.9059206427
 20
256.1003220085
 30
0.0
 11
124.9059206427
 21
262.1848510085
 31
0.0
  0
LINE
  5
1C3
330
1F
100
AcDbEntity
  8
SLD-0
  6
Continuous
 62
   179
100
AcDbLine
 10
124.7059206427
 20
260.6848510085
 30
0.0
 11
123.9059206427
 21
260.6848510085
 31
0.0
  0
LINE
  5
1C4
330
1F
100
AcDbEntity
  8
SLD-0
  6
Continuous
 62
   179
100
AcDbLine
 10
124.7059206427
 20
260.6848510085
 30
0.0
 11
124.7059206427
 21
256.6848510085
 31
0.0
  0
LINE
  5
1C5
330
1F
100
AcDbEntity
  8
SLD-0
  6
Continuous
 62
   179
100
AcDbLine
 10
124.7059206427
 20
256.6848510085
 30
0.0
 11
123.9059206427
 21
256.6848510085
 31
0.0
  0
LINE
  5
1C6
330
1F
100
AcDbEntity
  8
SLD-0
  6
Continuous
 62
   179
100
AcDbLine
 10
124.7059206427
 20
257.1598510085
 30
0.0
 11
124.9059206427
 21
257.1598510085
 31
0.0
  0
LINE
  5
1C7
330
1F
100
AcDbEntity
  8
SLD-0
  6
Continuous
 62
   179
100
AcDbLine
 10
125.5059206427
 20
257.1598510085
 30
0.0
 11
125.7059206427
 21
257.1598510085
 31
0.0
  0
LINE
  5
1C8
330
1F
100
AcDbEntity
  8
SLD-0
  6
Continuous
 62
   179
100
AcDbLine
 10
125.7059206427
 20
256.6848510085
 30
0.0
 11
126.7059206427
 21
256.6848510085
 31
0.0
  0
LINE
  5
1C9
330
1F
100
AcDbEntity
  8
SLD-0
  6
Continuous
 62
   179
100
AcDbLine
 10
126.7059206427
 20
256.6848510085
 30
0.0
 11
127.2059206427
 21
257.1848510085
 31
0.0
  0
LINE
  5
1CA
330
1F
100
AcDbEntity
  8
SLD-0
  6
Continuous
 62
   179
100
AcDbLine
 10
127.2059206427
 20
257.1848510085
 30
0.0
 11
127.2059206427
 21
260.1848510085
 31
0.0
  0
LINE
  5
1CB
330
1F
100
AcDbEntity
  8
SLD-0
  6
Continuous
 62
   179
100
AcDbLine
 10
127.2059206427
 20
260.1848510085
 30
0.0
 11
126.7059206427
 21
260.6848510085
 31
0.0
  0
LINE
  5
1CC
330
1F
100
AcDbEntity
  8
SLD-0
  6
Continuous
 62
   179
100
AcDbLine
 10
126.7059206427
 20
260.6848510085
 30
0.0
 11
126.7059206427
 21
256.6848510085
 31
0.0
  0
LINE
  5
1CD
330
1F
100
AcDbEntity
  8
SLD-0
  6
Continuous
 62
   179
100
AcDbLine
 10
125.7059206427
 20
256.6848510085
 30
0.0
 11
125.7059206427
 21
260.6848510085
 31
0.0
  0
LINE
  5
1CE
330
1F
100
AcDbEntity
  8
SLD-0
  6
Continuous
 62
   179
100
AcDbLine
 10
125.7059206427
 20
260.6848510085
 30
0.0
 11
126.7059206427
 21
260.6848510085
 31
0.0
  0
LINE
  5
1CF
330
1F
100
AcDbEntity
  8
SLD-0
  6
Continuous
 62
   179
100
AcDbLine
 10
125.7059206427
 20
260.2098510085
 30
0.0
 11
125.5059206427
 21
260.2098510085
 31
0.0
  0
LINE
  5
1D0
330
1F
100
AcDbEntity
  8
SLD-0
  6
Continuous
 62
   179
100
AcDbLine
 10
124.9059206427
 20
260.2098510085
 30
0.0
 11
124.7059206427
 21
260.2098510085
 31
0.0
  0
LINE
  5
1D1
330
1F
100
AcDbEntity
  8
SLD-0
  6
CENTER
 62
   179
100
AcDbLine
 10
102.7004656427
 20
30.9848510085
 30
0.0
 11
130.6859206427
 21
30.9848510085
 31
0.0
  0
LINE
  5
1D2
330
1F
100
AcDbEntity
  8
SLD-0
  6
CENTER
 62
   179
100
AcDbLine
 10
119.9059206427
 20
35.4254570085
 30
0.0
 11
119.9059206427
 21
25.8577800085
 31
0.0
  0
LINE
  5
1D3
330
1F
100
AcDbEntity
  8
SLD-0
  6
CENTER
 62
   179
100
AcDbLine
 10
114.9059206427
 20
25.8577800085
 30
0.0
 11
114.9059206427
 21
35.6168110085
 31
0.0
  0
LINE
  5
1D4
330
1F
100
AcDbEntity
  8
SLD-0
  6
CENTER
 62
   179
100
AcDbLine
 10
117.4059206427
 20
19.3556870085
 30
0.0
 11
117.4059206427
 21
101.1480190085
 31
0.0
  0
LINE
  5
1D5
330
1F
100
AcDbEntity
  8
SLD-0
  6
CENTER
 62
   179
100
AcDbLine
 10
119.9059206427
 20
93.1119220085
 30
0.0
 11
119.9059206427
 21
83.5442450085
 31
0.0
  0
LINE
  5
1D6
330
1F
100
AcDbEntity
  8
SLD-0
  6
CENTER
 62
   179
100
AcDbLine
 10
114.9059206427
 20
83.3528920085
 30
0.0
 11
114.9059206427
 21
93.1119220085
 31
0.0
  0
LINE
  5
1D7
330
1F
100
AcDbEntity
  8
SLD-0
  6
CENTER
 62
   179
100
AcDbLine
 10
102.7004656427
 20
87.9848510085
 30
0.0
 11
130.6859206427
 21
87.9848510085
 31
0.0
  0
LINE
  5
1D8
330
1F
100
AcDbEntity
  8
SLD-0
  6
CENTER
 62
   179
100
AcDbLine
 10
151.1564886427
 20
87.9848510085
 30
0.0
 11
159.2204886427
 21
87.9848510085
 31
0.0
  0
LINE
  5
1D9
330
1F
100
AcDbEntity
  8
SLD-0
  6
HIDDEN
 62
   179
100
AcDbLine
 10
154.2059206427
 20
81.9848510085
 30
0.0
 11
154.2059206427
 21
36.9848510085
 31
0.0
  0
LINE
  5
1DA
330
1F
100
AcDbEntity
  8
SLD-0
  6
Continuous
 62
   179
100
AcDbLine
 10
157.4059206427
 20
40.8348510085
 30
0.0
 11
167.5559206427
 21
40.8348510085
 31
0.0
  0
LINE
  5
1DB
330
1F
100
AcDbEntity
  8
SLD-0
  6
CENTER
 62
   179
100
AcDbLine
 10
170.2605526427
 20
42.4848510085
 30
0.0
 11
146.9950786427
 21
42.4848510085
 31
0.0
  0
LINE
  5
1DC
330
1F
100
AcDbEntity
  8
SLD-0
  6
CENTER
 62
   179
100
AcDbLine
 10
148.2285966427
 20
48.9848510085
 30
0.0
 11
159.6210996427
 21
48.9848510085
 31
0.0
  0
LINE
  5
1DD
330
1F
100
AcDbEntity
  8
SLD-0
  6
Continuous
 62
   179
100
AcDbLine
 10
157.4059206427
 20
44.1348510085
 30
0.0
 11
167.5559206427
 21
44.1348510085
 31
0.0
  0
LINE
  5
1DE
330
1F
100
AcDbEntity
  8
SLD-0
  6
CENTER
 62
   179
100
AcDbLine
 10
159.7964886427
 20
30.9848510085
 30
0.0
 11
152.3084886427
 21
30.9848510085
 31
0.0
  0
LINE
  5
1DF
330
1F
100
AcDbEntity
  8
SLD-0
  6
CENTER
 62
   179
100
AcDbLine
 10
190.5196016427
 20
59.4848510085
 30
0.0
 11
85.4379656427
 21
59.4848510085
 31
0.0
  0
LINE
  5
1E0
330
1F
100
AcDbEntity
  8
SLD-0
  6
CENTER
 62
   179
100
AcDbLine
 10
148.2285966427
 20
69.9848510085
 30
0.0
 11
159.6210996427
 21
69.9848510085
 31
0.0
  0
LINE
  5
1E1
330
1F
100
AcDbEntity
  8
SLD-0
  6
CENTER
 62
   179
100
AcDbLine
 10
160.5332076427
 20
76.4848510085
 30
0.0
 11
150.0035516427
 21
76.4848510085
 31
0.0
  0
LINE
  5
1E2
330
1F
100
AcDbEntity
  8
SLD-0
  6
HIDDEN
 62
   179
100
AcDbLine
 10
149.6123436427
 20
130.9848510085
 30
0.0
 11
157.4059206427
 21
138.7784280085
 31
0.0
  0
LINE
  5
1E3
330
1F
100
AcDbEntity
  8
SLD-0
  6
CENTER
 62
   179
100
AcDbLine
 10
123.0050936427
 20
148.6848510085
 30
0.0
 11
108.9207136427
 21
148.6848510085
 31
0.0
  0
LINE
  5
1E4
330
1F
100
AcDbEntity
  8
SLD-0
  6
CENTER
 62
   179
100
AcDbLine
 10
116.0293486427
 20
141.4166400085
 30
0.0
 11
116.0293486427
 21
156.0080570085
 31
0.0
  0
LINE
  5
1E5
330
1F
100
AcDbEntity
  8
SLD-0
  6
CENTER
 62
   179
100
AcDbLine
 10
114.9059206427
 20
136.5848510085
 30
0.0
 11
114.9059206427
 21
128.8906390085
 31
0.0
  0
LINE
  5
1E6
330
1F
100
AcDbEntity
  8
SLD-0
  6
CENTER
 62
   179
100
AcDbLine
 10
117.4059206427
 20
128.8906390085
 30
0.0
 11
117.4059206427
 21
136.5848510085
 31
0.0
  0
LINE
  5
1E7
330
1F
100
AcDbEntity
  8
SLD-0
  6
CENTER
 62
   179
100
AcDbLine
 10
119.9059206427
 20
136.5848510085
 30
0.0
 11
119.9059206427
 21
128.8906390085
 31
0.0
  0
LINE
  5
1E8
330
1F
100
AcDbEntity
  8
SLD-0
  6
CENTER
 62
   179
100
AcDbLine
 10
110.2059206427
 20
128.5762800085
 30
0.0
 11
110.2059206427
 21
274.0779940085
 31
0.0
  0
LINE
  5
1E9
330
1F
100
AcDbEntity
  8
SLD-0
  6
CENTER
 62
   179
100
AcDbLine
 10
128.6912596427
 20
258.6848510085
 30
0.0
 11
91.4378416427
 21
258.6848510085
 31
0.0
  0
LINE
  5
1EA
330
1F
100
AcDbEntity
  8
SLD-0
  6
CENTER
 62
   179
100
AcDbLine
 10
92.2059206427
 20
229.0281310085
 30
0.0
 11
92.2059206427
 21
176.1445010085
 31
0.0
  0
LINE
  5
1EB
330
1F
100
AcDbEntity
  8
SLD-0
  6
CENTER
 62
   179
100
AcDbLine
 10
96.3844226427
 20
182.6848510085
 30
0.0
 11
84.6768516427
 21
182.6848510085
 31
0.0
  0
LINE
  5
1EC
330
1F
100
AcDbEntity
  8
SLD-0
  6
CENTER
 62
   179
100
AcDbLine
 10
83.7012206427
 20
222.6848510085
 30
0.0
 11
96.8722376427
 21
222.6848510085
 31
0.0
  0
LINE
  5
1ED
330
1F
100
AcDbEntity
  8
SLD-0
  6
CENTER
 62
   179
100
AcDbLine
 10
123.5396036427
 20
222.6848510085
 30
0.0
 11
136.7106206427
 21
222.6848510085
 31
0.0
  0
LINE
  5
1EE
330
1F
100
AcDbEntity
  8
SLD-0
  6
CENTER
 62
   179
100
AcDbLine
 10
137.3529686427
 20
223.1848510085
 30
0.0
 11
179.9335206427
 21
223.1848510085
 31
0.0
  0
LINE
  5
1EF
330
1F
100
AcDbEntity
  8
SLD-0
  6
CENTER
 62
   179
100
AcDbLine
 10
179.4059206427
 20
207.3439980085
 30
0.0
 11
179.4059206427
 21
198.2199670085
 31
0.0
  0
LINE
  5
1F0
330
1F
100
AcDbEntity
  8
SLD-0
  6
CENTER
 62
   179
100
AcDbLine
 10
186.3893486427
 20
203.1848510085
 30
0.0
 11
127.0737556427
 21
203.1848510085
 31
0.0
  0
LINE
  5
1F1
330
1F
100
AcDbEntity
  8
SLD-0
  6
Continuous
 62
   179
100
AcDbLine
 10
141.4059206427
 20
205.2848510085
 30
0.0
 11
142.4059206427
 21
205.2848510085
 31
0.0
  0
LINE
  5
1F2
330
1F
100
AcDbEntity
  8
SLD-0
  6
Continuous
 62
   179
100
AcDbLine
 10
142.4059206427
 20
205.2848510085
 30
0.0
 11
142.8059206427
 21
205.6848510085
 31
0.0
  0
LINE
  5
1F3
330
1F
100
AcDbEntity
  8
SLD-0
  6
Continuous
 62
   179
100
AcDbLine
 10
142.4059206427
 20
201.0848510085
 30
0.0
 11
142.8059206427
 21
200.6848510085
 31
0.0
  0
LINE
  5
1F4
330
1F
100
AcDbEntity
  8
SLD-0
  6
Continuous
 62
   179
100
AcDbLine
 10
142.4059206427
 20
201.0848510085
 30
0.0
 11
141.4059206427
 21
201.0848510085
 31
0.0
  0
LINE
  5
1F5
330
1F
100
AcDbEntity
  8
SLD-0
  6
CENTER
 62
   179
100
AcDbLine
 10
137.0875536427
 20
186.8637340085
 30
0.0
 11
155.1113836427
 21
186.8637340085
 31
0.0
  0
LINE
  5
1F6
330
1F
100
AcDbEntity
  8
SLD-0
  6
CENTER
 62
   179
100
AcDbLine
 10
155.1113836427
 20
179.5059680085
 30
0.0
 11
137.0875536427
 21
179.5059680085
 31
0.0
  0
LINE
  5
1F7
330
1F
100
AcDbEntity
  8
SLD-0
  6
CENTER
 62
   179
100
AcDbLine
 10
135.7349896427
 20
182.6848510085
 30
0.0
 11
124.0274186427
 21
182.6848510085
 31
0.0
  0
LINE
  5
1F8
330
1F
100
AcDbEntity
  8
SLD-0
  6
CENTER
 62
   179
100
AcDbLine
 10
126.3052676427
 20
177.6848510085
 30
0.0
 11
145.1071856427
 21
177.6848510085
 31
0.0
  0
LINE
  5
1F9
330
1F
100
AcDbEntity
  8
SLD-0
  6
CENTER
 62
   179
100
AcDbLine
 10
137.3529686427
 20
183.1848510085
 30
0.0
 11
179.9335206427
 21
183.1848510085
 31
0.0
  0
LINE
  5
1FA
330
1F
100
AcDbEntity
  8
SLD-0
  6
CENTER
 62
   179
100
AcDbLine
 10
164.4059206427
 20
198.4757810085
 30
0.0
 11
164.4059206427
 21
207.3439980085
 31
0.0
  0
LINE
  5
1FB
330
1F
100
AcDbEntity
  8
SLD-0
  6
CENTER
 62
   179
100
AcDbLine
 10
155.1113836427
 20
219.5059680085
 30
0.0
 11
137.0875536427
 21
219.5059680085
 31
0.0
  0
LINE
  5
1FC
330
1F
100
AcDbEntity
  8
SLD-0
  6
CENTER
 62
   179
100
AcDbLine
 10
137.0875536427
 20
226.8637340085
 30
0.0
 11
155.1113836427
 21
226.8637340085
 31
0.0
  0
LINE
  5
1FD
330
1F
100
AcDbEntity
  8
SLD-0
  6
CENTER
 62
   179
100
AcDbLine
 10
145.1071856427
 20
217.6848510085
 30
0.0
 11
126.3052676427
 21
217.6848510085
 31
0.0
  0
LINE
  5
1FE
330
1F
100
AcDbEntity
  8
SLD-0
  6
CENTER
 62
   179
100
AcDbLine
 10
128.2059206427
 20
229.0281310085
 30
0.0
 11
128.2059206427
 21
176.1445010085
 31
0.0
  0
LINE
  5
1FF
330
1F
100
AcDbEntity
  8
SLD-0
  6
CENTER
 62
   179
100
AcDbLine
 10
254.0164676427
 20
203.1848510085
 30
0.0
 11
333.3189716427
 21
203.1848510085
 31
0.0
  0
LINE
  5
200
330
1F
100
AcDbEntity
  8
SLD-0
  6
CENTER
 62
   179
100
AcDbLine
 10
327.9119136427
 20
200.6848510085
 30
0.0
 11
318.1528836427
 21
200.6848510085
 31
0.0
  0
LINE
  5
201
330
1F
100
AcDbEntity
  8
SLD-0
  6
CENTER
 62
   179
100
AcDbLine
 10
317.7377546427
 20
205.6848510085
 30
0.0
 11
327.3289136427
 21
205.6848510085
 31
0.0
  0
LINE
  5
202
330
1F
100
AcDbEntity
  8
SLD-0
  6
CENTER
 62
   179
100
AcDbLine
 10
322.7848426427
 20
216.4648510085
 30
0.0
 11
322.7848426427
 21
188.4793960085
 31
0.0
  0
LINE
  5
203
330
1F
100
AcDbEntity
  8
SLD-0
  6
CENTER
 62
   179
100
AcDbLine
 10
317.5650066427
 20
177.6848510085
 30
0.0
 11
306.7535176427
 21
177.6848510085
 31
0.0
  0
LINE
  5
204
330
1F
100
AcDbEntity
  8
SLD-0
  6
CENTER
 62
   179
100
AcDbLine
 10
302.7636726427
 20
183.1848510085
 30
0.0
 11
285.0706346427
 21
183.1848510085
 31
0.0
  0
LINE
  5
205
330
1F
100
AcDbEntity
  8
SLD-0
  6
CENTER
 62
   179
100
AcDbLine
 10
286.5348426427
 20
188.0268610085
 30
0.0
 11
286.5348426427
 21
218.5504950085
 31
0.0
  0
LINE
  5
206
330
1F
100
AcDbEntity
  8
SLD-0
  6
CENTER
 62
   179
100
AcDbLine
 10
286.0452296427
 20
223.1848510085
 30
0.0
 11
302.7636726427
 21
223.1848510085
 31
0.0
  0
LINE
  5
207
330
1F
100
AcDbEntity
  8
SLD-0
  6
CENTER
 62
   179
100
AcDbLine
 10
302.0348426427
 20
218.5504950085
 30
0.0
 11
302.0348426427
 21
188.0268610085
 31
0.0
  0
LINE
  5
208
330
1F
100
AcDbEntity
  8
SLD-0
  6
CENTER
 62
   179
100
AcDbLine
 10
312.2848426427
 20
183.1292800085
 30
0.0
 11
312.2848426427
 21
172.3330620085
 31
0.0
  0
LINE
  5
209
330
1F
100
AcDbEntity
  8
SLD-0
  6
CENTER
 62
   179
100
AcDbLine
 10
304.7848426427
 20
140.1621750085
 30
0.0
 11
304.7848426427
 21
128.7696710085
 31
0.0
  0
LINE
  5
20A
330
1F
100
AcDbEntity
  8
SLD-0
  6
CENTER
 62
   179
100
AcDbLine
 10
294.2848426427
 20
125.3557340085
 30
0.0
 11
294.2848426427
 21
270.3119530085
 31
0.0
  0
LINE
  5
20B
330
1F
100
AcDbEntity
  8
SLD-0
  6
CENTER
 62
   179
100
AcDbLine
 10
292.2848426427
 20
258.6848510085
 30
0.0
 11
296.2848426427
 21
258.6848510085
 31
0.0
  0
LINE
  5
20C
330
1F
100
AcDbEntity
  8
SLD-0
  6
CENTER
 62
   179
100
AcDbLine
 10
296.5651936427
 20
258.6848510085
 30
0.0
 11
300.9497656427
 21
258.6848510085
 31
0.0
  0
LINE
  5
20D
330
1F
100
AcDbEntity
  8
SLD-0
  6
CENTER
 62
   179
100
AcDbLine
 10
292.0044916427
 20
258.6848510085
 30
0.0
 11
286.8792436427
 21
258.6848510085
 31
0.0
  0
LINE
  5
20E
330
1F
100
AcDbEntity
  8
SLD-0
  6
CENTER
 62
   179
100
AcDbLine
 10
279.2848426427
 20
238.8558540085
 30
0.0
 11
279.2848426427
 21
231.8062120085
 31
0.0
  0
LINE
  5
20F
330
1F
100
AcDbEntity
  8
SLD-0
  6
CENTER
 62
   179
100
AcDbLine
 10
275.4792326427
 20
235.1848510085
 30
0.0
 11
313.6338716427
 21
235.1848510085
 31
0.0
  0
LINE
  5
210
330
1F
100
AcDbEntity
  8
SLD-0
  6
CENTER
 62
   179
100
AcDbLine
 10
309.2848426427
 20
231.8062120085
 30
0.0
 11
309.2848426427
 21
238.8558540085
 31
0.0
  0
LINE
  5
211
330
1F
100
AcDbEntity
  8
SLD-0
  6
CENTER
 62
   179
100
AcDbLine
 10
312.2848426427
 20
222.8635950085
 30
0.0
 11
312.2848426427
 21
212.4484200085
 31
0.0
  0
LINE
  5
212
330
1F
100
AcDbEntity
  8
SLD-0
  6
CENTER
 62
   179
100
AcDbLine
 10
311.2848426427
 20
208.5748200085
 30
0.0
 11
311.2848426427
 21
197.2781670085
 31
0.0
  0
LINE
  5
213
330
1F
100
AcDbEntity
  8
SLD-0
  6
CENTER
 62
   179
100
AcDbLine
 10
306.5841656427
 20
217.6848510085
 30
0.0
 11
318.0709986427
 21
217.6848510085
 31
0.0
  0
LINE
  5
214
330
1F
100
AcDbEntity
  8
SLD-0
  6
CENTER
 62
   179
100
AcDbLine
 10
307.6701826427
 20
210.9348510085
 30
0.0
 11
279.6620346427
 21
210.9348510085
 31
0.0
  0
LINE
  5
215
330
1F
100
AcDbEntity
  8
SLD-0
  6
CENTER
 62
   179
100
AcDbLine
 10
277.2848426427
 20
208.5748200085
 30
0.0
 11
277.2848426427
 21
198.5569800085
 31
0.0
  0
LINE
  5
216
330
1F
100
AcDbEntity
  8
SLD-0
  6
CENTER
 62
   179
100
AcDbLine
 10
279.6620346427
 20
195.4348510085
 30
0.0
 11
308.8979356427
 21
195.4348510085
 31
0.0
  0
LINE
  5
217
330
1F
100
AcDbEntity
  8
SLD-0
  6
CENTER
 62
   179
100
AcDbLine
 10
276.2848426427
 20
182.8752510085
 30
0.0
 11
276.2848426427
 21
172.2060480085
 31
0.0
  0
LINE
  5
218
330
1F
100
AcDbEntity
  8
SLD-0
  6
CENTER
 62
   179
100
AcDbLine
 10
283.7848426427
 20
140.1621750085
 30
0.0
 11
283.7848426427
 21
128.7696710085
 31
0.0
  0
LINE
  5
219
330
1F
100
AcDbEntity
  8
SLD-0
  6
HIDDEN
 62
   179
100
AcDbLine
 10
271.7848426427
 20
134.1848510085
 30
0.0
 11
316.7848426427
 21
134.1848510085
 31
0.0
  0
LINE
  5
21A
330
1F
100
AcDbEntity
  8
SLD-0
  6
CENTER
 62
   179
100
AcDbLine
 10
265.7848426427
 20
138.3368510085
 30
0.0
 11
265.7848426427
 21
127.9688510085
 31
0.0
  0
LINE
  5
21B
330
1F
100
AcDbEntity
  8
SLD-0
  6
CENTER
 62
   179
100
AcDbLine
 10
269.9617016427
 20
177.6848510085
 30
0.0
 11
281.5623426427
 21
177.6848510085
 31
0.0
  0
LINE
  5
21C
330
1F
100
AcDbEntity
  8
SLD-0
  6
CENTER
 62
   179
100
AcDbLine
 10
270.4274206427
 20
217.6848510085
 30
0.0
 11
281.8163716427
 21
217.6848510085
 31
0.0
  0
LINE
  5
21D
330
1F
100
AcDbEntity
  8
SLD-0
  6
CENTER
 62
   179
100
AcDbLine
 10
276.2848426427
 20
212.4907580085
 30
0.0
 11
276.2848426427
 21
223.0329470085
 31
0.0
  0
LINE
  5
21E
330
1F
100
AcDbEntity
  8
SLD-0
  6
CENTER
 62
   179
100
AcDbLine
 10
270.2254486427
 20
205.6848510085
 30
0.0
 11
260.6577726427
 21
205.6848510085
 31
0.0
  0
LINE
  5
21F
330
1F
100
AcDbEntity
  8
SLD-0
  6
CENTER
 62
   179
100
AcDbLine
 10
261.2631056427
 20
200.6848510085
 30
0.0
 11
270.4168026427
 21
200.6848510085
 31
0.0
  0
LINE
  5
220
330
1F
100
AcDbEntity
  8
SLD-0
  6
CENTER
 62
   179
100
AcDbLine
 10
322.7848426427
 20
138.3368510085
 30
0.0
 11
322.7848426427
 21
127.9688510085
 31
0.0
  0
LINE
  5
221
330
1F
100
AcDbEntity
  8
SLD-0
  6
Continuous
 62
   179
100
AcDbLine
 10
17.5
 20
11.5
 30
0.0
 11
402.5
 21
11.5
 31
0.0
  0
LINE
  5
222
330
1F
100
AcDbEntity
  8
SLD-0
  6
Continuous
 62
   179
100
AcDbLine
 10
402.5
 20
285.5
 30
0.0
 11
402.5
 21
11.5
 31
0.0
  0
LINE
  5
223
330
1F
100
AcDbEntity
  8
SLD-0
  6
Continuous
 62
   179
100
AcDbLine
 10
17.5
 20
285.5
 30
0.0
 11
17.5
 21
11.5
 31
0.0
  0
LINE
  5
224
330
1F
100
AcDbEntity
  8
SLD-0
  6
Continuous
 62
   179
100
AcDbLine
 10
17.5
 20
285.5
 30
0.0
 11
402.5
 21
285.5
 31
0.0
  0
LINE
  5
225
330
1F
100
AcDbEntity
  8
SLD-0
  6
Continuous
 62
   179
100
AcDbLine
 10
334.0
 20
50.0
 30
0.0
 11
334.0
 21
11.5
 31
0.0
  0
LINE
  5
226
330
1F
100
AcDbEntity
  8
SLD-0
  6
Continuous
 62
   179
100
AcDbLine
 10
334.0
 20
24.0
 30
0.0
 11
402.5
 21
24.0
 31
0.0
  0
LINE
  5
227
330
1F
100
AcDbEntity
  8
SLD-0
  6
Continuous
 62
   179
100
AcDbLine
 10
334.0
 20
36.5
 30
0.0
 11
402.5
 21
36.5
 31
0.0
  0
LINE
  5
228
330
1F
100
AcDbEntity
  8
SLD-0
  6
Continuous
 62
   179
100
AcDbLine
 10
334.0
 20
50.0
 30
0.0
 11
402.5
 21
50.0
 31
0.0
  0
LINE
  5
229
330
1F
100
AcDbEntity
  8
SLD-0
  6
Continuous
 62
   179
100
AcDbLine
 10
17.3
 20
11.3
 30
0.0
 11
402.7
 21
11.3
 31
0.0
  0
LINE
  5
22A
330
1F
100
AcDbEntity
  8
SLD-0
  6
Continuous
 62
   179
100
AcDbLine
 10
17.3
 20
285.7
 30
0.0
 11
17.3
 21
11.3
 31
0.0
  0
LINE
  5
22B
330
1F
100
AcDbEntity
  8
SLD-0
  6
Continuous
 62
   179
100
AcDbLine
 10
17.3
 20
285.7
 30
0.0
 11
402.7
 21
285.7
 31
0.0
  0
LINE
  5
22C
330
1F
100
AcDbEntity
  8
SLD-0
  6
Continuous
 62
   179
100
AcDbLine
 10
402.7
 20
285.7
 30
0.0
 11
402.7
 21
11.3
 31
0.0
  0
LINE
  5
22D
330
1F
100
AcDbEntity
  8
SLD-0
  6
Continuous
 62
   179
100
AcDbLine
 10
120.2793486427
 20
148.6848510085
 30
0.0
 11
120.2631766427
 21
149.0426250085
 31
0.0
  0
LINE
  5
22E
330
1F
100
AcDbEntity
  8
SLD-0
  6
Continuous
 62
   179
100
AcDbLine
 10
120.2631766427
 20
149.0426250085
 30
0.0
 11
120.2147816427
 21
149.3976770085
 31
0.0
  0
LINE
  5
22F
330
1F
100
AcDbEntity
  8
SLD-0
  6
Continuous
 62
   179
100
AcDbLine
 10
120.2147816427
 20
149.3976770085
 30
0.0
 11
120.1345336427
 21
149.7473030085
 31
0.0
  0
LINE
  5
230
330
1F
100
AcDbEntity
  8
SLD-0
  6
Continuous
 62
   179
100
AcDbLine
 10
120.1345336427
 20
149.7473030085
 30
0.0
 11
120.0230426427
 21
150.0888440085
 31
0.0
  0
LINE
  5
231
330
1F
100
AcDbEntity
  8
SLD-0
  6
Continuous
 62
   179
100
AcDbLine
 10
120.0230426427
 20
150.0888440085
 30
0.0
 11
119.8811566427
 21
150.4196990085
 31
0.0
  0
LINE
  5
232
330
1F
100
AcDbEntity
  8
SLD-0
  6
Continuous
 62
   179
100
AcDbLine
 10
119.8811566427
 20
150.4196990085
 30
0.0
 11
119.7099566427
 21
150.7373510085
 31
0.0
  0
LINE
  5
233
330
1F
100
AcDbEntity
  8
SLD-0
  6
Continuous
 62
   179
100
AcDbLine
 10
119.7099566427
 20
150.7373510085
 30
0.0
 11
119.5107456427
 21
151.0393820085
 31
0.0
  0
LINE
  5
234
330
1F
100
AcDbEntity
  8
SLD-0
  6
Continuous
 62
   179
100
AcDbLine
 10
119.5107456427
 20
151.0393820085
 30
0.0
 11
119.2850376427
 21
151.3234940085
 31
0.0
  0
LINE
  5
235
330
1F
100
AcDbEntity
  8
SLD-0
  6
Continuous
 62
   179
100
AcDbLine
 10
119.2850376427
 20
151.3234940085
 30
0.0
 11
119.0345526427
 21
151.5875240085
 31
0.0
  0
LINE
  5
236
330
1F
100
AcDbEntity
  8
SLD-0
  6
Continuous
 62
   179
100
AcDbLine
 10
119.0345526427
 20
151.5875240085
 30
0.0
 11
118.7611966427
 21
151.8294630085
 31
0.0
  0
LINE
  5
237
330
1F
100
AcDbEntity
  8
SLD-0
  6
Continuous
 62
   179
100
AcDbLine
 10
118.7611966427
 20
151.8294630085
 30
0.0
 11
118.4670486427
 21
152.0474700085
 31
0.0
  0
LINE
  5
238
330
1F
100
AcDbEntity
  8
SLD-0
  6
Continuous
 62
   179
100
AcDbLine
 10
118.4670486427
 20
152.0474700085
 30
0.0
 11
118.1543486427
 21
152.2398850085
 31
0.0
  0
LINE
  5
239
330
1F
100
AcDbEntity
  8
SLD-0
  6
Continuous
 62
   179
100
AcDbLine
 10
118.1543486427
 20
152.2398850085
 30
0.0
 11
117.8254766427
 21
152.4052440085
 31
0.0
  0
LINE
  5
23A
330
1F
100
AcDbEntity
  8
SLD-0
  6
Continuous
 62
   179
100
AcDbLine
 10
117.8254766427
 20
152.4052440085
 30
0.0
 11
117.4829346427
 21
152.5422890085
 31
0.0
  0
LINE
  5
23B
330
1F
100
AcDbEntity
  8
SLD-0
  6
Continuous
 62
   179
100
AcDbLine
 10
117.4829346427
 20
152.5422890085
 30
0.0
 11
117.1293296427
 21
152.6499770085
 31
0.0
  0
LINE
  5
23C
330
1F
100
AcDbEntity
  8
SLD-0
  6
Continuous
 62
   179
100
AcDbLine
 10
117.1293296427
 20
152.6499770085
 30
0.0
 11
116.7673536427
 21
152.7274870085
 31
0.0
  0
LINE
  5
23D
330
1F
100
AcDbEntity
  8
SLD-0
  6
Continuous
 62
   179
100
AcDbLine
 10
116.7673536427
 20
152.7274870085
 30
0.0
 11
116.3997606427
 21
152.7742300085
 31
0.0
  0
LINE
  5
23E
330
1F
100
AcDbEntity
  8
SLD-0
  6
Continuous
 62
   179
100
AcDbLine
 10
116.3997606427
 20
152.7742300085
 30
0.0
 11
116.0293486427
 21
152.7898510085
 31
0.0
  0
LINE
  5
23F
330
1F
100
AcDbEntity
  8
SLD-0
  6
Continuous
 62
   179
100
AcDbLine
 10
116.0293486427
 20
152.7898510085
 30
0.0
 11
115.6589366427
 21
152.7742300085
 31
0.0
  0
LINE
  5
240
330
1F
100
AcDbEntity
  8
SLD-0
  6
Continuous
 62
   179
100
AcDbLine
 10
115.6589366427
 20
152.7742300085
 30
0.0
 11
115.2913446427
 21
152.7274870085
 31
0.0
  0
LINE
  5
241
330
1F
100
AcDbEntity
  8
SLD-0
  6
Continuous
 62
   179
100
AcDbLine
 10
115.2913446427
 20
152.7274870085
 30
0.0
 11
114.9293676427
 21
152.6499770085
 31
0.0
  0
LINE
  5
242
330
1F
100
AcDbEntity
  8
SLD-0
  6
Continuous
 62
   179
100
AcDbLine
 10
114.9293676427
 20
152.6499770085
 30
0.0
 11
114.5757636427
 21
152.5422890085
 31
0.0
  0
LINE
  5
243
330
1F
100
AcDbEntity
  8
SLD-0
  6
Continuous
 62
   179
100
AcDbLine
 10
114.5757636427
 20
152.5422890085
 30
0.0
 11
114.2332216427
 21
152.4052440085
 31
0.0
  0
LINE
  5
244
330
1F
100
AcDbEntity
  8
SLD-0
  6
Continuous
 62
   179
100
AcDbLine
 10
114.2332216427
 20
152.4052440085
 30
0.0
 11
113.9043486427
 21
152.2398850085
 31
0.0
  0
LINE
  5
245
330
1F
100
AcDbEntity
  8
SLD-0
  6
Continuous
 62
   179
100
AcDbLine
 10
113.9043486427
 20
152.2398850085
 30
0.0
 11
113.5916496427
 21
152.0474700085
 31
0.0
  0
LINE
  5
246
330
1F
100
AcDbEntity
  8
SLD-0
  6
Continuous
 62
   179
100
AcDbLine
 10
113.5916496427
 20
152.0474700085
 30
0.0
 11
113.2975016427
 21
151.8294630085
 31
0.0
  0
LINE
  5
247
330
1F
100
AcDbEntity
  8
SLD-0
  6
Continuous
 62
   179
100
AcDbLine
 10
113.2975016427
 20
151.8294630085
 30
0.0
 11
113.0241456427
 21
151.5875240085
 31
0.0
  0
LINE
  5
248
330
1F
100
AcDbEntity
  8
SLD-0
  6
Continuous
 62
   179
100
AcDbLine
 10
113.0241456427
 20
151.5875240085
 30
0.0
 11
112.7736596427
 21
151.3234940085
 31
0.0
  0
LINE
  5
249
330
1F
100
AcDbEntity
  8
SLD-0
  6
Continuous
 62
   179
100
AcDbLine
 10
112.7736596427
 20
151.3234940085
 30
0.0
 11
112.5479526427
 21
151.0393820085
 31
0.0
  0
LINE
  5
24A
330
1F
100
AcDbEntity
  8
SLD-0
  6
Continuous
 62
   179
100
AcDbLine
 10
112.5479526427
 20
151.0393820085
 30
0.0
 11
112.3487406427
 21
150.7373510085
 31
0.0
  0
LINE
  5
24B
330
1F
100
AcDbEntity
  8
SLD-0
  6
Continuous
 62
   179
100
AcDbLine
 10
112.3487406427
 20
150.7373510085
 30
0.0
 11
112.1775406427
 21
150.4196990085
 31
0.0
  0
LINE
  5
24C
330
1F
100
AcDbEntity
  8
SLD-0
  6
Continuous
 62
   179
100
AcDbLine
 10
112.1775406427
 20
150.4196990085
 30
0.0
 11
112.0356556427
 21
150.0888440085
 31
0.0
  0
LINE
  5
24D
330
1F
100
AcDbEntity
  8
SLD-0
  6
Continuous
 62
   179
100
AcDbLine
 10
112.0356556427
 20
150.0888440085
 30
0.0
 11
111.9241646427
 21
149.7473030085
 31
0.0
  0
LINE
  5
24E
330
1F
100
AcDbEntity
  8
SLD-0
  6
Continuous
 62
   179
100
AcDbLine
 10
111.9241646427
 20
149.7473030085
 30
0.0
 11
111.8439156427
 21
149.3976770085
 31
0.0
  0
LINE
  5
24F
330
1F
100
AcDbEntity
  8
SLD-0
  6
Continuous
 62
   179
100
AcDbLine
 10
111.8439156427
 20
149.3976770085
 30
0.0
 11
111.7955216427
 21
149.0426250085
 31
0.0
  0
LINE
  5
250
330
1F
100
AcDbEntity
  8
SLD-0
  6
Continuous
 62
   179
100
AcDbLine
 10
111.7955216427
 20
149.0426250085
 30
0.0
 11
111.7793486427
 21
148.6848510085
 31
0.0
  0
LINE
  5
251
330
1F
100
AcDbEntity
  8
SLD-0
  6
Continuous
 62
   179
100
AcDbLine
 10
111.7793486427
 20
148.6848510085
 30
0.0
 11
111.7955216427
 21
148.3270770085
 31
0.0
  0
LINE
  5
252
330
1F
100
AcDbEntity
  8
SLD-0
  6
Continuous
 62
   179
100
AcDbLine
 10
111.7955216427
 20
148.3270770085
 30
0.0
 11
111.8439156427
 21
147.9720250085
 31
0.0
  0
LINE
  5
253
330
1F
100
AcDbEntity
  8
SLD-0
  6
Continuous
 62
   179
100
AcDbLine
 10
111.8439156427
 20
147.9720250085
 30
0.0
 11
111.9241646427
 21
147.6223990085
 31
0.0
  0
LINE
  5
254
330
1F
100
AcDbEntity
  8
SLD-0
  6
Continuous
 62
   179
100
AcDbLine
 10
111.9241646427
 20
147.6223990085
 30
0.0
 11
112.0356556427
 21
147.2808580085
 31
0.0
  0
LINE
  5
255
330
1F
100
AcDbEntity
  8
SLD-0
  6
Continuous
 62
   179
100
AcDbLine
 10
112.0356556427
 20
147.2808580085
 30
0.0
 11
112.1775406427
 21
146.9500030085
 31
0.0
  0
LINE
  5
256
330
1F
100
AcDbEntity
  8
SLD-0
  6
Continuous
 62
   179
100
AcDbLine
 10
112.1775406427
 20
146.9500030085
 30
0.0
 11
112.3487406427
 21
146.6323510085
 31
0.0
  0
LINE
  5
257
330
1F
100
AcDbEntity
  8
SLD-0
  6
Continuous
 62
   179
100
AcDbLine
 10
112.3487406427
 20
146.6323510085
 30
0.0
 11
112.5479526427
 21
146.3303200085
 31
0.0
  0
LINE
  5
258
330
1F
100
AcDbEntity
  8
SLD-0
  6
Continuous
 62
   179
100
AcDbLine
 10
112.5479526427
 20
146.3303200085
 30
0.0
 11
112.7736596427
 21
146.0462080085
 31
0.0
  0
LINE
  5
259
330
1F
100
AcDbEntity
  8
SLD-0
  6
Continuous
 62
   179
100
AcDbLine
 10
112.7736596427
 20
146.0462080085
 30
0.0
 11
113.0241456427
 21
145.7821780085
 31
0.0
  0
LINE
  5
25A
330
1F
100
AcDbEntity
  8
SLD-0
  6
Continuous
 62
   179
100
AcDbLine
 10
113.0241456427
 20
145.7821780085
 30
0.0
 11
113.2975016427
 21
145.5402390085
 31
0.0
  0
LINE
  5
25B
330
1F
100
AcDbEntity
  8
SLD-0
  6
Continuous
 62
   179
100
AcDbLine
 10
113.2975016427
 20
145.5402390085
 30
0.0
 11
113.5916496427
 21
145.3222320085
 31
0.0
  0
LINE
  5
25C
330
1F
100
AcDbEntity
  8
SLD-0
  6
Continuous
 62
   179
100
AcDbLine
 10
113.5916496427
 20
145.3222320085
 30
0.0
 11
113.9043486427
 21
145.1298170085
 31
0.0
  0
LINE
  5
25D
330
1F
100
AcDbEntity
  8
SLD-0
  6
Continuous
 62
   179
100
AcDbLine
 10
113.9043486427
 20
145.1298170085
 30
0.0
 11
114.2332216427
 21
144.9644580085
 31
0.0
  0
LINE
  5
25E
330
1F
100
AcDbEntity
  8
SLD-0
  6
Continuous
 62
   179
100
AcDbLine
 10
114.2332216427
 20
144.9644580085
 30
0.0
 11
114.5757636427
 21
144.8274130085
 31
0.0
  0
LINE
  5
25F
330
1F
100
AcDbEntity
  8
SLD-0
  6
Continuous
 62
   179
100
AcDbLine
 10
114.5757636427
 20
144.8274130085
 30
0.0
 11
114.9293676427
 21
144.7197250085
 31
0.0
  0
LINE
  5
260
330
1F
100
AcDbEntity
  8
SLD-0
  6
Continuous
 62
   179
100
AcDbLine
 10
114.9293676427
 20
144.7197250085
 30
0.0
 11
115.2913446427
 21
144.6422150085
 31
0.0
  0
LINE
  5
261
330
1F
100
AcDbEntity
  8
SLD-0
  6
Continuous
 62
   179
100
AcDbLine
 10
115.2913446427
 20
144.6422150085
 30
0.0
 11
115.6589366427
 21
144.5954720085
 31
0.0
  0
LINE
  5
262
330
1F
100
AcDbEntity
  8
SLD-0
  6
Continuous
 62
   179
100
AcDbLine
 10
115.6589366427
 20
144.5954720085
 30
0.0
 11
116.0293486427
 21
144.5798510085
 31
0.0
  0
LINE
  5
263
330
1F
100
AcDbEntity
  8
SLD-0
  6
Continuous
 62
   179
100
AcDbLine
 10
116.0293486427
 20
144.5798510085
 30
0.0
 11
116.3997606427
 21
144.5954720085
 31
0.0
  0
LINE
  5
264
330
1F
100
AcDbEntity
  8
SLD-0
  6
Continuous
 62
   179
100
AcDbLine
 10
116.3997606427
 20
144.5954720085
 30
0.0
 11
116.7673536427
 21
144.6422150085
 31
0.0
  0
LINE
  5
265
330
1F
100
AcDbEntity
  8
SLD-0
  6
Continuous
 62
   179
100
AcDbLine
 10
116.7673536427
 20
144.6422150085
 30
0.0
 11
117.1293296427
 21
144.7197250085
 31
0.0
  0
LINE
  5
266
330
1F
100
AcDbEntity
  8
SLD-0
  6
Continuous
 62
   179
100
AcDbLine
 10
117.1293296427
 20
144.7197250085
 30
0.0
 11
117.4829346427
 21
144.8274130085
 31
0.0
  0
LINE
  5
267
330
1F
100
AcDbEntity
  8
SLD-0
  6
Continuous
 62
   179
100
AcDbLine
 10
117.4829346427
 20
144.8274130085
 30
0.0
 11
117.8254766427
 21
144.9644580085
 31
0.0
  0
LINE
  5
268
330
1F
100
AcDbEntity
  8
SLD-0
  6
Continuous
 62
   179
100
AcDbLine
 10
117.8254766427
 20
144.9644580085
 30
0.0
 11
118.1543486427
 21
145.1298170085
 31
0.0
  0
LINE
  5
269
330
1F
100
AcDbEntity
  8
SLD-0
  6
Continuous
 62
   179
100
AcDbLine
 10
118.1543486427
 20
145.1298170085
 30
0.0
 11
118.4670486427
 21
145.3222320085
 31
0.0
  0
LINE
  5
26A
330
1F
100
AcDbEntity
  8
SLD-0
  6
Continuous
 62
   179
100
AcDbLine
 10
118.4670486427
 20
145.3222320085
 30
0.0
 11
118.7611966427
 21
145.5402390085
 31
0.0
  0
LINE
  5
26B
330
1F
100
AcDbEntity
  8
SLD-0
  6
Continuous
 62
   179
100
AcDbLine
 10
118.7611966427
 20
145.5402390085
 30
0.0
 11
119.0345526427
 21
145.7821780085
 31
0.0
  0
LINE
  5
26C
330
1F
100
AcDbEntity
  8
SLD-0
  6
Continuous
 62
   179
100
AcDbLine
 10
119.0345526427
 20
145.7821780085
 30
0.0
 11
119.2850376427
 21
146.0462080085
 31
0.0
  0
LINE
  5
26D
330
1F
100
AcDbEntity
  8
SLD-0
  6
Continuous
 62
   179
100
AcDbLine
 10
119.2850376427
 20
146.0462080085
 30
0.0
 11
119.5107456427
 21
146.3303200085
 31
0.0
  0
LINE
  5
26E
330
1F
100
AcDbEntity
  8
SLD-0
  6
Continuous
 62
   179
100
AcDbLine
 10
119.5107456427
 20
146.3303200085
 30
0.0
 11
119.7099566427
 21
146.6323510085
 31
0.0
  0
LINE
  5
26F
330
1F
100
AcDbEntity
  8
SLD-0
  6
Continuous
 62
   179
100
AcDbLine
 10
119.7099566427
 20
146.6323510085
 30
0.0
 11
119.8811566427
 21
146.9500030085
 31
0.0
  0
LINE
  5
270
330
1F
100
AcDbEntity
  8
SLD-0
  6
Continuous
 62
   179
100
AcDbLine
 10
119.8811566427
 20
146.9500030085
 30
0.0
 11
120.0230426427
 21
147.2808580085
 31
0.0
  0
LINE
  5
271
330
1F
100
AcDbEntity
  8
SLD-0
  6
Continuous
 62
   179
100
AcDbLine
 10
120.0230426427
 20
147.2808580085
 30
0.0
 11
120.1345336427
 21
147.6223990085
 31
0.0
  0
LINE
  5
272
330
1F
100
AcDbEntity
  8
SLD-0
  6
Continuous
 62
   179
100
AcDbLine
 10
120.1345336427
 20
147.6223990085
 30
0.0
 11
120.2147816427
 21
147.9720250085
 31
0.0
  0
LINE
  5
273
330
1F
100
AcDbEntity
  8
SLD-0
  6
Continuous
 62
   179
100
AcDbLine
 10
120.2147816427
 20
147.9720250085
 30
0.0
 11
120.2631766427
 21
148.3270770085
 31
0.0
  0
LINE
  5
274
330
1F
100
AcDbEntity
  8
SLD-0
  6
Continuous
 62
   179
100
AcDbLine
 10
120.2631766427
 20
148.3270770085
 30
0.0
 11
120.2793486427
 21
148.6848510085
 31
0.0
  0
LINE
  5
275
330
1F
100
AcDbEntity
  8
SLD-0
  6
Continuous
 62
   179
100
AcDbLine
 10
120.7793486427
 20
148.6848510085
 30
0.0
 11
120.7612736427
 21
149.0844600085
 31
0.0
  0
LINE
  5
276
330
1F
100
AcDbEntity
  8
SLD-0
  6
Continuous
 62
   179
100
AcDbLine
 10
120.7612736427
 20
149.0844600085
 30
0.0
 11
120.7071856427
 21
149.4810280085
 31
0.0
  0
LINE
  5
277
330
1F
100
AcDbEntity
  8
SLD-0
  6
Continuous
 62
   179
100
AcDbLine
 10
120.7071856427
 20
149.4810280085
 30
0.0
 11
120.6174966427
 21
149.8715360085
 31
0.0
  0
LINE
  5
278
330
1F
100
AcDbEntity
  8
SLD-0
  6
Continuous
 62
   179
100
AcDbLine
 10
120.6174966427
 20
149.8715360085
 30
0.0
 11
120.4928886427
 21
150.2530130085
 31
0.0
  0
LINE
  5
279
330
1F
100
AcDbEntity
  8
SLD-0
  6
Continuous
 62
   179
100
AcDbLine
 10
120.4928886427
 20
150.2530130085
 30
0.0
 11
120.3343106427
 21
150.6225560085
 31
0.0
  0
LINE
  5
27A
330
1F
100
AcDbEntity
  8
SLD-0
  6
Continuous
 62
   179
100
AcDbLine
 10
120.3343106427
 20
150.6225560085
 30
0.0
 11
120.1429696427
 21
150.9773510085
 31
0.0
  0
LINE
  5
27B
330
1F
100
AcDbEntity
  8
SLD-0
  6
Continuous
 62
   179
100
AcDbLine
 10
120.1429696427
 20
150.9773510085
 30
0.0
 11
119.9203216427
 21
151.3146990085
 31
0.0
  0
LINE
  5
27C
330
1F
100
AcDbEntity
  8
SLD-0
  6
Continuous
 62
   179
100
AcDbLine
 10
119.9203216427
 20
151.3146990085
 30
0.0
 11
119.6680596427
 21
151.6320320085
 31
0.0
  0
LINE
  5
27D
330
1F
100
AcDbEntity
  8
SLD-0
  6
Continuous
 62
   179
100
AcDbLine
 10
119.6680596427
 20
151.6320320085
 30
0.0
 11
119.3881066427
 21
151.9269360085
 31
0.0
  0
LINE
  5
27E
330
1F
100
AcDbEntity
  8
SLD-0
  6
Continuous
 62
   179
100
AcDbLine
 10
119.3881066427
 20
151.9269360085
 30
0.0
 11
119.0825906427
 21
152.1971650085
 31
0.0
  0
LINE
  5
27F
330
1F
100
AcDbEntity
  8
SLD-0
  6
Continuous
 62
   179
100
AcDbLine
 10
119.0825906427
 20
152.1971650085
 30
0.0
 11
118.7538366427
 21
152.4406630085
 31
0.0
  0
LINE
  5
280
330
1F
100
AcDbEntity
  8
SLD-0
  6
Continuous
 62
   179
100
AcDbLine
 10
118.7538366427
 20
152.4406630085
 30
0.0
 11
118.4043486427
 21
152.6555770085
 31
0.0
  0
LINE
  5
281
330
1F
100
AcDbEntity
  8
SLD-0
  6
Continuous
 62
   179
100
AcDbLine
 10
118.4043486427
 20
152.6555770085
 30
0.0
 11
118.0367856427
 21
152.8402720085
 31
0.0
  0
LINE
  5
282
330
1F
100
AcDbEntity
  8
SLD-0
  6
Continuous
 62
   179
100
AcDbLine
 10
118.0367856427
 20
152.8402720085
 30
0.0
 11
117.6539446427
 21
152.9933420085
 31
0.0
  0
LINE
  5
283
330
1F
100
AcDbEntity
  8
SLD-0
  6
Continuous
 62
   179
100
AcDbLine
 10
117.6539446427
 20
152.9933420085
 30
0.0
 11
117.2587396427
 21
153.1136210085
 31
0.0
  0
LINE
  5
284
330
1F
100
AcDbEntity
  8
SLD-0
  6
Continuous
 62
   179
100
AcDbLine
 10
117.2587396427
 20
153.1136210085
 30
0.0
 11
116.8541776427
 21
153.2001950085
 31
0.0
  0
LINE
  5
285
330
1F
100
AcDbEntity
  8
SLD-0
  6
Continuous
 62
   179
100
AcDbLine
 10
116.8541776427
 20
153.2001950085
 30
0.0
 11
116.4433386427
 21
153.2524040085
 31
0.0
  0
LINE
  5
286
330
1F
100
AcDbEntity
  8
SLD-0
  6
Continuous
 62
   179
100
AcDbLine
 10
116.4433386427
 20
153.2524040085
 30
0.0
 11
116.0293486427
 21
153.2698510085
 31
0.0
  0
LINE
  5
287
330
1F
100
AcDbEntity
  8
SLD-0
  6
Continuous
 62
   179
100
AcDbLine
 10
116.0293486427
 20
153.2698510085
 30
0.0
 11
115.6153596427
 21
153.2524040085
 31
0.0
  0
LINE
  5
288
330
1F
100
AcDbEntity
  8
SLD-0
  6
Continuous
 62
   179
100
AcDbLine
 10
115.6153596427
 20
153.2524040085
 30
0.0
 11
115.2045206427
 21
153.2001950085
 31
0.0
  0
LINE
  5
289
330
1F
100
AcDbEntity
  8
SLD-0
  6
Continuous
 62
   179
100
AcDbLine
 10
115.2045206427
 20
153.2001950085
 30
0.0
 11
114.7999586427
 21
153.1136210085
 31
0.0
  0
LINE
  5
28A
330
1F
100
AcDbEntity
  8
SLD-0
  6
Continuous
 62
   179
100
AcDbLine
 10
114.7999586427
 20
153.1136210085
 30
0.0
 11
114.4047536427
 21
152.9933420085
 31
0.0
  0
LINE
  5
28B
330
1F
100
AcDbEntity
  8
SLD-0
  6
Continuous
 62
   179
100
AcDbLine
 10
114.4047536427
 20
152.9933420085
 30
0.0
 11
114.0219126427
 21
152.8402720085
 31
0.0
  0
LINE
  5
28C
330
1F
100
AcDbEntity
  8
SLD-0
  6
Continuous
 62
   179
100
AcDbLine
 10
114.0219126427
 20
152.8402720085
 30
0.0
 11
113.6543486427
 21
152.6555770085
 31
0.0
  0
LINE
  5
28D
330
1F
100
AcDbEntity
  8
SLD-0
  6
Continuous
 62
   179
100
AcDbLine
 10
113.6543486427
 20
152.6555770085
 30
0.0
 11
113.3048606427
 21
152.4406630085
 31
0.0
  0
LINE
  5
28E
330
1F
100
AcDbEntity
  8
SLD-0
  6
Continuous
 62
   179
100
AcDbLine
 10
113.3048606427
 20
152.4406630085
 30
0.0
 11
112.9761076427
 21
152.1971650085
 31
0.0
  0
LINE
  5
28F
330
1F
100
AcDbEntity
  8
SLD-0
  6
Continuous
 62
   179
100
AcDbLine
 10
112.9761076427
 20
152.1971650085
 30
0.0
 11
112.6705916427
 21
151.9269360085
 31
0.0
  0
LINE
  5
290
330
1F
100
AcDbEntity
  8
SLD-0
  6
Continuous
 62
   179
100
AcDbLine
 10
112.6705916427
 20
151.9269360085
 30
0.0
 11
112.3906376427
 21
151.6320320085
 31
0.0
  0
LINE
  5
291
330
1F
100
AcDbEntity
  8
SLD-0
  6
Continuous
 62
   179
100
AcDbLine
 10
112.3906376427
 20
151.6320320085
 30
0.0
 11
112.1383766427
 21
151.3146990085
 31
0.0
  0
LINE
  5
292
330
1F
100
AcDbEntity
  8
SLD-0
  6
Continuous
 62
   179
100
AcDbLine
 10
112.1383766427
 20
151.3146990085
 30
0.0
 11
111.9157286427
 21
150.9773510085
 31
0.0
  0
LINE
  5
293
330
1F
100
AcDbEntity
  8
SLD-0
  6
Continuous
 62
   179
100
AcDbLine
 10
111.9157286427
 20
150.9773510085
 30
0.0
 11
111.7243866427
 21
150.6225560085
 31
0.0
  0
LINE
  5
294
330
1F
100
AcDbEntity
  8
SLD-0
  6
Continuous
 62
   179
100
AcDbLine
 10
111.7243866427
 20
150.6225560085
 30
0.0
 11
111.5658086427
 21
150.2530130085
 31
0.0
  0
LINE
  5
295
330
1F
100
AcDbEntity
  8
SLD-0
  6
Continuous
 62
   179
100
AcDbLine
 10
111.5658086427
 20
150.2530130085
 30
0.0
 11
111.4412016427
 21
149.8715360085
 31
0.0
  0
LINE
  5
296
330
1F
100
AcDbEntity
  8
SLD-0
  6
Continuous
 62
   179
100
AcDbLine
 10
111.4412016427
 20
149.8715360085
 30
0.0
 11
111.3515126427
 21
149.4810280085
 31
0.0
  0
LINE
  5
297
330
1F
100
AcDbEntity
  8
SLD-0
  6
Continuous
 62
   179
100
AcDbLine
 10
111.3515126427
 20
149.4810280085
 30
0.0
 11
111.2974246427
 21
149.0844600085
 31
0.0
  0
LINE
  5
298
330
1F
100
AcDbEntity
  8
SLD-0
  6
Continuous
 62
   179
100
AcDbLine
 10
111.2974246427
 20
149.0844600085
 30
0.0
 11
111.2793486427
 21
148.6848510085
 31
0.0
  0
LINE
  5
299
330
1F
100
AcDbEntity
  8
SLD-0
  6
Continuous
 62
   179
100
AcDbLine
 10
111.2793486427
 20
148.6848510085
 30
0.0
 11
111.2974246427
 21
148.2852420085
 31
0.0
  0
LINE
  5
29A
330
1F
100
AcDbEntity
  8
SLD-0
  6
Continuous
 62
   179
100
AcDbLine
 10
111.2974246427
 20
148.2852420085
 30
0.0
 11
111.3515126427
 21
147.8886740085
 31
0.0
  0
LINE
  5
29B
330
1F
100
AcDbEntity
  8
SLD-0
  6
Continuous
 62
   179
100
AcDbLine
 10
111.3515126427
 20
147.8886740085
 30
0.0
 11
111.4412016427
 21
147.4981660085
 31
0.0
  0
LINE
  5
29C
330
1F
100
AcDbEntity
  8
SLD-0
  6
Continuous
 62
   179
100
AcDbLine
 10
111.4412016427
 20
147.4981660085
 30
0.0
 11
111.5658086427
 21
147.1166890085
 31
0.0
  0
LINE
  5
29D
330
1F
100
AcDbEntity
  8
SLD-0
  6
Continuous
 62
   179
100
AcDbLine
 10
111.5658086427
 20
147.1166890085
 30
0.0
 11
111.7243866427
 21
146.7471460085
 31
0.0
  0
LINE
  5
29E
330
1F
100
AcDbEntity
  8
SLD-0
  6
Continuous
 62
   179
100
AcDbLine
 10
111.7243866427
 20
146.7471460085
 30
0.0
 11
111.9157286427
 21
146.3923510085
 31
0.0
  0
LINE
  5
29F
330
1F
100
AcDbEntity
  8
SLD-0
  6
Continuous
 62
   179
100
AcDbLine
 10
111.9157286427
 20
146.3923510085
 30
0.0
 11
112.1383766427
 21
146.0550030085
 31
0.0
  0
LINE
  5
2A0
330
1F
100
AcDbEntity
  8
SLD-0
  6
Continuous
 62
   179
100
AcDbLine
 10
112.1383766427
 20
146.0550030085
 30
0.0
 11
112.3906376427
 21
145.7376700085
 31
0.0
  0
LINE
  5
2A1
330
1F
100
AcDbEntity
  8
SLD-0
  6
Continuous
 62
   179
100
AcDbLine
 10
112.3906376427
 20
145.7376700085
 30
0.0
 11
112.6705916427
 21
145.4427660085
 31
0.0
  0
LINE
  5
2A2
330
1F
100
AcDbEntity
  8
SLD-0
  6
Continuous
 62
   179
100
AcDbLine
 10
112.6705916427
 20
145.4427660085
 30
0.0
 11
112.9761076427
 21
145.1725370085
 31
0.0
  0
LINE
  5
2A3
330
1F
100
AcDbEntity
  8
SLD-0
  6
Continuous
 62
   179
100
AcDbLine
 10
112.9761076427
 20
145.1725370085
 30
0.0
 11
113.3048606427
 21
144.9290390085
 31
0.0
  0
LINE
  5
2A4
330
1F
100
AcDbEntity
  8
SLD-0
  6
Continuous
 62
   179
100
AcDbLine
 10
113.3048606427
 20
144.9290390085
 30
0.0
 11
113.6543486427
 21
144.7141250085
 31
0.0
  0
LINE
  5
2A5
330
1F
100
AcDbEntity
  8
SLD-0
  6
Continuous
 62
   179
100
AcDbLine
 10
113.6543486427
 20
144.7141250085
 30
0.0
 11
114.0219126427
 21
144.5294300085
 31
0.0
  0
LINE
  5
2A6
330
1F
100
AcDbEntity
  8
SLD-0
  6
Continuous
 62
   179
100
AcDbLine
 10
114.0219126427
 20
144.5294300085
 30
0.0
 11
114.4047536427
 21
144.3763600085
 31
0.0
  0
LINE
  5
2A7
330
1F
100
AcDbEntity
  8
SLD-0
  6
Continuous
 62
   179
100
AcDbLine
 10
114.4047536427
 20
144.3763600085
 30
0.0
 11
114.7999586427
 21
144.2560810085
 31
0.0
  0
LINE
  5
2A8
330
1F
100
AcDbEntity
  8
SLD-0
  6
Continuous
 62
   179
100
AcDbLine
 10
114.7999586427
 20
144.2560810085
 30
0.0
 11
115.2045206427
 21
144.1695070085
 31
0.0
  0
LINE
  5
2A9
330
1F
100
AcDbEntity
  8
SLD-0
  6
Continuous
 62
   179
100
AcDbLine
 10
115.2045206427
 20
144.1695070085
 30
0.0
 11
115.6153596427
 21
144.1172980085
 31
0.0
  0
LINE
  5
2AA
330
1F
100
AcDbEntity
  8
SLD-0
  6
Continuous
 62
   179
100
AcDbLine
 10
115.6153596427
 20
144.1172980085
 30
0.0
 11
116.0293486427
 21
144.0998510085
 31
0.0
  0
LINE
  5
2AB
330
1F
100
AcDbEntity
  8
SLD-0
  6
Continuous
 62
   179
100
AcDbLine
 10
116.0293486427
 20
144.0998510085
 30
0.0
 11
116.4433386427
 21
144.1172980085
 31
0.0
  0
LINE
  5
2AC
330
1F
100
AcDbEntity
  8
SLD-0
  6
Continuous
 62
   179
100
AcDbLine
 10
116.4433386427
 20
144.1172980085
 30
0.0
 11
116.8541776427
 21
144.1695070085
 31
0.0
  0
LINE
  5
2AD
330
1F
100
AcDbEntity
  8
SLD-0
  6
Continuous
 62
   179
100
AcDbLine
 10
116.8541776427
 20
144.1695070085
 30
0.0
 11
117.2587396427
 21
144.2560810085
 31
0.0
  0
LINE
  5
2AE
330
1F
100
AcDbEntity
  8
SLD-0
  6
Continuous
 62
   179
100
AcDbLine
 10
117.2587396427
 20
144.2560810085
 30
0.0
 11
117.6539446427
 21
144.3763600085
 31
0.0
  0
LINE
  5
2AF
330
1F
100
AcDbEntity
  8
SLD-0
  6
Continuous
 62
   179
100
AcDbLine
 10
117.6539446427
 20
144.3763600085
 30
0.0
 11
118.0367856427
 21
144.5294300085
 31
0.0
  0
LINE
  5
2B0
330
1F
100
AcDbEntity
  8
SLD-0
  6
Continuous
 62
   179
100
AcDbLine
 10
118.0367856427
 20
144.5294300085
 30
0.0
 11
118.4043486427
 21
144.7141250085
 31
0.0
  0
LINE
  5
2B1
330
1F
100
AcDbEntity
  8
SLD-0
  6
Continuous
 62
   179
100
AcDbLine
 10
118.4043486427
 20
144.7141250085
 30
0.0
 11
118.7538366427
 21
144.9290390085
 31
0.0
  0
LINE
  5
2B2
330
1F
100
AcDbEntity
  8
SLD-0
  6
Continuous
 62
   179
100
AcDbLine
 10
118.7538366427
 20
144.9290390085
 30
0.0
 11
119.0825906427
 21
145.1725370085
 31
0.0
  0
LINE
  5
2B3
330
1F
100
AcDbEntity
  8
SLD-0
  6
Continuous
 62
   179
100
AcDbLine
 10
119.0825906427
 20
145.1725370085
 30
0.0
 11
119.3881066427
 21
145.4427660085
 31
0.0
  0
LINE
  5
2B4
330
1F
100
AcDbEntity
  8
SLD-0
  6
Continuous
 62
   179
100
AcDbLine
 10
119.3881066427
 20
145.4427660085
 30
0.0
 11
119.6680596427
 21
145.7376700085
 31
0.0
  0
LINE
  5
2B5
330
1F
100
AcDbEntity
  8
SLD-0
  6
Continuous
 62
   179
100
AcDbLine
 10
119.6680596427
 20
145.7376700085
 30
0.0
 11
119.9203216427
 21
146.0550030085
 31
0.0
  0
LINE
  5
2B6
330
1F
100
AcDbEntity
  8
SLD-0
  6
Continuous
 62
   179
100
AcDbLine
 10
119.9203216427
 20
146.0550030085
 30
0.0
 11
120.1429696427
 21
146.3923510085
 31
0.0
  0
LINE
  5
2B7
330
1F
100
AcDbEntity
  8
SLD-0
  6
Continuous
 62
   179
100
AcDbLine
 10
120.1429696427
 20
146.3923510085
 30
0.0
 11
120.3343106427
 21
146.7471460085
 31
0.0
  0
LINE
  5
2B8
330
1F
100
AcDbEntity
  8
SLD-0
  6
Continuous
 62
   179
100
AcDbLine
 10
120.3343106427
 20
146.7471460085
 30
0.0
 11
120.4928886427
 21
147.1166890085
 31
0.0
  0
LINE
  5
2B9
330
1F
100
AcDbEntity
  8
SLD-0
  6
Continuous
 62
   179
100
AcDbLine
 10
120.4928886427
 20
147.1166890085
 30
0.0
 11
120.6174966427
 21
147.4981660085
 31
0.0
  0
LINE
  5
2BA
330
1F
100
AcDbEntity
  8
SLD-0
  6
Continuous
 62
   179
100
AcDbLine
 10
120.6174966427
 20
147.4981660085
 30
0.0
 11
120.7071856427
 21
147.8886740085
 31
0.0
  0
LINE
  5
2BB
330
1F
100
AcDbEntity
  8
SLD-0
  6
Continuous
 62
   179
100
AcDbLine
 10
120.7071856427
 20
147.8886740085
 30
0.0
 11
120.7612736427
 21
148.2852420085
 31
0.0
  0
LINE
  5
2BC
330
1F
100
AcDbEntity
  8
SLD-0
  6
Continuous
 62
   179
100
AcDbLine
 10
120.7612736427
 20
148.2852420085
 30
0.0
 11
120.7793486427
 21
148.6848510085
 31
0.0
  0
ARC
  5
2BD
330
1F
100
AcDbEntity
  8
SLD-0
  6
Continuous
 62
   179
100
AcDbCircle
 10
102.9059206427
 20
40.9848510085
 30
0.0
 40
4.000000000000014
100
AcDbArc
 50
180.0
 51
270.0
  0
ARC
  5
2BE
330
1F
100
AcDbEntity
  8
SLD-0
  6
Continuous
 62
   179
100
AcDbCircle
 10
102.9059206427
 20
77.9848510085
 30
0.0
 40
4.000000000000014
100
AcDbArc
 50
90.0
 51
180.0
  0
ARC
  5
2BF
330
1F
100
AcDbEntity
  8
SLD-0
  6
Continuous
 62
   179
100
AcDbCircle
 10
102.9059206427
 20
85.9848510085
 30
0.0
 40
4.0
100
AcDbArc
 50
270.0
 51
0.0
  0
ARC
  5
2C0
330
1F
100
AcDbEntity
  8
SLD-0
  6
Continuous
 62
   179
100
AcDbCircle
 10
114.9059206427
 20
87.9848510085
 30
0.0
 40
8.0
100
AcDbArc
 50
90.0
 51
180.0
  0
ARC
  5
2C1
330
1F
100
AcDbEntity
  8
SLD-0
  6
Continuous
 62
   179
100
AcDbCircle
 10
119.9059206427
 20
87.9848510085
 30
0.0
 40
8.0
100
AcDbArc
 50
0.0
 51
90.0
  0
ARC
  5
2C2
330
1F
100
AcDbEntity
  8
SLD-0
  6
Continuous
 62
   179
100
AcDbCircle
 10
131.9059206427
 20
85.9848510085
 30
0.0
 40
4.0
100
AcDbArc
 50
180.0
 51
270.0
  0
ARC
  5
2C3
330
1F
100
AcDbEntity
  8
SLD-0
  6
Continuous
 62
   179
100
AcDbCircle
 10
131.9059206427
 20
32.9848510085
 30
0.0
 40
4.0
100
AcDbArc
 50
90.0
 51
180.0
  0
ARC
  5
2C4
330
1F
100
AcDbEntity
  8
SLD-0
  6
Continuous
 62
   179
100
AcDbCircle
 10
119.9059206427
 20
30.9848510085
 30
0.0
 40
8.0
100
AcDbArc
 50
270.0
 51
360.0
  0
ARC
  5
2C5
330
1F
100
AcDbEntity
  8
SLD-0
  6
Continuous
 62
   179
100
AcDbCircle
 10
114.9059206427
 20
30.9848510085
 30
0.0
 40
8.0
100
AcDbArc
 50
180.0
 51
270.0
  0
ARC
  5
2C6
330
1F
100
AcDbEntity
  8
SLD-0
  6
Continuous
 62
   179
100
AcDbCircle
 10
102.9059206427
 20
32.9848510085
 30
0.0
 40
4.0
100
AcDbArc
 50
360.0
 51
90.0
  0
ARC
  5
2C7
330
1F
100
AcDbEntity
  8
SLD-0
  6
Continuous
 62
   179
100
AcDbCircle
 10
110.2059206427
 20
59.4848510085
 30
0.0
 40
22.50000000000002
100
AcDbArc
 50
120.14713
 51
239.85287
  0
ARC
  5
2C8
330
1F
100
AcDbEntity
  8
SLD-0
  6
Continuous
 62
   179
100
AcDbCircle
 10
110.2059206427
 20
59.4848510085
 30
0.0
 40
21.00000000000001
100
AcDbArc
 50
122.554067
 51
148.997281
  0
ARC
  5
2C9
330
1F
100
AcDbEntity
  8
SLD-0
  6
Continuous
 62
   179
100
AcDbCircle
 10
110.2059206427
 20
59.4848510085
 30
0.0
 40
21.00000000000001
100
AcDbArc
 50
211.002719
 51
237.445933
  0
ARC
  5
2CA
330
1F
100
AcDbEntity
  8
SLD-0
  6
Continuous
 62
   179
100
AcDbCircle
 10
119.2059206427
 20
30.9848510085
 30
0.0
 40
3.200000000000021
100
AcDbArc
 50
270.0
 51
90.0
  0
ARC
  5
2CB
330
1F
100
AcDbEntity
  8
SLD-0
  6
Continuous
 62
   179
100
AcDbCircle
 10
115.6059206427
 20
30.9848510085
 30
0.0
 40
3.200000000000021
100
AcDbArc
 50
90.0
 51
270.0
  0
ARC
  5
2CC
330
1F
100
AcDbEntity
  8
SLD-0
  6
Continuous
 62
   179
100
AcDbCircle
 10
151.2059207684
 20
69.9848514746
 30
0.0
 40
0.7999999241107922
100
AcDbArc
 50
105.0874850831
 51
254.9124962748
  0
ARC
  5
2CD
330
1F
100
AcDbEntity
  8
SLD-0
  6
Continuous
 62
   179
100
AcDbCircle
 10
177.7059206427
 20
63.9848510085
 30
0.0
 40
0.5
100
AcDbArc
 50
0.0
 51
90.0
  0
ARC
  5
2CE
330
1F
100
AcDbEntity
  8
SLD-0
  6
Continuous
 62
   179
100
AcDbCircle
 10
177.7059206427
 20
54.9848510085
 30
0.0
 40
0.5
100
AcDbArc
 50
270.0
 51
0.0
  0
ARC
  5
2CF
330
1F
100
AcDbEntity
  8
SLD-0
  6
Continuous
 62
   179
100
AcDbCircle
 10
173.4559206427
 20
56.2748510085
 30
0.0
 40
0.25
100
AcDbArc
 50
0.0
 51
90.0
  0
ARC
  5
2D0
330
1F
100
AcDbEntity
  8
SLD-0
  6
Continuous
 62
   179
100
AcDbCircle
 10
173.4559206427
 20
62.6948510085
 30
0.0
 40
0.25
100
AcDbArc
 50
270.0
 51
0.0
  0
ARC
  5
2D1
330
1F
100
AcDbEntity
  8
SLD-0
  6
Continuous
 62
   179
100
AcDbCircle
 10
151.2059207684
 20
48.9848514746
 30
0.0
 40
0.7999999241107785
100
AcDbArc
 50
105.0874850831
 51
254.9124962748
  0
ARC
  5
2D2
330
1F
100
AcDbEntity
  8
SLD-0
  6
Continuous
 62
   179
100
AcDbCircle
 10
267.7848426427
 20
188.6848510085
 30
0.0
 40
4.000000000000057
100
AcDbArc
 50
0.0
 51
90.0
  0
ARC
  5
2D3
330
1F
100
AcDbEntity
  8
SLD-0
  6
Continuous
 62
   179
100
AcDbCircle
 10
265.7848426427
 20
200.6848510085
 30
0.0
 40
8.000000000000114
100
AcDbArc
 50
180.0
 51
270.0
  0
ARC
  5
2D4
330
1F
100
AcDbEntity
  8
SLD-0
  6
Continuous
 62
   179
100
AcDbCircle
 10
265.7848426427
 20
205.6848510085
 30
0.0
 40
8.000000000000114
100
AcDbArc
 50
90.0
 51
180.0
  0
ARC
  5
2D5
330
1F
100
AcDbEntity
  8
SLD-0
  6
Continuous
 62
   179
100
AcDbCircle
 10
276.2848426427
 20
217.6848510085
 30
0.0
 40
4.000000000000028
100
AcDbArc
 50
270.0
 51
90.0
  0
ARC
  5
2D6
330
1F
100
AcDbEntity
  8
SLD-0
  6
Continuous
 62
   179
100
AcDbCircle
 10
274.7848426427
 20
224.6848510085
 30
0.0
 40
3.0
100
AcDbArc
 50
180.0
 51
270.0
  0
CIRCLE
  5
2D7
330
1F
100
AcDbEntity
  8
SLD-0
  6
Continuous
 62
   179
100
AcDbCircle
 10
276.2848426427
 20
217.6848510085
 30
0.0
 40
2.980384999999956
  0
CIRCLE
  5
2D8
330
1F
100
AcDbEntity
  8
SLD-0
  6
Continuous
 62
   179
100
AcDbCircle
 10
276.2848426427
 20
217.6848510085
 30
0.0
 40
3.5
  0
ARC
  5
2D9
330
1F
100
AcDbEntity
  8
SLD-0
  6
Continuous
 62
   179
100
AcDbCircle
 10
311.7848426427
 20
239.1848510085
 30
0.0
 40
5.0
100
AcDbArc
 50
0.0
 51
90.0
  0
CIRCLE
  5
2DA
330
1F
100
AcDbEntity
  8
SLD-0
  6
Continuous
 62
   179
100
AcDbCircle
 10
312.2848426427
 20
217.6848510085
 30
0.0
 40
3.5
  0
CIRCLE
  5
2DB
330
1F
100
AcDbEntity
  8
SLD-0
  6
Continuous
 62
   179
100
AcDbCircle
 10
312.2848426427
 20
217.6848510085
 30
0.0
 40
2.980385000000013
  0
ARC
  5
2DC
330
1F
100
AcDbEntity
  8
SLD-0
  6
Continuous
 62
   179
100
AcDbCircle
 10
313.7848426427
 20
224.6848510085
 30
0.0
 40
3.0
100
AcDbArc
 50
270.0
 51
0.0
  0
ARC
  5
2DD
330
1F
100
AcDbEntity
  8
SLD-0
  6
Continuous
 62
   179
100
AcDbCircle
 10
312.2848426427
 20
217.6848510085
 30
0.0
 40
4.000000000000028
100
AcDbArc
 50
90.0
 51
270.0
  0
ARC
  5
2DE
330
1F
100
AcDbEntity
  8
SLD-0
  6
Continuous
 62
   179
100
AcDbCircle
 10
322.7848426427
 20
205.6848510085
 30
0.0
 40
8.000000000000057
100
AcDbArc
 50
0.0
 51
90.0
  0
ARC
  5
2DF
330
1F
100
AcDbEntity
  8
SLD-0
  6
Continuous
 62
   179
100
AcDbCircle
 10
322.7848426427
 20
200.6848510085
 30
0.0
 40
8.000000000000057
100
AcDbArc
 50
270.0
 51
0.0
  0
ARC
  5
2E0
330
1F
100
AcDbEntity
  8
SLD-0
  6
Continuous
 62
   179
100
AcDbCircle
 10
320.7848426427
 20
188.6848510085
 30
0.0
 40
4.0
100
AcDbArc
 50
90.0
 51
180.0
  0
ARC
  5
2E1
330
1F
100
AcDbEntity
  8
SLD-0
  6
Continuous
 62
   179
100
AcDbCircle
 10
304.7848431089
 20
137.1848508829
 30
0.0
 40
0.7999999241107288
100
AcDbArc
 50
15.0874850831
 51
164.9124962748
  0
ARC
  5
2E2
330
1F
100
AcDbEntity
  8
SLD-0
  6
Continuous
 62
   179
100
AcDbCircle
 10
283.7848431089
 20
137.1848508829
 30
0.0
 40
0.7999999241106993
100
AcDbArc
 50
15.0874850831
 51
164.9124962748
  0
ARC
  5
2E3
330
1F
100
AcDbEntity
  8
SLD-0
  6
Continuous
 62
   179
100
AcDbCircle
 10
274.7848426427
 20
170.6848510085
 30
0.0
 40
3.0
100
AcDbArc
 50
90.0
 51
180.0
  0
ARC
  5
2E4
330
1F
100
AcDbEntity
  8
SLD-0
  6
Continuous
 62
   179
100
AcDbCircle
 10
276.2848426427
 20
177.6848510085
 30
0.0
 40
4.0
100
AcDbArc
 50
270.0
 51
90.0
  0
ARC
  5
2E5
330
1F
100
AcDbEntity
  8
SLD-0
  6
Continuous
 62
   179
100
AcDbCircle
 10
274.7848426427
 20
184.6848510085
 30
0.0
 40
3.0
100
AcDbArc
 50
180.0
 51
270.0
  0
CIRCLE
  5
2E6
330
1F
100
AcDbEntity
  8
SLD-0
  6
Continuous
 62
   179
100
AcDbCircle
 10
276.2848426427
 20
177.6848510085
 30
0.0
 40
2.980384999999956
  0
CIRCLE
  5
2E7
330
1F
100
AcDbEntity
  8
SLD-0
  6
Continuous
 62
   179
100
AcDbCircle
 10
276.2848426427
 20
177.6848510085
 30
0.0
 40
3.5
  0
CIRCLE
  5
2E8
330
1F
100
AcDbEntity
  8
SLD-0
  6
Continuous
 62
   179
100
AcDbCircle
 10
286.5348426427
 20
195.4348510085
 30
0.0
 40
2.75
  0
CIRCLE
  5
2E9
330
1F
100
AcDbEntity
  8
SLD-0
  6
Continuous
 62
   179
100
AcDbCircle
 10
286.5348426427
 20
195.4348510085
 30
0.0
 40
3.25
  0
CIRCLE
  5
2EA
330
1F
100
AcDbEntity
  8
SLD-0
  6
Continuous
 62
   179
100
AcDbCircle
 10
277.2848426427
 20
203.1848510085
 30
0.0
 40
3.0
  0
ARC
  5
2EB
330
1F
100
AcDbEntity
  8
SLD-0
  6
Continuous
 62
   179
100
AcDbCircle
 10
265.7848426427
 20
201.3848510085
 30
0.0
 40
3.200000000000159
100
AcDbArc
 50
180.0
 51
0.0
  0
ARC
  5
2EC
330
1F
100
AcDbEntity
  8
SLD-0
  6
Continuous
 62
   179
100
AcDbCircle
 10
265.7848426427
 20
204.9848510085
 30
0.0
 40
3.200000000000159
100
AcDbArc
 50
0.0
 51
180.0
  0
CIRCLE
  5
2ED
330
1F
100
AcDbEntity
  8
SLD-0
  6
Continuous
 62
   179
100
AcDbCircle
 10
286.5348426427
 20
210.9348510085
 30
0.0
 40
2.75
  0
CIRCLE
  5
2EE
330
1F
100
AcDbEntity
  8
SLD-0
  6
Continuous
 62
   179
100
AcDbCircle
 10
286.5348426427
 20
210.9348510085
 30
0.0
 40
3.25
  0
CIRCLE
  5
2EF
330
1F
100
AcDbEntity
  8
SLD-0
  6
Continuous
 62
   179
100
AcDbCircle
 10
294.2848426427
 20
223.1848510085
 30
0.0
 40
4.5
  0
CIRCLE
  5
2F0
330
1F
100
AcDbEntity
  8
SLD-0
  6
Continuous
 62
   179
100
AcDbCircle
 10
294.2848426427
 20
223.1848510085
 30
0.0
 40
5.0
  0
CIRCLE
  5
2F1
330
1F
100
AcDbEntity
  8
SLD-0
  6
Continuous
 62
   179
100
AcDbCircle
 10
294.2848426427
 20
223.1848510085
 30
0.0
 40
5.5
  0
CIRCLE
  5
2F2
330
1F
100
AcDbEntity
  8
SLD-0
  6
Continuous
 62
   179
100
AcDbCircle
 10
302.0348426427
 20
210.9348510085
 30
0.0
 40
2.749999999999943
  0
CIRCLE
  5
2F3
330
1F
100
AcDbEntity
  8
SLD-0
  6
Continuous
 62
   179
100
AcDbCircle
 10
302.0348426427
 20
210.9348510085
 30
0.0
 40
3.249999999999943
  0
CIRCLE
  5
2F4
330
1F
100
AcDbEntity
  8
SLD-0
  6
Continuous
 62
   179
100
AcDbCircle
 10
311.2848426427
 20
203.1848510085
 30
0.0
 40
2.0
  0
CIRCLE
  5
2F5
330
1F
100
AcDbEntity
  8
SLD-0
  6
Continuous
 62
   179
100
AcDbCircle
 10
311.2848426427
 20
203.1848510085
 30
0.0
 40
3.0
  0
CIRCLE
  5
2F6
330
1F
100
AcDbEntity
  8
SLD-0
  6
Continuous
 62
   179
100
AcDbCircle
 10
302.0348426427
 20
195.4348510085
 30
0.0
 40
2.749999999999943
  0
CIRCLE
  5
2F7
330
1F
100
AcDbEntity
  8
SLD-0
  6
Continuous
 62
   179
100
AcDbCircle
 10
302.0348426427
 20
195.4348510085
 30
0.0
 40
3.249999999999943
  0
CIRCLE
  5
2F8
330
1F
100
AcDbEntity
  8
SLD-0
  6
Continuous
 62
   179
100
AcDbCircle
 10
294.2848426427
 20
183.1848510085
 30
0.0
 40
4.5
  0
CIRCLE
  5
2F9
330
1F
100
AcDbEntity
  8
SLD-0
  6
Continuous
 62
   179
100
AcDbCircle
 10
294.2848426427
 20
183.1848510085
 30
0.0
 40
5.0
  0
CIRCLE
  5
2FA
330
1F
100
AcDbEntity
  8
SLD-0
  6
Continuous
 62
   179
100
AcDbCircle
 10
294.2848426427
 20
183.1848510085
 30
0.0
 40
5.5
  0
CIRCLE
  5
2FB
330
1F
100
AcDbEntity
  8
SLD-0
  6
Continuous
 62
   179
100
AcDbCircle
 10
312.2848426427
 20
177.6848510085
 30
0.0
 40
2.980385000000013
  0
CIRCLE
  5
2FC
330
1F
100
AcDbEntity
  8
SLD-0
  6
Continuous
 62
   179
100
AcDbCircle
 10
312.2848426427
 20
177.6848510085
 30
0.0
 40
3.5
  0
ARC
  5
2FD
330
1F
100
AcDbEntity
  8
SLD-0
  6
Continuous
 62
   179
100
AcDbCircle
 10
312.2848426427
 20
177.6848510085
 30
0.0
 40
4.0
100
AcDbArc
 50
90.0
 51
270.0
  0
ARC
  5
2FE
330
1F
100
AcDbEntity
  8
SLD-0
  6
Continuous
 62
   179
100
AcDbCircle
 10
313.7848426427
 20
170.6848510085
 30
0.0
 40
3.0
100
AcDbArc
 50
0.0
 51
90.0
  0
ARC
  5
2FF
330
1F
100
AcDbEntity
  8
SLD-0
  6
Continuous
 62
   179
100
AcDbCircle
 10
313.7848426427
 20
184.6848510085
 30
0.0
 40
3.0
100
AcDbArc
 50
270.0
 51
0.0
  0
CIRCLE
  5
300
330
1F
100
AcDbEntity
  8
SLD-0
  6
Continuous
 62
   179
100
AcDbCircle
 10
309.2848426427
 20
235.1848510085
 30
0.0
 40
1.649999999999977
  0
ARC
  5
301
330
1F
100
AcDbEntity
  8
SLD-0
  6
Continuous
 62
   179
100
AcDbCircle
 10
276.7848426427
 20
239.1848510085
 30
0.0
 40
5.0
100
AcDbArc
 50
90.0
 51
180.0
  0
CIRCLE
  5
302
330
1F
100
AcDbEntity
  8
SLD-0
  6
Continuous
 62
   179
100
AcDbCircle
 10
279.2848426427
 20
235.1848510085
 30
0.0
 40
1.649999999999977
  0
ARC
  5
303
330
1F
100
AcDbEntity
  8
SLD-0
  6
Continuous
 62
   179
100
AcDbCircle
 10
292.0044916427
 20
258.9848510085
 30
0.0
 40
0.2999999999999999
100
AcDbArc
 50
172.505283
 51
270.0
  0
ARC
  5
304
330
1F
100
AcDbEntity
  8
SLD-0
  6
Continuous
 62
   179
100
AcDbCircle
 10
294.2848425691
 20
258.6848510182
 30
0.0
 40
2.600000074261024
100
AcDbArc
 50
118.569153
 51
172.505283029
  0
ARC
  5
305
330
1F
100
AcDbEntity
  8
SLD-0
  6
Continuous
 62
   179
100
AcDbCircle
 10
293.184938554
 20
260.7048040459
 30
0.0
 40
0.3000002749827461
100
AcDbArc
 50
15.0000403852
 51
118.5691129234
  0
ARC
  5
306
330
1F
100
AcDbEntity
  8
SLD-0
  6
Continuous
 62
   179
100
AcDbCircle
 10
295.3847465487
 20
260.7048039807
 30
0.0
 40
0.3000001588332445
100
AcDbArc
 50
61.430847
 51
164.9999596148
  0
ARC
  5
307
330
1F
100
AcDbEntity
  8
SLD-0
  6
Continuous
 62
   179
100
AcDbCircle
 10
294.2848425691
 20
258.6848510182
 30
0.0
 40
2.599999883850586
100
AcDbArc
 50
7.494717
 51
61.4308423758
  0
ARC
  5
308
330
1F
100
AcDbEntity
  8
SLD-0
  6
Continuous
 62
   179
100
AcDbCircle
 10
296.5651933881
 20
258.9848509343
 30
0.0
 40
0.2999999257389676
100
AcDbArc
 50
270.0000486315
 51
7.4947286384
  0
ARC
  5
309
330
1F
100
AcDbEntity
  8
SLD-0
  6
Continuous
 62
   179
100
AcDbCircle
 10
294.2848425691
 20
258.6848510182
 30
0.0
 40
3.499999864068824
100
AcDbArc
 50
312.4015680896
 51
227.5984319104
  0
CIRCLE
  5
30A
330
1F
100
AcDbEntity
  8
SLD-0
  6
Continuous
 62
   179
100
AcDbCircle
 10
294.2848425691
 20
258.6848510182
 30
0.0
 40
5.500000000000023
  0
CIRCLE
  5
30B
330
1F
100
AcDbEntity
  8
SLD-0
  6
Continuous
 62
   179
100
AcDbCircle
 10
294.2848425691
 20
258.6848510182
 30
0.0
 40
1.500000000000033
  0
CIRCLE
  5
30C
330
1F
100
AcDbEntity
  8
SLD-0
  6
Continuous
 62
   179
100
AcDbCircle
 10
294.2848425691
 20
258.6848510182
 30
0.0
 40
1.999999999999995
  0
ARC
  5
30D
330
1F
100
AcDbEntity
  8
SLD-0
  6
Continuous
 62
   179
100
AcDbCircle
 10
322.7848426427
 20
201.3848510085
 30
0.0
 40
3.199999999999989
100
AcDbArc
 50
180.0
 51
0.0
  0
ARC
  5
30E
330
1F
100
AcDbEntity
  8
SLD-0
  6
Continuous
 62
   179
100
AcDbCircle
 10
322.7848426427
 20
204.9848510085
 30
0.0
 40
3.199999999999989
100
AcDbArc
 50
0.0
 51
180.0
  0
ARC
  5
30F
330
1F
100
AcDbEntity
  8
SLD-0
  6
Continuous
 62
   179
100
AcDbCircle
 10
153.9059206427
 20
179.4848510085
 30
0.0
 40
0.3000000000000114
100
AcDbArc
 50
180.0
 51
0.0
  0
ARC
  5
310
330
1F
100
AcDbEntity
  8
SLD-0
  6
Continuous
 62
   179
100
AcDbCircle
 10
153.9059204227
 20
186.8848510759
 30
0.0
 40
0.3000002301076847
100
AcDbArc
 50
0.0
 51
162.9713682762
  0
ARC
  5
311
330
1F
100
AcDbEntity
  8
SLD-0
  6
Continuous
 62
   179
100
AcDbCircle
 10
151.6504551427
 20
179.4848510085
 30
0.0
 40
0.3000000757970712
100
AcDbArc
 50
192.1196143653
 51
12.1196143652
  0
ARC
  5
312
330
1F
100
AcDbEntity
  8
SLD-0
  6
Continuous
 62
   179
100
AcDbCircle
 10
150.0613861207
 20
186.8848511112
 30
0.0
 40
0.3000000757970757
100
AcDbArc
 50
12.1195943162
 51
192.1196344143
  0
ARC
  5
313
330
1F
100
AcDbEntity
  8
SLD-0
  6
Continuous
 62
   179
100
AcDbCircle
 10
148.4813860622
 20
179.4848512139
 30
0.0
 40
0.3000000976175314
100
AcDbArc
 50
206.0847760675
 51
347.8804056838
  0
ARC
  5
314
330
1F
100
AcDbEntity
  8
SLD-0
  6
Continuous
 62
   179
100
AcDbCircle
 10
145.3213860622
 20
179.4848512139
 30
0.0
 40
0.3000000976171681
100
AcDbArc
 50
206.0847760675
 51
347.8804056838
  0
ARC
  5
315
330
1F
100
AcDbEntity
  8
SLD-0
  6
Continuous
 62
   179
100
AcDbCircle
 10
139.0059206427
 20
186.8848510085
 30
0.0
 40
0.3000000000000114
100
AcDbArc
 50
0.0
 51
180.0
  0
ARC
  5
316
330
1F
100
AcDbEntity
  8
SLD-0
  6
Continuous
 62
   179
100
AcDbCircle
 10
143.7413859188
 20
186.8848510678
 30
0.0
 40
0.3000002823264506
100
AcDbArc
 50
12.1195943162
 51
192.119591
  0
ARC
  5
317
330
1F
100
AcDbEntity
  8
SLD-0
  6
Continuous
 62
   179
100
AcDbCircle
 10
146.9013859188
 20
186.8848510678
 30
0.0
 40
0.3000002823265617
100
AcDbArc
 50
12.1195943162
 51
192.119591
  0
ARC
  5
318
330
1F
100
AcDbEntity
  8
SLD-0
  6
Continuous
 62
   179
100
AcDbCircle
 10
140.5813859188
 20
186.8848510678
 30
0.0
 40
0.3000002823265051
100
AcDbArc
 50
12.1195943163
 51
192.119591
  0
CIRCLE
  5
319
330
1F
100
AcDbEntity
  8
SLD-0
  6
Continuous
 62
   179
100
AcDbCircle
 10
92.2059206427
 20
182.6848510085
 30
0.0
 40
1.649999999999992
  0
ARC
  5
31A
330
1F
100
AcDbEntity
  8
SLD-0
  6
Continuous
 62
   179
100
AcDbCircle
 10
139.0059206427
 20
226.8848510085
 30
0.0
 40
0.3000000000000114
100
AcDbArc
 50
0.0
 51
180.0
  0
ARC
  5
31B
330
1F
100
AcDbEntity
  8
SLD-0
  6
Continuous
 62
   179
100
AcDbCircle
 10
140.5813859188
 20
226.8848510678
 30
0.0
 40
0.3000002823265051
100
AcDbArc
 50
12.1195943163
 51
192.119591
  0
ARC
  5
31C
330
1F
100
AcDbEntity
  8
SLD-0
  6
Continuous
 62
   179
100
AcDbCircle
 10
145.3213860622
 20
219.4848512139
 30
0.0
 40
0.3000000976171681
100
AcDbArc
 50
206.0847760675
 51
347.8804056838
  0
ARC
  5
31D
330
1F
100
AcDbEntity
  8
SLD-0
  6
Continuous
 62
   179
100
AcDbCircle
 10
148.4813860622
 20
219.4848512139
 30
0.0
 40
0.3000000976174301
100
AcDbArc
 50
206.0847760675
 51
347.8804056838
  0
ARC
  5
31E
330
1F
100
AcDbEntity
  8
SLD-0
  6
Continuous
 62
   179
100
AcDbCircle
 10
151.6504551427
 20
219.4848510085
 30
0.0
 40
0.3000000757970892
100
AcDbArc
 50
192.1196143653
 51
12.1196143652
  0
ARC
  5
31F
330
1F
100
AcDbEntity
  8
SLD-0
  6
Continuous
 62
   179
100
AcDbCircle
 10
150.0613861207
 20
226.8848511112
 30
0.0
 40
0.3000000757970917
100
AcDbArc
 50
12.1195943162
 51
192.1196344143
  0
ARC
  5
320
330
1F
100
AcDbEntity
  8
SLD-0
  6
Continuous
 62
   179
100
AcDbCircle
 10
153.9059204227
 20
226.8848510759
 30
0.0
 40
0.3000002301076847
100
AcDbArc
 50
0.0
 51
162.9713682762
  0
ARC
  5
321
330
1F
100
AcDbEntity
  8
SLD-0
  6
Continuous
 62
   179
100
AcDbCircle
 10
143.7413859188
 20
226.8848510678
 30
0.0
 40
0.300000282326401
100
AcDbArc
 50
12.1195943162
 51
192.119591
  0
ARC
  5
322
330
1F
100
AcDbEntity
  8
SLD-0
  6
Continuous
 62
   179
100
AcDbCircle
 10
146.9013859188
 20
226.8848510678
 30
0.0
 40
0.3000002823266222
100
AcDbArc
 50
12.1195943162
 51
192.119591
  0
ARC
  5
323
330
1F
100
AcDbEntity
  8
SLD-0
  6
Continuous
 62
   179
100
AcDbCircle
 10
153.9059206427
 20
219.4848510085
 30
0.0
 40
0.3000000000000114
100
AcDbArc
 50
180.0
 51
0.0
  0
ARC
  5
324
330
1F
100
AcDbEntity
  8
SLD-0
  6
Continuous
 62
   179
100
AcDbCircle
 10
133.7631859917
 20
203.1848510823
 30
0.0
 40
7.642734558308423
100
AcDbArc
 50
342.4120471819
 51
17.5879528181
  0
ARC
  5
325
330
1F
100
AcDbEntity
  8
SLD-0
  6
Continuous
 62
   179
100
AcDbCircle
 10
136.4089128293
 20
207.3577941636
 30
0.0
 40
4.999999642282017
100
AcDbArc
 50
338.1172487482
 51
358.0178219097
  0
ARC
  5
326
330
1F
100
AcDbEntity
  8
SLD-0
  6
Continuous
 62
   179
100
AcDbCircle
 10
143.7029289512
 20
199.0119087405
 30
0.0
 40
5.00000010625628
100
AcDbArc
 50
158.117260017
 51
178.0178322651
  0
ARC
  5
327
330
1F
100
AcDbEntity
  8
SLD-0
  6
Continuous
 62
   179
100
AcDbCircle
 10
136.4089128237
 20
199.0119080148
 30
0.0
 40
4.999999642282055
100
AcDbArc
 50
1.9821762398
 51
21.8827510801
  0
ARC
  5
328
330
1F
100
AcDbEntity
  8
SLD-0
  6
Continuous
 62
   179
100
AcDbCircle
 10
146.3486549917
 20
203.1848510823
 30
0.0
 40
7.642734558308469
100
AcDbArc
 50
162.4120471819
 51
197.5879528181
  0
ARC
  5
329
330
1F
100
AcDbEntity
  8
SLD-0
  6
Continuous
 62
   179
100
AcDbCircle
 10
143.7029289456
 20
207.3577934379
 30
0.0
 40
5.000000106256368
100
AcDbArc
 50
181.9821695854
 51
201.8827401547
  0
ARC
  5
32A
330
1F
100
AcDbEntity
  8
SLD-0
  6
Continuous
 62
   179
100
AcDbCircle
 10
177.7059206427
 20
187.6848510085
 30
0.0
 40
0.5
100
AcDbArc
 50
0.0
 51
90.0
  0
ARC
  5
32B
330
1F
100
AcDbEntity
  8
SLD-0
  6
Continuous
 62
   179
100
AcDbCircle
 10
177.7059206427
 20
178.6848510085
 30
0.0
 40
0.5
100
AcDbArc
 50
270.0
 51
0.0
  0
ARC
  5
32C
330
1F
100
AcDbEntity
  8
SLD-0
  6
Continuous
 62
   179
100
AcDbCircle
 10
173.4559206427
 20
186.3948510085
 30
0.0
 40
0.25
100
AcDbArc
 50
270.0
 51
0.0
  0
ARC
  5
32D
330
1F
100
AcDbEntity
  8
SLD-0
  6
Continuous
 62
   179
100
AcDbCircle
 10
173.4559206427
 20
179.9748510085
 30
0.0
 40
0.25
100
AcDbArc
 50
0.0
 51
90.0
  0
CIRCLE
  5
32E
330
1F
100
AcDbEntity
  8
SLD-0
  6
Continuous
 62
   179
100
AcDbCircle
 10
164.4059206427
 20
203.1848510085
 30
0.0
 40
2.099999999999994
  0
CIRCLE
  5
32F
330
1F
100
AcDbEntity
  8
SLD-0
  6
Continuous
 62
   179
100
AcDbCircle
 10
179.4059206427
 20
203.1848510085
 30
0.0
 40
2.5
  0
ARC
  5
330
330
1F
100
AcDbEntity
  8
SLD-0
  6
Continuous
 62
   179
100
AcDbCircle
 10
177.7059206427
 20
227.6848510085
 30
0.0
 40
0.5
100
AcDbArc
 50
0.0
 51
90.0
  0
ARC
  5
331
330
1F
100
AcDbEntity
  8
SLD-0
  6
Continuous
 62
   179
100
AcDbCircle
 10
177.7059206427
 20
218.6848510085
 30
0.0
 40
0.5
100
AcDbArc
 50
270.0
 51
0.0
  0
ARC
  5
332
330
1F
100
AcDbEntity
  8
SLD-0
  6
Continuous
 62
   179
100
AcDbCircle
 10
173.4559206427
 20
219.9748510085
 30
0.0
 40
0.25
100
AcDbArc
 50
0.0
 51
90.0
  0
ARC
  5
333
330
1F
100
AcDbEntity
  8
SLD-0
  6
Continuous
 62
   179
100
AcDbCircle
 10
173.4559206427
 20
226.3948510085
 30
0.0
 40
0.25
100
AcDbArc
 50
270.0
 51
0.0
  0
ARC
  5
334
330
1F
100
AcDbEntity
  8
SLD-0
  6
Continuous
 62
   179
100
AcDbCircle
 10
155.4059206427
 20
132.9848510085
 30
0.0
 40
2.0
100
AcDbArc
 50
270.0
 51
0.0
  0
ARC
  5
335
330
1F
100
AcDbEntity
  8
SLD-0
  6
Continuous
 62
   179
100
AcDbCircle
 10
121.9012806427
 20
170.6848510085
 30
0.0
 40
2.0
100
AcDbArc
 50
90.0
 51
180.0
  0
ARC
  5
336
330
1F
100
AcDbEntity
  8
SLD-0
  6
Continuous
 62
   179
100
AcDbCircle
 10
98.5105606427
 20
170.6848510085
 30
0.0
 40
2.0
100
AcDbArc
 50
0.0
 51
90.0
  0
ARC
  5
337
330
1F
100
AcDbEntity
  8
SLD-0
  6
Continuous
 62
   179
100
AcDbCircle
 10
137.2059211005
 20
256.9419248218
 30
0.0
 40
14.00000019716923
100
AcDbArc
 50
180.0
 51
251.2506597008
  0
ARC
  5
338
330
1F
100
AcDbEntity
  8
SLD-0
  6
Continuous
 62
   179
100
AcDbCircle
 10
83.2059207061
 20
256.9419248218
 30
0.0
 40
14.00000019716923
100
AcDbArc
 50
288.7493402992
 51
0.0
  0
ARC
  5
339
330
1F
100
AcDbEntity
  8
SLD-0
  6
Continuous
 62
   179
100
AcDbCircle
 10
90.2059206427
 20
151.6848510085
 30
0.0
 40
2.0
100
AcDbArc
 50
0.0
 51
90.0
  0
ARC
  5
33A
330
1F
100
AcDbEntity
  8
SLD-0
  6
Continuous
 62
   179
100
AcDbCircle
 10
130.2059206427
 20
151.6848510085
 30
0.0
 40
2.000000000000028
100
AcDbArc
 50
90.0
 51
180.0
  0
ARC
  5
33B
330
1F
100
AcDbEntity
  8
SLD-0
  6
Continuous
 62
   179
100
AcDbCircle
 10
115.6059206427
 20
87.9848510085
 30
0.0
 40
3.200000000000017
100
AcDbArc
 50
90.0
 51
270.0
  0
ARC
  5
33C
330
1F
100
AcDbEntity
  8
SLD-0
  6
Continuous
 62
   179
100
AcDbCircle
 10
119.2059206427
 20
87.9848510085
 30
0.0
 40
3.200000000000017
100
AcDbArc
 50
270.0
 51
90.0
  0
CIRCLE
  5
33D
330
1F
100
AcDbEntity
  8
SLD-0
  6
Continuous
 62
   179
100
AcDbCircle
 10
128.2059206427
 20
182.6848510085
 30
0.0
 40
1.650000000000034
  0
CIRCLE
  5
33E
330
1F
100
AcDbEntity
  8
SLD-0
  6
Continuous
 62
   179
100
AcDbCircle
 10
128.2059206427
 20
222.6848510085
 30
0.0
 40
1.650000000000034
  0
CIRCLE
  5
33F
330
1F
100
AcDbEntity
  8
SLD-0
  6
Continuous
 62
   179
100
AcDbCircle
 10
92.2059206427
 20
222.6848510085
 30
0.0
 40
1.649999999999992
  0
ARC
  5
340
330
1F
100
AcDbEntity
  8
SLD-0
  6
Continuous
 62
   179
100
AcDbCircle
 10
95.3059206427
 20
256.0848510085
 30
0.0
 40
0.5
100
AcDbArc
 50
180.0
 51
0.0
  0
ARC
  5
341
330
1F
100
AcDbEntity
  8
SLD-0
  6
Continuous
 62
   179
100
AcDbCircle
 10
95.3059206427
 20
260.0848510085
 30
0.0
 40
0.5
100
AcDbArc
 50
0.0
 51
180.0
  0
ARC
  5
342
330
1F
100
AcDbEntity
  8
SLD-0
  6
Continuous
 62
   179
100
AcDbCircle
 10
95.3059206427
 20
258.6848510085
 30
0.0
 40
0.5999999999999952
100
AcDbArc
 50
326.44269
 51
33.55731
  0
ARC
  5
343
330
1F
100
AcDbEntity
  8
SLD-0
  6
Continuous
 62
   179
100
AcDbCircle
 10
95.3059206427
 20
258.6848510085
 30
0.0
 40
0.5999999999999952
100
AcDbArc
 50
146.44269
 51
213.55731
  0
CIRCLE
  5
344
330
1F
100
AcDbEntity
  8
SLD-0
  6
Continuous
 62
   179
100
AcDbCircle
 10
92.2059206427
 20
182.6848510085
 30
0.0
 40
2.0
  0
CIRCLE
  5
345
330
1F
100
AcDbEntity
  8
SLD-0
  6
Continuous
 62
   179
100
AcDbCircle
 10
92.2059206427
 20
222.6848510085
 30
0.0
 40
2.0
  0
CIRCLE
  5
346
330
1F
100
AcDbEntity
  8
SLD-0
  6
Continuous
 62
   179
100
AcDbCircle
 10
179.4059206427
 20
203.1848510085
 30
0.0
 40
2.099999999999994
  0
CIRCLE
  5
347
330
1F
100
AcDbEntity
  8
SLD-0
  6
Continuous
 62
   179
100
AcDbCircle
 10
128.2059206427
 20
182.6848510085
 30
0.0
 40
2.000000000000028
  0
CIRCLE
  5
348
330
1F
100
AcDbEntity
  8
SLD-0
  6
Continuous
 62
   179
100
AcDbCircle
 10
164.4059206427
 20
203.1848510085
 30
0.0
 40
2.5
  0
CIRCLE
  5
349
330
1F
100
AcDbEntity
  8
SLD-0
  6
Continuous
 62
   179
100
AcDbCircle
 10
128.2059206427
 20
222.6848510085
 30
0.0
 40
2.000000000000028
  0
CIRCLE
  5
34A
330
1F
100
AcDbEntity
  8
SLD-0
  6
Continuous
 62
   179
100
AcDbCircle
 10
279.2848426427
 20
235.1848510085
 30
0.0
 40
2.0
  0
CIRCLE
  5
34B
330
1F
100
AcDbEntity
  8
SLD-0
  6
Continuous
 62
   179
100
AcDbCircle
 10
309.2848426427
 20
235.1848510085
 30
0.0
 40
2.0
  0
CIRCLE
  5
34C
330
1F
100
AcDbEntity
  8
SLD-0
  6
Continuous
 62
   179
100
AcDbCircle
 10
311.2848426427
 20
203.1848510085
 30
0.0
 40
1.649999999999977
  0
MTEXT
  5
34E
330
1F
100
AcDbEntity
  8
SLD-0
 62
     7
100
AcDbMText
 10
354.4588638759
 20
48.208833434
 30
0.0
 40
4.8000001907
 41
0.0
 71
     1
 72
     1
  1
エアニッパー
  7
SLDTEXTSTYLE2
 73
     1
 44
1.0
  0
MTEXT
  5
350
330
1F
100
AcDbEntity
  8
SLD-0
 62
     7
100
AcDbMText
 10
346.5207420451
 20
41.6855096203
 30
0.0
 40
4.8000001907
 41
0.0
 71
     1
 72
     1
  1
（スライドタイプ）
  7
SLDTEXTSTYLE3
 73
     1
 44
1.0
  0
MTEXT
  5
352
330
1F
100
AcDbEntity
  8
SLD-0
 62
     7
100
AcDbMText
 10
338.2105345207
 20
31.2990290184
 30
0.0
 40
4.8000001907
 41
0.0
 71
     1
 72
     1
  1
ＧＴ－ＮＢ２０（１０－Ｈｉｋｕ）
  7
SLDTEXTSTYLE4
 73
     1
 44
1.0
  0
MTEXT
  5
354
330
1F
100
AcDbEntity
  8
SLD-0
 62
     7
100
AcDbMText
 10
353.7207412583
 20
19.4869530399
 30
0.0
 40
4.8000001907
 41
0.0
 71
     1
 72
     1
  1
１３０２３１
  7
SLDTEXTSTYLE5
 73
     1
 44
1.0
  0
INSERT
  5
355
330
1F
100
AcDbEntity
  8
0
  6
Continuous
 62
     7
370
     0
100
AcDbBlockReference
  2
KOZU0001
 10
310.3409832494
 20
236.8832523212
 30
0.0
  0
INSERT
  5
356
330
1F
100
AcDbEntity
  8
0
  6
Continuous
 62
     7
370
     0
100
AcDbBlockReference
  2
KOZU0002
 10
117.1386965318
 20
144.2450434667
 30
0.0
  0
ENDSEC
  0
SECTION
  2
OBJECTS
  0
DICTIONARY
  5
C
330
0
100
AcDbDictionary
281
     1
  3
ACAD_GROUP
350
D
  3
ACAD_LAYOUT
350
1A
  3
ACAD_MLINESTYLE
350
17
  3
ACAD_PLOTSETTINGS
350
19
  3
ACAD_PLOTSTYLENAME
350
E
  0
DICTIONARY
  5
D
102
{ACAD_REACTORS
330
C
102
}
330
C
100
AcDbDictionary
281
     1
  0
DICTIONARY
  5
1A
102
{ACAD_REACTORS
330
C
102
}
330
C
100
AcDbDictionary
281
     1
  3
Layout1
350
1E
  3
Layout2
350
26
  3
Model
350
22
  0
DICTIONARY
  5
17
102
{ACAD_REACTORS
330
C
102
}
330
C
100
AcDbDictionary
281
     1
  3
Standard
350
18
  0
DICTIONARY
  5
19
102
{ACAD_REACTORS
330
C
102
}
330
C
100
AcDbDictionary
281
     1
  0
ACDBDICTIONARYWDFLT
  5
E
102
{ACAD_REACTORS
330
C
102
}
330
C
100
AcDbDictionary
281
     1
  3
Normal
350
F
100
AcDbDictionaryWithDefault
340
F
  0
LAYOUT
  5
1E
102
{ACAD_REACTORS
330
1A
102
}
330
1A
100
AcDbPlotSettings
  1

  2

  4

  6

 40
0.0
 41
0.0
 42
0.0
 43
0.0
 44
0.0
 45
0.0
 46
0.0
 47
0.0
 48
0.0
 49
0.0
140
0.0
141
0.0
142
1.0
143
1.0
 70
   688
 72
     0
 73
     0
 74
     5
  7

 75
    16
147
1.0
148
0.0
149
0.0
100
AcDbLayout
  1
Layout1
 70
     1
 71
     1
 10
0.0
 20
0.0
 11
0.0
 21
0.0
 12
0.0
 22
0.0
 32
0.0
 14
0.0
 24
0.0
 34
0.0
 15
0.0
 25
0.0
 35
0.0
146
0.0
 13
0.0
 23
0.0
 33
0.0
 16
1.0
 26
0.0
 36
0.0
 17
0.0
 27
1.0
 37
0.0
 76
     0
330
1B
  0
LAYOUT
  5
26
102
{ACAD_REACTORS
330
1A
102
}
330
1A
100
AcDbPlotSettings
  1

  2

  4

  6

 40
0.0
 41
0.0
 42
0.0
 43
0.0
 44
0.0
 45
0.0
 46
0.0
 47
0.0
 48
0.0
 49
0.0
140
0.0
141
0.0
142
1.0
143
1.0
 70
   688
 72
     0
 73
     0
 74
     5
  7

 75
    16
147
1.0
148
0.0
149
0.0
100
AcDbLayout
  1
Layout2
 70
     1
 71
     2
 10
0.0
 20
0.0
 11
0.0
 21
0.0
 12
0.0
 22
0.0
 32
0.0
 14
0.0
 24
0.0
 34
0.0
 15
0.0
 25
0.0
 35
0.0
146
0.0
 13
0.0
 23
0.0
 33
0.0
 16
1.0
 26
0.0
 36
0.0
 17
0.0
 27
1.0
 37
0.0
 76
     0
330
23
  0
LAYOUT
  5
22
102
{ACAD_REACTORS
330
1A
102
}
330
1A
100
AcDbPlotSettings
  1

  2

  4

  6

 40
0.0
 41
0.0
 42
0.0
 43
0.0
 44
0.0
 45
0.0
 46
0.0
 47
0.0
 48
0.0
 49
0.0
140
0.0
141
0.0
142
1.0
143
1.0
 70
  1712
 72
     0
 73
     0
 74
     0
  7

 75
     0
147
1.0
148
0.0
149
0.0
100
AcDbLayout
  1
Model
 70
     1
 71
     0
 10
0.0
 20
0.0
 11
0.0
 21
0.0
 12
0.0
 22
0.0
 32
0.0
 14
0.0
 24
0.0
 34
0.0
 15
420.0
 25
297.0
 35
0.0
146
0.0
 13
0.0
 23
0.0
 33
0.0
 16
1.0
 26
0.0
 36
0.0
 17
0.0
 27
1.0
 37
0.0
 76
     0
330
1F
  0
MLINESTYLE
  5
18
102
{ACAD_REACTORS
330
17
102
}
330
17
100
AcDbMlineStyle
  2
Standard
 70
     0
  3

 62
   256
 51
90.0
 52
90.0
 71
     2
 49
0.5
 62
   256
  6
BYLAYER
 49
-0.5
 62
   256
  6
BYLAYER
  0
ACDBPLACEHOLDER
  5
F
102
{ACAD_REACTORS
330
E
102
}
330
E
  0
ENDSEC
  0
EOF
