  0
SECTION
  2
HEADER
  9
$ACADVER
  1
AC1015
  9
$ACADMAINTVER
 70
     6
  9
$DWGCODEPAGE
  3
DOS932
  9
$INSBASE
 10
0.0
 20
0.0
 30
0.0
  9
$EXTMIN
 10
0.0
 20
0.0
 30
0.0
  9
$EXTMAX
 10
420.0
 20
297.0
 30
0.0
  9
$LIMMIN
 10
0.0
 20
0.0
  9
$LIMMAX
 10
0.0
 20
0.0
  9
$ORTHOMODE
 70
     0
  9
$REGENMODE
 70
     1
  9
$FILLMODE
 70
     1
  9
$QTEXTMODE
 70
     0
  9
$MIRRTEXT
 70
     1
  9
$LTSCALE
 40
1.0
  9
$ATTMODE
 70
     1
  9
$TEXTSIZE
 40
3.5
  9
$TRACEWID
 40
1.0
  9
$TEXTSTYLE
  7
Standard
  9
$CLAYER
  8
0
  9
$CELTYPE
  6
ByLayer
  9
$CECOLOR
 62
   256
  9
$CELTSCALE
 40
1.0
  9
$DISPSILH
 70
     0
  9
$DIMSCALE
 40
1.0
  9
$DIMASZ
 40
3.0
  9
$DIMEXO
 40
1.0
  9
$DIMDLI
 40
3.75
  9
$DIMRND
 40
0.0
  9
$DIMDLE
 40
0.0
  9
$DIMEXE
 40
1.0
  9
$DIMTP
 40
0.0
  9
$DIMTM
 40
0.0
  9
$DIMTXT
 40
3.2000000477
  9
$DIMCEN
 40
2.5
  9
$DIMTSZ
 40
0.0
  9
$DIMTOL
 70
     0
  9
$DIMLIM
 70
     0
  9
$DIMTIH
 70
     1
  9
$DIMTOH
 70
     1
  9
$DIMSE1
 70
     0
  9
$DIMSE2
 70
     0
  9
$DIMTAD
 70
     1
  9
$DIMZIN
 70
     1
  9
$DIMBLK
  1

  9
$DIMASO
 70
     1
  9
$DIMSHO
 70
     1
  9
$DIMPOST
  1

  9
$DIMAPOST
  1

  9
$DIMALT
 70
     0
  9
$DIMALTD
 70
     3
  9
$DIMALTF
 40
0.0393700787
  9
$DIMLFAC
 40
1.0
  9
$DIMTOFL
 70
     1
  9
$DIMTVP
 40
0.0
  9
$DIMTIX
 70
     0
  9
$DIMSOXD
 70
     0
  9
$DIMSAH
 70
     0
  9
$DIMBLK1
  1

  9
$DIMBLK2
  1

  9
$DIMSTYLE
  2
ISO-25
  9
$DIMCLRD
 70
     0
  9
$DIMCLRE
 70
     0
  9
$DIMCLRT
 70
     0
  9
$DIMTFAC
 40
1.0
  9
$DIMGAP
 40
1.524
  9
$DIMJUST
 70
     0
  9
$DIMSD1
 70
     0
  9
$DIMSD2
 70
     0
  9
$DIMTOLJ
 70
     0
  9
$DIMTZIN
 70
     1
  9
$DIMALTZ
 70
     0
  9
$DIMALTTZ
 70
     0
  9
$DIMUPT
 70
     0
  9
$DIMDEC
 70
     2
  9
$DIMTDEC
 70
     2
  9
$DIMALTU
 70
     2
  9
$DIMALTTD
 70
     3
  9
$DIMTXSTY
  7
Standard
  9
$DIMAUNIT
 70
     0
  9
$DIMADEC
 70
     0
  9
$DIMALTRND
 40
0.0
  9
$DIMAZIN
 70
     0
  9
$DIMDSEP
 70
    44
  9
$DIMATFIT
 70
     3
  9
$DIMFRAC
 70
     0
  9
$DIMLDRBLK
  1

  9
$DIMLUNIT
 70
     2
  9
$DIMLWD
 70
    -2
  9
$DIMLWE
 70
    -2
  9
$DIMTMOVE
 70
     0
  9
$LUNITS
 70
     2
  9
$LUPREC
 70
     4
  9
$SKETCHINC
 40
1.0
  9
$FILLETRAD
 40
10.0
  9
$AUNITS
 70
     0
  9
$AUPREC
 70
     0
  9
$MENU
  1
.
  9
$ELEVATION
 40
0.0
  9
$PELEVATION
 40
0.0
  9
$THICKNESS
 40
0.0
  9
$LIMCHECK
 70
     0
  9
$CHAMFERA
 40
10.0
  9
$CHAMFERB
 40
10.0
  9
$CHAMFERC
 40
20.0
  9
$CHAMFERD
 40
0.0
  9
$SKPOLY
 70
     0
  9
$TDCREATE
 40
2454307.569451493
  9
$TDUCREATE
 40
2454307.194451493
  9
$TDUPDATE
 40
2454307.569451505
  9
$TDUUPDATE
 40
2454307.194451505
  9
$TDINDWG
 40
0.0000000116
  9
$TDUSRTIMER
 40
0.0000000116
  9
$USRTIMER
 70
     1
  9
$ANGBASE
 50
0.0
  9
$ANGDIR
 70
     0
  9
$PDMODE
 70
     0
  9
$PDSIZE
 40
-1.0
  9
$PLINEWID
 40
0.0
  9
$SPLFRAME
 70
     0
  9
$SPLINETYPE
 70
     6
  9
$SPLINESEGS
 70
     8
  9
$HANDSEED
  5
36B
  9
$SURFTAB1
 70
     6
  9
$SURFTAB2
 70
     6
  9
$SURFTYPE
 70
     6
  9
$SURFU
 70
     6
  9
$SURFV
 70
     6
  9
$UCSBASE
  2

  9
$UCSNAME
  2

  9
$UCSORG
 10
0.0
 20
0.0
 30
0.0
  9
$UCSXDIR
 10
1.0
 20
0.0
 30
0.0
  9
$UCSYDIR
 10
0.0
 20
1.0
 30
0.0
  9
$UCSORTHOREF
  2

  9
$UCSORTHOVIEW
 70
     0
  9
$UCSORGTOP
 10
0.0
 20
0.0
 30
0.0
  9
$UCSORGBOTTOM
 10
0.0
 20
0.0
 30
0.0
  9
$UCSORGLEFT
 10
0.0
 20
0.0
 30
0.0
  9
$UCSORGRIGHT
 10
0.0
 20
0.0
 30
0.0
  9
$UCSORGFRONT
 10
0.0
 20
0.0
 30
0.0
  9
$UCSORGBACK
 10
0.0
 20
0.0
 30
0.0
  9
$PUCSBASE
  2

  9
$PUCSNAME
  2

  9
$PUCSORG
 10
0.0
 20
0.0
 30
0.0
  9
$PUCSXDIR
 10
1.0
 20
0.0
 30
0.0
  9
$PUCSYDIR
 10
0.0
 20
1.0
 30
0.0
  9
$PUCSORTHOREF
  2

  9
$PUCSORTHOVIEW
 70
     0
  9
$PUCSORGTOP
 10
0.0
 20
0.0
 30
0.0
  9
$PUCSORGBOTTOM
 10
0.0
 20
0.0
 30
0.0
  9
$PUCSORGLEFT
 10
0.0
 20
0.0
 30
0.0
  9
$PUCSORGRIGHT
 10
0.0
 20
0.0
 30
0.0
  9
$PUCSORGFRONT
 10
0.0
 20
0.0
 30
0.0
  9
$PUCSORGBACK
 10
0.0
 20
0.0
 30
0.0
  9
$USERI1
 70
     0
  9
$USERI2
 70
     0
  9
$USERI3
 70
     0
  9
$USERI4
 70
     0
  9
$USERI5
 70
     0
  9
$USERR1
 40
0.0
  9
$USERR2
 40
0.0
  9
$USERR3
 40
0.0
  9
$USERR4
 40
0.0
  9
$USERR5
 40
0.0
  9
$WORLDVIEW
 70
     1
  9
$SHADEDGE
 70
     3
  9
$SHADEDIF
 70
    70
  9
$TILEMODE
 70
     1
  9
$MAXACTVP
 70
    64
  9
$PINSBASE
 10
0.0
 20
0.0
 30
0.0
  9
$PLIMCHECK
 70
     0
  9
$PEXTMIN
 10
1.0000000000E+20
 20
1.0000000000E+20
 30
1.0000000000E+20
  9
$PEXTMAX
 10
-1.0000000000E+20
 20
-1.0000000000E+20
 30
-1.0000000000E+20
  9
$PLIMMIN
 10
0.0
 20
0.0
  9
$PLIMMAX
 10
420.0
 20
297.0
  9
$UNITMODE
 70
     0
  9
$VISRETAIN
 70
     1
  9
$PLINEGEN
 70
     0
  9
$PSLTSCALE
 70
     1
  9
$TREEDEPTH
 70
  3020
  9
$CMLSTYLE
  2
Standard
  9
$CMLJUST
 70
     0
  9
$CMLSCALE
 40
20.0
  9
$PROXYGRAPHICS
 70
     1
  9
$MEASUREMENT
 70
     1
  9
$CELWEIGHT
370
    -1
  9
$ENDCAPS
280
     0
  9
$JOINSTYLE
280
     0
  9
$LWDISPLAY
290
     1
  9
$INSUNITS
 70
     4
  9
$HYPERLINKBASE
  1

  9
$STYLESHEET
  1

  9
$XEDIT
290
     1
  9
$CEPSNTYPE
380
     0
  9
$PSTYLEMODE
290
     1
  9
$FINGERPRINTGUID
  2
{2179542D-4BD7-4582-9F64-4D5DFB177DFB}
  9
$VERSIONGUID
  2
{FAEB1C32-E019-11D5-929B-00C0DF256EC4}
  9
$EXTNAMES
290
     1
  9
$PSVPSCALE
 40
0.0
  9
$OLESTARTUP
290
     0
  0
ENDSEC
  0
SECTION
  2
CLASSES
  0
CLASS
  1
ACDBDICTIONARYWDFLT
  2
AcDbDictionaryWithDefault
  3
ObjectDBX Classes
 90
        0
280
     0
281
     0
  0
CLASS
  1
ACDBPLACEHOLDER
  2
AcDbPlaceHolder
  3
ObjectDBX Classes
 90
        0
280
     0
281
     0
  0
CLASS
  1
LAYOUT
  2
AcDbLayout
  3
ObjectDBX Classes
 90
        0
280
     0
281
     0
  0
ENDSEC
  0
SECTION
  2
TABLES
  0
TABLE
  2
VPORT
  5
8
330
0
100
AcDbSymbolTable
 70
     1
  0
VPORT
  5
29
330
8
100
AcDbSymbolTableRecord
100
AcDbViewportTableRecord
  2
*Active
 70
     0
 10
0.0
 20
0.0
 11
1.0
 21
1.0
 12
210.0
 22
148.5
 13
0.0
 23
0.0
 14
10.0
 24
10.0
 15
10.0
 25
10.0
 16
0.0
 26
0.0
 36
1.0
 17
0.0
 27
0.0
 37
0.0
 40
297.0
 41
1.9729729729
 42
50.0
 43
0.0
 44
0.0
 50
0.0
 51
0.0
 71
     0
 72
  2000
 73
     1
 74
     3
 75
     0
 76
     0
 77
     0
 78
     0
281
     0
 65
     1
110
0.0
120
0.0
130
0.0
111
1.0
121
0.0
131
0.0
112
0.0
122
1.0
132
0.0
 79
     0
146
0.0
  0
ENDTAB
  0
TABLE
  2
LTYPE
  5
5
330
0
100
AcDbSymbolTable
 70
     6
  0
LTYPE
  5
14
330
5
100
AcDbSymbolTableRecord
100
AcDbLinetypeTableRecord
  2
ByBlock
 70
     0
  3

 72
    65
 73
     0
 40
0.0
  0
LTYPE
  5
15
330
5
100
AcDbSymbolTableRecord
100
AcDbLinetypeTableRecord
  2
ByLayer
 70
     0
  3

 72
    65
 73
     0
 40
0.0
  0
LTYPE
  5
16
330
5
100
AcDbSymbolTableRecord
100
AcDbLinetypeTableRecord
  2
Continuous
 70
     0
  3
Solid line
 72
    65
 73
     0
 40
0.0
  0
LTYPE
  5
2A
330
5
100
AcDbSymbolTableRecord
100
AcDbLinetypeTableRecord
  2
HIDDEN
 70
     0
  3
Hidden __ __ __ __ __ __ __ __ __ __ __ __ __ __
 72
    65
 73
     2
 40
1.905
 49
1.27
 74
     0
 49
-0.635
 74
     0
  0
LTYPE
  5
2B
330
5
100
AcDbSymbolTableRecord
100
AcDbLinetypeTableRecord
  2
PHANTOM
 70
     0
  3
Phantom ______  __  __  ______  __  __  ______
 72
    65
 73
     6
 40
12.7
 49
6.35
 74
     0
 49
-1.27
 74
     0
 49
1.27
 74
     0
 49
-1.27
 74
     0
 49
1.27
 74
     0
 49
-1.27
 74
     0
  0
LTYPE
  5
2C
330
5
100
AcDbSymbolTableRecord
100
AcDbLinetypeTableRecord
  2
CENTER
 70
     0
  3
Center ____ _ ____ _ ____ _ ____ _ ____ _ ____
 72
    65
 73
     4
 40
10.16
 49
6.35
 74
     0
 49
-1.27
 74
     0
 49
1.27
 74
     0
 49
-1.27
 74
     0
  0
LTYPE
  5
2D
330
5
100
AcDbSymbolTableRecord
100
AcDbLinetypeTableRecord
  2
CENTERX2
 70
     0
  3
Center (2x) ________  __  ________  __  _____
 72
    65
 73
     4
 40
20.32
 49
12.7
 74
     0
 49
-2.54
 74
     0
 49
2.54
 74
     0
 49
-2.54
 74
     0
  0
LTYPE
  5
2E
330
5
100
AcDbSymbolTableRecord
100
AcDbLinetypeTableRecord
  2
DOT2
 70
     0
  3
Dot (.5x) ........................................
 72
    65
 73
     2
 40
0.635
 49
0.0
 74
     0
 49
-0.635
 74
     0
  0
ENDTAB
  0
TABLE
  2
LAYER
  5
2
330
0
100
AcDbSymbolTable
 70
     2
  0
LAYER
  5
10
330
2
100
AcDbSymbolTableRecord
100
AcDbLayerTableRecord
  2
0
 70
     0
 62
     7
  6
Continuous
370
    -3
390
F
  0
LAYER
  5
2F
330
2
100
AcDbSymbolTableRecord
100
AcDbLayerTableRecord
  2
SLD-0
 70
     0
 62
   179
  6
Continuous
370
     0
390
F
  0
ENDTAB
  0
TABLE
  2
STYLE
  5
3
330
0
100
AcDbSymbolTable
 70
     8
  0
STYLE
  5
11
330
3
100
AcDbSymbolTableRecord
100
AcDbTextStyleTableRecord
  2
Standard
 70
     0
 40
0.0
 41
1.0
 50
0.0
 71
     0
 42
2.5
  3
txt
  4
bigfont
  0
STYLE
  5
38
330
3
100
AcDbSymbolTableRecord
100
AcDbTextStyleTableRecord
  2
SLDTEXTSTYLE0
 70
     0
 40
0.0
 41
0.6230481785
 50
0.0
 71
     0
 42
0.2
  3
TXT
  4
bigfont
  0
STYLE
  5
42
330
3
100
AcDbSymbolTableRecord
100
AcDbTextStyleTableRecord
  2
SLDTEXTSTYLE1
 70
     0
 40
0.0
 41
0.6255251993
 50
0.0
 71
     0
 42
0.2
  3
TXT
  4
bigfont
  0
STYLE
  5
35E
330
3
100
AcDbSymbolTableRecord
100
AcDbTextStyleTableRecord
  2
SLDTEXTSTYLE2
 70
     0
 40
0.0
 41
0.6635061003
 50
0.0
 71
     0
 42
0.2
  3
TXT
  4
bigfont
  0
STYLE
  5
360
330
3
100
AcDbSymbolTableRecord
100
AcDbTextStyleTableRecord
  2
SLDTEXTSTYLE3
 70
     0
 40
0.0
 41
0.6272515262
 50
0.0
 71
     0
 42
0.2
  3
TXT
  4
bigfont
  0
STYLE
  5
362
330
3
100
AcDbSymbolTableRecord
100
AcDbTextStyleTableRecord
  2
SLDTEXTSTYLE4
 70
     0
 40
0.0
 41
0.6244080302
 50
0.0
 71
     0
 42
0.2
  3
TXT
  4
bigfont
  0
STYLE
  5
364
330
3
100
AcDbSymbolTableRecord
100
AcDbTextStyleTableRecord
  2
SLDTEXTSTYLE5
 70
     0
 40
0.0
 41
0.6226035039
 50
0.0
 71
     0
 42
0.2
  3
TXT
  4
bigfont
  0
STYLE
  5
366
330
3
100
AcDbSymbolTableRecord
100
AcDbTextStyleTableRecord
  2
SLDTEXTSTYLE6
 70
     0
 40
0.0
 41
0.5060976063
 50
0.0
 71
     0
 42
0.2
  3
TXT
  4
bigfont
  0
ENDTAB
  0
TABLE
  2
VIEW
  5
6
330
0
100
AcDbSymbolTable
 70
     0
  0
ENDTAB
  0
TABLE
  2
UCS
  5
7
330
0
100
AcDbSymbolTable
 70
     0
  0
ENDTAB
  0
TABLE
  2
APPID
  5
9
330
0
100
AcDbSymbolTable
 70
     1
  0
APPID
  5
12
330
9
100
AcDbSymbolTableRecord
100
AcDbRegAppTableRecord
  2
ACAD
 70
     0
  0
ENDTAB
  0
TABLE
  2
DIMSTYLE
  5
A
330
0
100
AcDbSymbolTable
 70
     1
100
AcDbDimStyleTable
  0
DIMSTYLE
105
27
330
A
100
AcDbSymbolTableRecord
100
AcDbDimStyleTableRecord
  2
ISO-25
 70
     0
 41
2.5
 42
0.625
 43
3.75
 44
1.25
 73
     0
 74
     0
 77
     1
 78
     8
140
2.5
141
2.5
143
0.0393700787
147
0.625
171
     3
172
     1
271
     2
272
     2
274
     3
278
    44
283
     0
284
     8
340
11
  0
ENDTAB
  0
TABLE
  2
BLOCK_RECORD
  5
1
330
0
100
AcDbSymbolTable
 70
     3
  0
BLOCK_RECORD
  5
1F
330
1
100
AcDbSymbolTableRecord
100
AcDbBlockTableRecord
  2
*Model_Space
340
22
  0
BLOCK_RECORD
  5
1B
330
1
100
AcDbSymbolTableRecord
100
AcDbBlockTableRecord
  2
*Paper_Space
340
1E
  0
BLOCK_RECORD
  5
23
330
1
100
AcDbSymbolTableRecord
100
AcDbBlockTableRecord
  2
*Paper_Space0
340
26
  0
BLOCK_RECORD
  5
30
330
1
100
AcDbSymbolTableRecord
100
AcDbBlockTableRecord
  2
KOZU0029
340
0
102
{BLKREFS
331
369
102
}
  0
BLOCK_RECORD
  5
3A
330
1
100
AcDbSymbolTableRecord
100
AcDbBlockTableRecord
  2
KOZU0030
340
0
102
{BLKREFS
331
36A
102
}
  0
ENDTAB
  0
ENDSEC
  0
SECTION
  2
BLOCKS
  0
BLOCK
  5
20
330
1F
100
AcDbEntity
  8
0
100
AcDbBlockBegin
  2
*Model_Space
 70
     0
 71
     0
 10
0.0
 20
0.0
 30
0.0
  3
*Model_Space
  1

  0
ENDBLK
  5
21
330
1F
100
AcDbEntity
  8
0
100
AcDbBlockEnd
  0
BLOCK
  5
1C
330
1B
100
AcDbEntity
 67
     1
  8
0
100
AcDbBlockBegin
  2
*Paper_Space
 70
     0
 71
     0
 10
0.0
 20
0.0
 30
0.0
  3
*Paper_Space
  1

  0
ENDBLK
  5
1D
330
1B
100
AcDbEntity
 67
     1
  8
0
100
AcDbBlockEnd
  0
BLOCK
  5
24
330
23
100
AcDbEntity
  8
0
100
AcDbBlockBegin
  2
*Paper_Space0
 70
     0
 71
     0
 10
0.0
 20
0.0
 30
0.0
  3
*Paper_Space0
  1

  0
ENDBLK
  5
25
330
23
100
AcDbEntity
  8
0
100
AcDbBlockEnd
  0
BLOCK
  5
31
330
30
100
AcDbEntity
  8
0
100
AcDbBlockBegin
  2
KOZU0029
 70
     0
 71
     0
 10
0.0
 20
0.0
 30
0.0
  3
KOZU0029
  1

  0
LINE
  5
33
330
30
100
AcDbEntity
  8
SLD-0
  6
Continuous
 62
   179
100
AcDbLine
 10
0.0
 20
0.0
 30
0.0
 11
11.9937857492
 21
17.2491489523
 31
0.0
  0
LINE
  5
34
330
30
100
AcDbEntity
  8
SLD-0
  6
Continuous
 62
   179
100
AcDbLine
 10
0.0
 20
0.0
 30
0.0
 11
1.324306345
 21
2.8890206647
 31
0.0
  0
LINE
  5
35
330
30
100
AcDbEntity
  8
SLD-0
  6
Continuous
 62
   179
100
AcDbLine
 10
0.0
 20
0.0
 30
0.0
 11
2.2471447637
 21
2.2473469041
 31
0.0
  0
LINE
  5
36
330
30
100
AcDbEntity
  8
SLD-0
  6
Continuous
 62
   179
100
AcDbLine
 10
0.0
 20
0.0
 30
0.0
 11
11.9937857492
 21
17.2491489523
 31
0.0
  0
LINE
  5
37
330
30
100
AcDbEntity
  8
SLD-0
  6
Continuous
 62
   179
100
AcDbLine
 10
11.9937857492
 20
17.2491489523
 30
0.0
 11
43.5166927927
 21
17.2491489523
 31
0.0
  0
MTEXT
  5
39
330
30
100
AcDbEntity
  8
SLD-0
100
AcDbMText
 10
17.0026929133
 20
20.7038683799
 30
0.0
 40
3.2000000477
 41
0.0
 71
     1
 72
     1
  1
２－Ｍ５Ｘ０．８
  7
SLDTEXTSTYLE0
 73
     1
 44
1.0
  0
ENDBLK
  5
32
330
30
100
AcDbEntity
  8
0
100
AcDbBlockEnd
  0
BLOCK
  5
3B
330
3A
100
AcDbEntity
  8
0
100
AcDbBlockBegin
  2
KOZU0030
 70
     0
 71
     0
 10
0.0
 20
0.0
 30
0.0
  3
KOZU0030
  1

  0
LINE
  5
3D
330
3A
100
AcDbEntity
  8
SLD-0
  6
Continuous
 62
   179
100
AcDbLine
 10
0.0
 20
0.0
 30
0.0
 11
17.458876763
 21
-34.4372339821
 31
0.0
  0
LINE
  5
3E
330
3A
100
AcDbEntity
  8
SLD-0
  6
Continuous
 62
   179
100
AcDbLine
 10
0.0
 20
0.0
 30
0.0
 11
1.9156956097
 21
-2.5358111182
 31
0.0
  0
LINE
  5
3F
330
3A
100
AcDbEntity
  8
SLD-0
  6
Continuous
 62
   179
100
AcDbLine
 10
0.0
 20
0.0
 30
0.0
 11
0.913172772
 21
-3.0440668825
 31
0.0
  0
LINE
  5
40
330
3A
100
AcDbEntity
  8
SLD-0
  6
Continuous
 62
   179
100
AcDbLine
 10
0.0
 20
0.0
 30
0.0
 11
17.458876763
 21
-34.4372339821
 31
0.0
  0
LINE
  5
41
330
3A
100
AcDbEntity
  8
SLD-0
  6
Continuous
 62
   179
100
AcDbLine
 10
17.458876763
 20
-34.4372339821
 30
0.0
 11
42.1743234493
 21
-34.4372339821
 31
0.0
  0
MTEXT
  5
43
330
3A
100
AcDbEntity
  8
SLD-0
100
AcDbMText
 10
25.2603235342
 20
-30.9825145545
 30
0.0
 40
3.2000000477
 41
0.0
 71
     1
 72
     1
  1
Ｒｃ１／８
  7
SLDTEXTSTYLE1
 73
     1
 44
1.0
  0
ENDBLK
  5
3C
330
3A
100
AcDbEntity
  8
0
100
AcDbBlockEnd
  0
ENDSEC
  0
SECTION
  2
ENTITIES
  0
LINE
  5
44
330
1F
100
AcDbEntity
  8
SLD-0
  6
Continuous
 62
   179
100
AcDbLine
 10
41.1687775189
 20
49.6201887248
 30
0.0
 11
49.6687775189
 21
49.6201887248
 31
0.0
  0
LINE
  5
45
330
1F
100
AcDbEntity
  8
SLD-0
  6
Continuous
 62
   179
100
AcDbLine
 10
53.6687775189
 20
45.6201887248
 30
0.0
 11
53.6687775189
 21
43.6201887248
 31
0.0
  0
LINE
  5
46
330
1F
100
AcDbEntity
  8
SLD-0
  6
Continuous
 62
   179
100
AcDbLine
 10
62.6687775189
 20
34.6201887248
 30
0.0
 11
71.6687775189
 21
34.6201887248
 31
0.0
  0
LINE
  5
47
330
1F
100
AcDbEntity
  8
SLD-0
  6
Continuous
 62
   179
100
AcDbLine
 10
80.6687775189
 20
43.6201887248
 30
0.0
 11
80.6687775189
 21
45.6201887248
 31
0.0
  0
LINE
  5
48
330
1F
100
AcDbEntity
  8
SLD-0
  6
Continuous
 62
   179
100
AcDbLine
 10
84.6687775189
 20
49.6201887248
 30
0.0
 11
112.1687775189
 21
49.6201887248
 31
0.0
  0
LINE
  5
49
330
1F
100
AcDbEntity
  8
SLD-0
  6
Continuous
 62
   179
100
AcDbLine
 10
112.1687775189
 20
49.6201887248
 30
0.0
 11
112.1687775189
 21
34.6201887248
 31
0.0
  0
LINE
  5
4A
330
1F
100
AcDbEntity
  8
SLD-0
  6
Continuous
 62
   179
100
AcDbLine
 10
112.1687775189
 20
34.6201887248
 30
0.0
 11
116.1687775189
 21
34.6201887248
 31
0.0
  0
LINE
  5
4B
330
1F
100
AcDbEntity
  8
SLD-0
  6
Continuous
 62
   179
100
AcDbLine
 10
116.1687775189
 20
34.6201887248
 30
0.0
 11
116.1687775189
 21
120.6201887248
 31
0.0
  0
LINE
  5
4C
330
1F
100
AcDbEntity
  8
SLD-0
  6
Continuous
 62
   179
100
AcDbLine
 10
116.1687775189
 20
120.6201887248
 30
0.0
 11
112.1687775189
 21
120.6201887248
 31
0.0
  0
LINE
  5
4D
330
1F
100
AcDbEntity
  8
SLD-0
  6
Continuous
 62
   179
100
AcDbLine
 10
112.1687775189
 20
120.6201887248
 30
0.0
 11
112.1687775189
 21
105.6201887248
 31
0.0
  0
LINE
  5
4E
330
1F
100
AcDbEntity
  8
SLD-0
  6
Continuous
 62
   179
100
AcDbLine
 10
112.1687775189
 20
105.6201887248
 30
0.0
 11
84.6687775189
 21
105.6201887248
 31
0.0
  0
LINE
  5
4F
330
1F
100
AcDbEntity
  8
SLD-0
  6
Continuous
 62
   179
100
AcDbLine
 10
80.6687775189
 20
109.6201887248
 30
0.0
 11
80.6687775189
 21
111.6201887248
 31
0.0
  0
LINE
  5
50
330
1F
100
AcDbEntity
  8
SLD-0
  6
Continuous
 62
   179
100
AcDbLine
 10
71.6687775189
 20
120.6201887248
 30
0.0
 11
62.6687775189
 21
120.6201887248
 31
0.0
  0
LINE
  5
51
330
1F
100
AcDbEntity
  8
SLD-0
  6
Continuous
 62
   179
100
AcDbLine
 10
53.6687775189
 20
111.6201887248
 30
0.0
 11
53.6687775189
 21
109.6201887248
 31
0.0
  0
LINE
  5
52
330
1F
100
AcDbEntity
  8
SLD-0
  6
Continuous
 62
   179
100
AcDbLine
 10
49.6687775189
 20
105.6201887248
 30
0.0
 11
41.1687775189
 21
105.6201887248
 31
0.0
  0
LINE
  5
53
330
1F
100
AcDbEntity
  8
SLD-0
  6
Continuous
 62
   179
100
AcDbLine
 10
37.1687775189
 20
101.6201887248
 30
0.0
 11
37.1687775189
 21
53.6201887248
 31
0.0
  0
LINE
  5
54
330
1F
100
AcDbEntity
  8
SLD-0
  6
Continuous
 62
   179
100
AcDbLine
 10
64.3195465189
 20
46.8201887248
 30
0.0
 11
70.0180085189
 21
46.8201887248
 31
0.0
  0
LINE
  5
55
330
1F
100
AcDbEntity
  8
SLD-0
  6
Continuous
 62
   179
100
AcDbLine
 10
70.0180085189
 20
40.4201887248
 30
0.0
 11
64.3195465189
 21
40.4201887248
 31
0.0
  0
LINE
  5
56
330
1F
100
AcDbEntity
  8
SLD-0
  6
Continuous
 62
   179
100
AcDbLine
 10
116.1687775189
 20
56.6201887248
 30
0.0
 11
125.1687775189
 21
56.6201887248
 31
0.0
  0
LINE
  5
57
330
1F
100
AcDbEntity
  8
SLD-0
  6
Continuous
 62
   179
100
AcDbLine
 10
125.1687775189
 20
56.6201887248
 30
0.0
 11
125.1687775189
 21
60.6201887248
 31
0.0
  0
LINE
  5
58
330
1F
100
AcDbEntity
  8
SLD-0
  6
Continuous
 62
   179
100
AcDbLine
 10
125.1687775189
 20
60.6201887248
 30
0.0
 11
125.6687775189
 21
60.1201887248
 31
0.0
  0
LINE
  5
59
330
1F
100
AcDbEntity
  8
SLD-0
  6
Continuous
 62
   179
100
AcDbLine
 10
125.6687775189
 20
60.1201887248
 30
0.0
 11
125.6687775189
 21
57.1201887248
 31
0.0
  0
LINE
  5
5A
330
1F
100
AcDbEntity
  8
SLD-0
  6
Continuous
 62
   179
100
AcDbLine
 10
125.6687775189
 20
57.1201887248
 30
0.0
 11
125.1687775189
 21
56.6201887248
 31
0.0
  0
LINE
  5
5B
330
1F
100
AcDbEntity
  8
SLD-0
  6
Continuous
 62
   179
100
AcDbLine
 10
125.1687775189
 20
60.6201887248
 30
0.0
 11
116.1687775189
 21
60.6201887248
 31
0.0
  0
LINE
  5
5C
330
1F
100
AcDbEntity
  8
SLD-0
  6
Continuous
 62
   179
100
AcDbLine
 10
116.1687775189
 20
63.1201887248
 30
0.0
 11
144.6687775189
 21
63.1201887248
 31
0.0
  0
LINE
  5
5D
330
1F
100
AcDbEntity
  8
SLD-0
  6
Continuous
 62
   179
100
AcDbLine
 10
144.6687775189
 20
63.1201887248
 30
0.0
 11
144.6687775189
 21
92.1201887248
 31
0.0
  0
LINE
  5
5E
330
1F
100
AcDbEntity
  8
SLD-0
  6
Continuous
 62
   179
100
AcDbLine
 10
144.6687775189
 20
92.1201887248
 30
0.0
 11
116.1687775189
 21
92.1201887248
 31
0.0
  0
LINE
  5
5F
330
1F
100
AcDbEntity
  8
SLD-0
  6
Continuous
 62
   179
100
AcDbLine
 10
160.6906666849
 20
83.2839886805
 30
0.0
 11
236.6906666849
 21
83.2839886805
 31
0.0
  0
LINE
  5
60
330
1F
100
AcDbEntity
  8
SLD-0
  6
Continuous
 62
   179
100
AcDbLine
 10
239.6906666849
 20
86.2839886805
 30
0.0
 11
239.6906666849
 21
224.7839886805
 31
0.0
  0
LINE
  5
61
330
1F
100
AcDbEntity
  8
SLD-0
  6
Continuous
 62
   179
100
AcDbLine
 10
239.6906666849
 20
224.7839886805
 30
0.0
 11
235.6906666849
 21
224.7839886805
 31
0.0
  0
LINE
  5
62
330
1F
100
AcDbEntity
  8
SLD-0
  6
Continuous
 62
   179
100
AcDbLine
 10
235.6906666849
 20
224.7839886805
 30
0.0
 11
235.6906666849
 21
87.2839886805
 31
0.0
  0
LINE
  5
63
330
1F
100
AcDbEntity
  8
SLD-0
  6
Continuous
 62
   179
100
AcDbLine
 10
235.6906666849
 20
87.2839886805
 30
0.0
 11
160.6906666849
 21
87.2839886805
 31
0.0
  0
LINE
  5
64
330
1F
100
AcDbEntity
  8
SLD-0
  6
Continuous
 62
   179
100
AcDbLine
 10
160.6906666849
 20
87.2839886805
 30
0.0
 11
160.6906666849
 21
83.2839886805
 31
0.0
  0
LINE
  5
65
330
1F
100
AcDbEntity
  8
SLD-0
  6
Continuous
 62
   179
100
AcDbLine
 10
164.6906666849
 20
95.2839886805
 30
0.0
 11
207.6906666849
 21
95.2839886805
 31
0.0
  0
LINE
  5
66
330
1F
100
AcDbEntity
  8
SLD-0
  6
Continuous
 62
   179
100
AcDbLine
 10
207.6906666849
 20
95.2839886805
 30
0.0
 11
209.1906666849
 21
96.7839886805
 31
0.0
  0
LINE
  5
67
330
1F
100
AcDbEntity
  8
SLD-0
  6
Continuous
 62
   179
100
AcDbLine
 10
209.1906666849
 20
96.7839886805
 30
0.0
 11
209.1906666849
 21
108.2839886805
 31
0.0
  0
LINE
  5
68
330
1F
100
AcDbEntity
  8
SLD-0
  6
Continuous
 62
   179
100
AcDbLine
 10
211.1906666849
 20
110.2839886805
 30
0.0
 11
214.1906668512
 21
110.2839886805
 31
0.0
  0
LINE
  5
69
330
1F
100
AcDbEntity
  8
SLD-0
  6
Continuous
 62
   179
100
AcDbLine
 10
214.1906668512
 20
110.2839886805
 30
0.0
 11
214.1906668512
 21
230.2839886805
 31
0.0
  0
LINE
  5
6A
330
1F
100
AcDbEntity
  8
SLD-0
  6
Continuous
 62
   179
100
AcDbLine
 10
204.190666768
 20
243.7003966185
 30
0.0
 11
204.190666768
 21
265.2839886185
 31
0.0
  0
LINE
  5
6B
330
1F
100
AcDbEntity
  8
SLD-0
  6
Continuous
 62
   179
100
AcDbLine
 10
204.190666768
 20
265.2839886185
 30
0.0
 11
194.690666768
 21
265.2839886185
 31
0.0
  0
LINE
  5
6C
330
1F
100
AcDbEntity
  8
SLD-0
  6
Continuous
 62
   179
100
AcDbLine
 10
194.690666768
 20
265.2839886185
 30
0.0
 11
194.690666768
 21
219.0839886185
 31
0.0
  0
LINE
  5
6D
330
1F
100
AcDbEntity
  8
SLD-0
  6
Continuous
 62
   179
100
AcDbLine
 10
194.690666768
 20
219.0839886185
 30
0.0
 11
177.690666768
 21
219.0839886185
 31
0.0
  0
LINE
  5
6E
330
1F
100
AcDbEntity
  8
SLD-0
  6
Continuous
 62
   179
100
AcDbLine
 10
177.690666768
 20
219.0839886185
 30
0.0
 11
177.690666768
 21
265.2839886185
 31
0.0
  0
LINE
  5
6F
330
1F
100
AcDbEntity
  8
SLD-0
  6
Continuous
 62
   179
100
AcDbLine
 10
177.690666768
 20
265.2839886185
 30
0.0
 11
168.190666768
 21
265.2839886185
 31
0.0
  0
LINE
  5
70
330
1F
100
AcDbEntity
  8
SLD-0
  6
Continuous
 62
   179
100
AcDbLine
 10
168.190666768
 20
265.2839886185
 30
0.0
 11
168.190666768
 21
243.7003966185
 31
0.0
  0
LINE
  5
71
330
1F
100
AcDbEntity
  8
SLD-0
  6
Continuous
 62
   179
100
AcDbLine
 10
158.1906666849
 20
230.2839886805
 30
0.0
 11
158.1906666849
 21
110.2839886805
 31
0.0
  0
LINE
  5
72
330
1F
100
AcDbEntity
  8
SLD-0
  6
Continuous
 62
   179
100
AcDbLine
 10
158.1906666849
 20
110.2839886805
 30
0.0
 11
161.1906666849
 21
110.2839886805
 31
0.0
  0
LINE
  5
73
330
1F
100
AcDbEntity
  8
SLD-0
  6
Continuous
 62
   179
100
AcDbLine
 10
163.1906666849
 20
108.2839886805
 30
0.0
 11
163.1906666849
 21
96.7839886805
 31
0.0
  0
LINE
  5
74
330
1F
100
AcDbEntity
  8
SLD-0
  6
Continuous
 62
   179
100
AcDbLine
 10
163.1906666849
 20
96.7839886805
 30
0.0
 11
164.6906666849
 21
95.2839886805
 31
0.0
  0
LINE
  5
75
330
1F
100
AcDbEntity
  8
SLD-0
  6
Continuous
 62
   179
100
AcDbLine
 10
163.1906666849
 20
96.7839886805
 30
0.0
 11
209.1906666849
 21
96.7839886805
 31
0.0
  0
LINE
  5
76
330
1F
100
AcDbEntity
  8
SLD-0
  6
Continuous
 62
   179
100
AcDbLine
 10
204.1906666849
 20
87.2839886805
 30
0.0
 11
204.1906666849
 21
83.2839886805
 31
0.0
  0
LINE
  5
77
330
1F
100
AcDbEntity
  8
SLD-0
  6
Continuous
 62
   179
100
AcDbLine
 10
177.1906666849
 20
83.2839886805
 30
0.0
 11
177.1906666849
 21
87.2839886805
 31
0.0
  0
LINE
  5
78
330
1F
100
AcDbEntity
  8
SLD-0
  6
Continuous
 62
   179
100
AcDbLine
 10
176.4203366849
 20
115.2839886805
 30
0.0
 11
175.4203366849
 21
116.2839886805
 31
0.0
  0
LINE
  5
79
330
1F
100
AcDbEntity
  8
SLD-0
  6
Continuous
 62
   179
100
AcDbLine
 10
175.4203366849
 20
116.2839886805
 30
0.0
 11
196.9609956849
 21
116.2839886805
 31
0.0
  0
LINE
  5
7A
330
1F
100
AcDbEntity
  8
SLD-0
  6
Continuous
 62
   179
100
AcDbLine
 10
196.9609956849
 20
116.2839886805
 30
0.0
 11
196.9609956849
 21
128.2839886805
 31
0.0
  0
LINE
  5
7B
330
1F
100
AcDbEntity
  8
SLD-0
  6
Continuous
 62
   179
100
AcDbLine
 10
198.9609956849
 20
130.2839886805
 30
0.0
 11
220.1906666849
 21
130.2839886805
 31
0.0
  0
LINE
  5
7C
330
1F
100
AcDbEntity
  8
SLD-0
  6
Continuous
 62
   179
100
AcDbLine
 10
220.1906666849
 20
130.2839886805
 30
0.0
 11
220.1906666849
 21
210.2839886805
 31
0.0
  0
LINE
  5
7D
330
1F
100
AcDbEntity
  8
SLD-0
  6
Continuous
 62
   179
100
AcDbLine
 10
220.1906666849
 20
210.2839886805
 30
0.0
 11
214.1906666849
 21
210.2839886805
 31
0.0
  0
LINE
  5
7E
330
1F
100
AcDbEntity
  8
SLD-0
  6
Continuous
 62
   179
100
AcDbLine
 10
220.7798136849
 20
205.9839886805
 30
0.0
 11
220.7798136849
 21
199.5339886805
 31
0.0
  0
LINE
  5
7F
330
1F
100
AcDbEntity
  8
SLD-0
  6
Continuous
 62
   179
100
AcDbLine
 10
220.1906666849
 20
199.5339886805
 30
0.0
 11
224.8906666849
 21
199.5339886805
 31
0.0
  0
LINE
  5
80
330
1F
100
AcDbEntity
  8
SLD-0
  6
Continuous
 62
   179
100
AcDbLine
 10
224.8906666849
 20
199.5339886805
 30
0.0
 11
224.8906666849
 21
191.0339886805
 31
0.0
  0
LINE
  5
81
330
1F
100
AcDbEntity
  8
SLD-0
  6
Continuous
 62
   179
100
AcDbLine
 10
224.8906666849
 20
191.0339886805
 30
0.0
 11
220.1906666849
 21
191.0339886805
 31
0.0
  0
LINE
  5
82
330
1F
100
AcDbEntity
  8
SLD-0
  6
Continuous
 62
   179
100
AcDbLine
 10
224.8906666849
 20
191.0339886805
 30
0.0
 11
225.1906666849
 21
191.5536036805
 31
0.0
  0
LINE
  5
83
330
1F
100
AcDbEntity
  8
SLD-0
  6
Continuous
 62
   179
100
AcDbLine
 10
225.1906666849
 20
191.5536036805
 30
0.0
 11
225.1906666849
 21
199.0143736805
 31
0.0
  0
LINE
  5
84
330
1F
100
AcDbEntity
  8
SLD-0
  6
Continuous
 62
   179
100
AcDbLine
 10
225.1906666849
 20
199.0143736805
 30
0.0
 11
224.8906666849
 21
199.5339886805
 31
0.0
  0
LINE
  5
85
330
1F
100
AcDbEntity
  8
SLD-0
  6
Continuous
 62
   179
100
AcDbLine
 10
225.1793416849
 20
199.0339886805
 30
0.0
 11
226.4008766849
 21
199.0339886805
 31
0.0
  0
LINE
  5
86
330
1F
100
AcDbEntity
  8
SLD-0
  6
Continuous
 62
   179
100
AcDbLine
 10
227.0885926477
 20
198.5210029839
 30
0.0
 11
227.1987506477
 21
199.0339889839
 31
0.0
  0
LINE
  5
87
330
1F
100
AcDbEntity
  8
SLD-0
  6
Continuous
 62
   179
100
AcDbLine
 10
227.0145546849
 20
199.0339886805
 30
0.0
 11
229.5608766849
 21
199.0339886805
 31
0.0
  0
LINE
  5
88
330
1F
100
AcDbEntity
  8
SLD-0
  6
Continuous
 62
   179
100
AcDbLine
 10
230.2485926477
 20
198.5210029839
 30
0.0
 11
230.3587506477
 21
199.0339889839
 31
0.0
  0
LINE
  5
89
330
1F
100
AcDbEntity
  8
SLD-0
  6
Continuous
 62
   179
100
AcDbLine
 10
230.1745546849
 20
199.0339886805
 30
0.0
 11
232.7208766849
 21
199.0339886805
 31
0.0
  0
LINE
  5
8A
330
1F
100
AcDbEntity
  8
SLD-0
  6
Continuous
 62
   179
100
AcDbLine
 10
233.4176616849
 20
198.6469746805
 30
0.0
 11
231.8285926849
 21
206.0469746805
 31
0.0
  0
LINE
  5
8B
330
1F
100
AcDbEntity
  8
SLD-0
  6
Continuous
 62
   179
100
AcDbLine
 10
231.2419656849
 20
205.9210026805
 30
0.0
 11
232.8310346849
 21
198.5210026805
 31
0.0
  0
LINE
  5
8C
330
1F
100
AcDbEntity
  8
SLD-0
  6
Continuous
 62
   179
100
AcDbLine
 10
233.4241986849
 20
198.5745096805
 30
0.0
 11
233.5649266849
 21
199.0339886805
 31
0.0
  0
LINE
  5
8D
330
1F
100
AcDbEntity
  8
SLD-0
  6
Continuous
 62
   179
100
AcDbLine
 10
233.3345546849
 20
199.0339886805
 30
0.0
 11
235.0798136849
 21
199.0339886805
 31
0.0
  0
LINE
  5
8E
330
1F
100
AcDbEntity
  8
SLD-0
  6
Continuous
 62
   179
100
AcDbLine
 10
235.0798136849
 20
198.5839886805
 30
0.0
 11
235.0798136849
 21
206.0289006805
 31
0.0
  0
LINE
  5
8F
330
1F
100
AcDbEntity
  8
SLD-0
  6
Continuous
 62
   179
100
AcDbLine
 10
235.0929656849
 20
206.0718436805
 30
0.0
 11
234.9282316849
 21
205.5339886805
 31
0.0
  0
LINE
  5
90
330
1F
100
AcDbEntity
  8
SLD-0
  6
Continuous
 62
   179
100
AcDbLine
 10
235.0798136849
 20
205.5339886805
 30
0.0
 11
231.9387506849
 21
205.5339886805
 31
0.0
  0
LINE
  5
91
330
1F
100
AcDbEntity
  8
SLD-0
  6
Continuous
 62
   179
100
AcDbLine
 10
231.3250726849
 20
205.5339886805
 30
0.0
 11
228.7787506849
 21
205.5339886805
 31
0.0
  0
LINE
  5
92
330
1F
100
AcDbEntity
  8
SLD-0
  6
Continuous
 62
   179
100
AcDbLine
 10
228.6685926849
 20
206.0469746805
 30
0.0
 11
230.2666526849
 21
198.6051056805
 31
0.0
  0
LINE
  5
93
330
1F
100
AcDbEntity
  8
SLD-0
  6
Continuous
 62
   179
100
AcDbLine
 10
229.6858356849
 20
198.4520786805
 30
0.0
 11
228.0729746849
 21
205.9628716805
 31
0.0
  0
LINE
  5
94
330
1F
100
AcDbEntity
  8
SLD-0
  6
Continuous
 62
   179
100
AcDbLine
 10
228.0729746849
 20
205.9628716805
 30
0.0
 11
227.9808766849
 21
205.5339886805
 31
0.0
  0
LINE
  5
95
330
1F
100
AcDbEntity
  8
SLD-0
  6
Continuous
 62
   179
100
AcDbLine
 10
228.1650726849
 20
205.5339886805
 30
0.0
 11
225.6187506849
 21
205.5339886805
 31
0.0
  0
LINE
  5
96
330
1F
100
AcDbEntity
  8
SLD-0
  6
Continuous
 62
   179
100
AcDbLine
 10
225.5085926849
 20
206.0469746805
 30
0.0
 11
227.1066526849
 21
198.6051056805
 31
0.0
  0
LINE
  5
97
330
1F
100
AcDbEntity
  8
SLD-0
  6
Continuous
 62
   179
100
AcDbLine
 10
226.5258356849
 20
198.4520786805
 30
0.0
 11
224.9129746849
 21
205.9628716805
 31
0.0
  0
LINE
  5
98
330
1F
100
AcDbEntity
  8
SLD-0
  6
Continuous
 62
   179
100
AcDbLine
 10
224.9129746849
 20
205.9628716805
 30
0.0
 11
224.8208766849
 21
205.5339886805
 31
0.0
  0
LINE
  5
99
330
1F
100
AcDbEntity
  8
SLD-0
  6
Continuous
 62
   179
100
AcDbLine
 10
225.0050726849
 20
205.5339886805
 30
0.0
 11
222.4587506849
 21
205.5339886805
 31
0.0
  0
LINE
  5
9A
330
1F
100
AcDbEntity
  8
SLD-0
  6
Continuous
 62
   179
100
AcDbLine
 10
222.3485926849
 20
206.0469746805
 30
0.0
 11
223.7471846849
 21
199.5339886805
 31
0.0
  0
LINE
  5
9B
330
1F
100
AcDbEntity
  8
SLD-0
  6
Continuous
 62
   179
100
AcDbLine
 10
223.1335066849
 20
199.5339886805
 30
0.0
 11
221.7529746849
 21
205.9628716805
 31
0.0
  0
LINE
  5
9C
330
1F
100
AcDbEntity
  8
SLD-0
  6
Continuous
 62
   179
100
AcDbLine
 10
221.7529746849
 20
205.9628716805
 30
0.0
 11
221.6608766849
 21
205.5339886805
 31
0.0
  0
LINE
  5
9D
330
1F
100
AcDbEntity
  8
SLD-0
  6
Continuous
 62
   179
100
AcDbLine
 10
221.8450726849
 20
205.5339886805
 30
0.0
 11
220.7798136849
 21
205.5339886805
 31
0.0
  0
LINE
  5
9E
330
1F
100
AcDbEntity
  8
SLD-0
  6
Continuous
 62
   179
100
AcDbLine
 10
214.1906666849
 20
190.2839886805
 30
0.0
 11
158.1906666849
 21
190.2839886805
 31
0.0
  0
LINE
  5
9F
330
1F
100
AcDbEntity
  8
SLD-0
  6
Continuous
 62
   179
100
AcDbLine
 10
158.1906666849
 20
150.2839886805
 30
0.0
 11
214.1906666849
 21
150.2839886805
 31
0.0
  0
LINE
  5
A0
330
1F
100
AcDbEntity
  8
SLD-0
  6
Continuous
 62
   179
100
AcDbLine
 10
220.6372486849
 20
164.5104856805
 30
0.0
 11
224.9440846849
 21
164.5104856805
 31
0.0
  0
LINE
  5
A1
330
1F
100
AcDbEntity
  8
SLD-0
  6
Continuous
 62
   179
100
AcDbLine
 10
224.9440846849
 20
164.5104856805
 30
0.0
 11
225.3906666849
 21
165.2839886805
 31
0.0
  0
LINE
  5
A2
330
1F
100
AcDbEntity
  8
SLD-0
  6
Continuous
 62
   179
100
AcDbLine
 10
225.3906666849
 20
165.2839886805
 30
0.0
 11
225.3906666849
 21
175.2839886805
 31
0.0
  0
LINE
  5
A3
330
1F
100
AcDbEntity
  8
SLD-0
  6
Continuous
 62
   179
100
AcDbLine
 10
225.3906666849
 20
175.2839886805
 30
0.0
 11
224.9440846849
 21
176.0574906805
 31
0.0
  0
LINE
  5
A4
330
1F
100
AcDbEntity
  8
SLD-0
  6
Continuous
 62
   179
100
AcDbLine
 10
224.9440846849
 20
176.0574906805
 30
0.0
 11
220.6372486849
 21
176.0574906805
 31
0.0
  0
LINE
  5
A5
330
1F
100
AcDbEntity
  8
SLD-0
  6
Continuous
 62
   179
100
AcDbLine
 10
220.6372486849
 20
176.0574906805
 30
0.0
 11
220.1906666849
 21
175.2839886805
 31
0.0
  0
LINE
  5
A6
330
1F
100
AcDbEntity
  8
SLD-0
  6
Continuous
 62
   179
100
AcDbLine
 10
220.6372492159
 20
173.1707397319
 30
0.0
 11
224.9440852159
 21
173.1707397319
 31
0.0
  0
LINE
  5
A7
330
1F
100
AcDbEntity
  8
SLD-0
  6
Continuous
 62
   179
100
AcDbLine
 10
224.9440849279
 20
167.3972367319
 30
0.0
 11
220.6372489279
 21
167.3972367319
 31
0.0
  0
LINE
  5
A8
330
1F
100
AcDbEntity
  8
SLD-0
  6
Continuous
 62
   179
100
AcDbLine
 10
225.3906666849
 20
173.2839886805
 30
0.0
 11
226.1906666849
 21
173.2839886805
 31
0.0
  0
LINE
  5
A9
330
1F
100
AcDbEntity
  8
SLD-0
  6
Continuous
 62
   179
100
AcDbLine
 10
226.1906666849
 20
173.2839886805
 30
0.0
 11
226.1906666849
 21
167.2839886805
 31
0.0
  0
LINE
  5
AA
330
1F
100
AcDbEntity
  8
SLD-0
  6
Continuous
 62
   179
100
AcDbLine
 10
226.1906666849
 20
167.2839886805
 30
0.0
 11
227.1906666849
 21
166.2839886805
 31
0.0
  0
LINE
  5
AB
330
1F
100
AcDbEntity
  8
SLD-0
  6
Continuous
 62
   179
100
AcDbLine
 10
227.1906666849
 20
166.2839886805
 30
0.0
 11
235.6906666849
 21
166.2839886805
 31
0.0
  0
LINE
  5
AC
330
1F
100
AcDbEntity
  8
SLD-0
  6
Continuous
 62
   179
100
AcDbLine
 10
239.6906666849
 20
165.2746936805
 30
0.0
 11
268.1906666849
 21
165.2746936805
 31
0.0
  0
LINE
  5
AD
330
1F
100
AcDbEntity
  8
SLD-0
  6
Continuous
 62
   179
100
AcDbLine
 10
268.1906666849
 20
162.7746936805
 30
0.0
 11
239.6906666849
 21
162.7746936805
 31
0.0
  0
LINE
  5
AE
330
1F
100
AcDbEntity
  8
SLD-0
  6
Continuous
 62
   179
100
AcDbLine
 10
239.6906666849
 20
158.0059596805
 30
0.0
 11
268.1906666849
 21
158.0059596805
 31
0.0
  0
LINE
  5
AF
330
1F
100
AcDbEntity
  8
SLD-0
  6
Continuous
 62
   179
100
AcDbLine
 10
268.1906666849
 20
155.7839886805
 30
0.0
 11
268.1906666849
 21
184.7839886805
 31
0.0
  0
LINE
  5
B0
330
1F
100
AcDbEntity
  8
SLD-0
  6
Continuous
 62
   179
100
AcDbLine
 10
268.1906666849
 20
184.7839886805
 30
0.0
 11
239.6906666849
 21
184.7839886805
 31
0.0
  0
LINE
  5
B1
330
1F
100
AcDbEntity
  8
SLD-0
  6
Continuous
 62
   179
100
AcDbLine
 10
239.6906666849
 20
182.5620176805
 30
0.0
 11
268.1906666849
 21
182.5620176805
 31
0.0
  0
LINE
  5
B2
330
1F
100
AcDbEntity
  8
SLD-0
  6
Continuous
 62
   179
100
AcDbLine
 10
268.1906666849
 20
177.7932826805
 30
0.0
 11
239.6906666849
 21
177.7932826805
 31
0.0
  0
LINE
  5
B3
330
1F
100
AcDbEntity
  8
SLD-0
  6
Continuous
 62
   179
100
AcDbLine
 10
239.6906666849
 20
175.2932826805
 30
0.0
 11
268.1906666849
 21
175.2932826805
 31
0.0
  0
LINE
  5
B4
330
1F
100
AcDbEntity
  8
SLD-0
  6
Continuous
 62
   179
100
AcDbLine
 10
263.9406666849
 20
171.0056766805
 30
0.0
 11
263.9406666849
 21
169.5623006805
 31
0.0
  0
LINE
  5
B5
330
1F
100
AcDbEntity
  8
SLD-0
  6
Continuous
 62
   179
100
AcDbLine
 10
263.9406666849
 20
169.5623006805
 30
0.0
 11
262.6906666849
 21
168.8406126805
 31
0.0
  0
LINE
  5
B6
330
1F
100
AcDbEntity
  8
SLD-0
  6
Continuous
 62
   179
100
AcDbLine
 10
262.6906666849
 20
168.8406126805
 30
0.0
 11
261.4406666849
 21
169.5623006805
 31
0.0
  0
LINE
  5
B7
330
1F
100
AcDbEntity
  8
SLD-0
  6
Continuous
 62
   179
100
AcDbLine
 10
261.4406666849
 20
169.5623006805
 30
0.0
 11
261.4406666849
 21
171.0056766805
 31
0.0
  0
LINE
  5
B8
330
1F
100
AcDbEntity
  8
SLD-0
  6
Continuous
 62
   179
100
AcDbLine
 10
261.4406666849
 20
171.0056766805
 30
0.0
 11
262.6906666849
 21
171.7273636805
 31
0.0
  0
LINE
  5
B9
330
1F
100
AcDbEntity
  8
SLD-0
  6
Continuous
 62
   179
100
AcDbLine
 10
262.6906666849
 20
171.7273636805
 30
0.0
 11
263.9406666849
 21
171.0056766805
 31
0.0
  0
LINE
  5
BA
330
1F
100
AcDbEntity
  8
SLD-0
  6
Continuous
 62
   179
100
AcDbLine
 10
235.6906666849
 20
174.2839886805
 30
0.0
 11
227.1906666849
 21
174.2839886805
 31
0.0
  0
LINE
  5
BB
330
1F
100
AcDbEntity
  8
SLD-0
  6
Continuous
 62
   179
100
AcDbLine
 10
227.1906666849
 20
174.2839886805
 30
0.0
 11
226.1906666849
 21
173.2839886805
 31
0.0
  0
LINE
  5
BC
330
1F
100
AcDbEntity
  8
SLD-0
  6
Continuous
 62
   179
100
AcDbLine
 10
227.1906666849
 20
174.2839886805
 30
0.0
 11
227.1906666849
 21
166.2839886805
 31
0.0
  0
LINE
  5
BD
330
1F
100
AcDbEntity
  8
SLD-0
  6
Continuous
 62
   179
100
AcDbLine
 10
226.1906666849
 20
167.2839886805
 30
0.0
 11
225.3906666849
 21
167.2839886805
 31
0.0
  0
LINE
  5
BE
330
1F
100
AcDbEntity
  8
SLD-0
  6
Continuous
 62
   179
100
AcDbLine
 10
220.6372486849
 20
164.5104856805
 30
0.0
 11
220.1906666849
 21
165.2839886805
 31
0.0
  0
LINE
  5
BF
330
1F
100
AcDbEntity
  8
SLD-0
  6
Continuous
 62
   179
100
AcDbLine
 10
239.6906666849
 20
155.7839886805
 30
0.0
 11
268.1906666849
 21
155.7839886805
 31
0.0
  0
LINE
  5
C0
330
1F
100
AcDbEntity
  8
SLD-0
  6
Continuous
 62
   179
100
AcDbLine
 10
288.1973106849
 20
165.7839886805
 30
0.0
 11
288.1973106849
 21
174.7839886805
 31
0.0
  0
LINE
  5
C1
330
1F
100
AcDbEntity
  8
SLD-0
  6
Continuous
 62
   179
100
AcDbLine
 10
297.1973106849
 20
183.7839886805
 30
0.0
 11
307.1973106849
 21
183.7839886805
 31
0.0
  0
LINE
  5
C2
330
1F
100
AcDbEntity
  8
SLD-0
  6
Continuous
 62
   179
100
AcDbLine
 10
311.6973106849
 20
188.2839886805
 30
0.0
 11
311.6973106849
 21
197.7839886805
 31
0.0
  0
LINE
  5
C3
330
1F
100
AcDbEntity
  8
SLD-0
  6
Continuous
 62
   179
100
AcDbLine
 10
308.1973106849
 20
197.5933896805
 30
0.0
 11
306.1973106849
 21
196.4386886805
 31
0.0
  0
LINE
  5
C4
330
1F
100
AcDbEntity
  8
SLD-0
  6
Continuous
 62
   179
100
AcDbLine
 10
306.1973106849
 20
196.4386886805
 30
0.0
 11
306.1973106849
 21
194.1292876805
 31
0.0
  0
LINE
  5
C5
330
1F
100
AcDbEntity
  8
SLD-0
  6
Continuous
 62
   179
100
AcDbLine
 10
306.1973106849
 20
194.1292876805
 30
0.0
 11
308.1973106849
 21
192.9745876805
 31
0.0
  0
LINE
  5
C6
330
1F
100
AcDbEntity
  8
SLD-0
  6
Continuous
 62
   179
100
AcDbLine
 10
308.1973106849
 20
192.9745876805
 30
0.0
 11
310.1973106849
 21
194.1292876805
 31
0.0
  0
LINE
  5
C7
330
1F
100
AcDbEntity
  8
SLD-0
  6
Continuous
 62
   179
100
AcDbLine
 10
310.1973106849
 20
194.1292876805
 30
0.0
 11
310.1973106849
 21
196.4386886805
 31
0.0
  0
LINE
  5
C8
330
1F
100
AcDbEntity
  8
SLD-0
  6
Continuous
 62
   179
100
AcDbLine
 10
310.1973106849
 20
196.4386886805
 30
0.0
 11
308.1973106849
 21
197.5933896805
 31
0.0
  0
LINE
  5
C9
330
1F
100
AcDbEntity
  8
SLD-0
  6
Continuous
 62
   179
100
AcDbLine
 10
318.9192816849
 20
184.7839886805
 30
0.0
 11
323.6880166849
 21
184.7839886805
 31
0.0
  0
LINE
  5
CA
330
1F
100
AcDbEntity
  8
SLD-0
  6
Continuous
 62
   179
100
AcDbLine
 10
323.6880166849
 20
184.7839886805
 30
0.0
 11
326.1880166849
 21
182.2839886805
 31
0.0
  0
LINE
  5
CB
330
1F
100
AcDbEntity
  8
SLD-0
  6
Continuous
 62
   179
100
AcDbLine
 10
326.1880166849
 20
182.2839886805
 30
0.0
 11
336.2066056849
 21
182.2839886805
 31
0.0
  0
LINE
  5
CC
330
1F
100
AcDbEntity
  8
SLD-0
  6
Continuous
 62
   179
100
AcDbLine
 10
336.2066056849
 20
182.2839886805
 30
0.0
 11
338.7066056849
 21
184.7839886805
 31
0.0
  0
LINE
  5
CD
330
1F
100
AcDbEntity
  8
SLD-0
  6
Continuous
 62
   179
100
AcDbLine
 10
338.7066056849
 20
184.7839886805
 30
0.0
 11
343.4753406849
 21
184.7839886805
 31
0.0
  0
LINE
  5
CE
330
1F
100
AcDbEntity
  8
SLD-0
  6
Continuous
 62
   179
100
AcDbLine
 10
345.697311178
 20
182.5620180981
 30
0.0
 11
345.697311178
 21
177.7932822629
 31
0.0
  0
LINE
  5
CF
330
1F
100
AcDbEntity
  8
SLD-0
  6
Continuous
 62
   179
100
AcDbLine
 10
345.697311178
 20
177.7932822629
 30
0.0
 11
343.197311178
 21
175.2932822629
 31
0.0
  0
LINE
  5
D0
330
1F
100
AcDbEntity
  8
SLD-0
  6
Continuous
 62
   179
100
AcDbLine
 10
343.197311178
 20
175.2932822629
 30
0.0
 11
343.197311178
 21
165.2746932629
 31
0.0
  0
LINE
  5
D1
330
1F
100
AcDbEntity
  8
SLD-0
  6
Continuous
 62
   179
100
AcDbLine
 10
343.197311178
 20
165.2746932629
 30
0.0
 11
345.697311178
 21
162.7746932629
 31
0.0
  0
LINE
  5
D2
330
1F
100
AcDbEntity
  8
SLD-0
  6
Continuous
 62
   179
100
AcDbLine
 10
345.697311178
 20
162.7746932629
 30
0.0
 11
345.697311178
 21
158.0059592629
 31
0.0
  0
LINE
  5
D3
330
1F
100
AcDbEntity
  8
SLD-0
  6
Continuous
 62
   179
100
AcDbLine
 10
343.4753406849
 20
155.7839886805
 30
0.0
 11
338.7066056849
 21
155.7839886805
 31
0.0
  0
LINE
  5
D4
330
1F
100
AcDbEntity
  8
SLD-0
  6
Continuous
 62
   179
100
AcDbLine
 10
338.7066056849
 20
155.7839886805
 30
0.0
 11
336.2066056849
 21
158.2839886805
 31
0.0
  0
LINE
  5
D5
330
1F
100
AcDbEntity
  8
SLD-0
  6
Continuous
 62
   179
100
AcDbLine
 10
336.2066056849
 20
158.2839886805
 30
0.0
 11
326.1880166849
 21
158.2839886805
 31
0.0
  0
LINE
  5
D6
330
1F
100
AcDbEntity
  8
SLD-0
  6
Continuous
 62
   179
100
AcDbLine
 10
326.1880166849
 20
158.2839886805
 30
0.0
 11
323.6880166849
 21
155.7839886805
 31
0.0
  0
LINE
  5
D7
330
1F
100
AcDbEntity
  8
SLD-0
  6
Continuous
 62
   179
100
AcDbLine
 10
323.6880166849
 20
155.7839886805
 30
0.0
 11
318.9192816849
 21
155.7839886805
 31
0.0
  0
LINE
  5
D8
330
1F
100
AcDbEntity
  8
SLD-0
  6
Continuous
 62
   179
100
AcDbLine
 10
316.6973106849
 20
158.0059596805
 30
0.0
 11
316.6973106849
 21
162.7746936805
 31
0.0
  0
LINE
  5
D9
330
1F
100
AcDbEntity
  8
SLD-0
  6
Continuous
 62
   179
100
AcDbLine
 10
316.6973106849
 20
162.7746936805
 30
0.0
 11
319.1973106849
 21
165.2746936805
 31
0.0
  0
LINE
  5
DA
330
1F
100
AcDbEntity
  8
SLD-0
  6
Continuous
 62
   179
100
AcDbLine
 10
319.1973106849
 20
165.2746936805
 30
0.0
 11
316.6973106849
 21
165.2839886805
 31
0.0
  0
LINE
  5
DB
330
1F
100
AcDbEntity
  8
SLD-0
  6
Continuous
 62
   179
100
AcDbLine
 10
316.6973106849
 20
165.2839886805
 30
0.0
 11
316.6973106849
 21
175.2839886805
 31
0.0
  0
LINE
  5
DC
330
1F
100
AcDbEntity
  8
SLD-0
  6
Continuous
 62
   179
100
AcDbLine
 10
316.6973106849
 20
175.2839886805
 30
0.0
 11
319.1973106849
 21
175.2932826805
 31
0.0
  0
LINE
  5
DD
330
1F
100
AcDbEntity
  8
SLD-0
  6
Continuous
 62
   179
100
AcDbLine
 10
319.1973106849
 20
175.2932826805
 30
0.0
 11
316.6973106849
 21
177.7932826805
 31
0.0
  0
LINE
  5
DE
330
1F
100
AcDbEntity
  8
SLD-0
  6
Continuous
 62
   179
100
AcDbLine
 10
316.6973106849
 20
177.7932826805
 30
0.0
 11
316.6973106849
 21
182.5620176805
 31
0.0
  0
LINE
  5
DF
330
1F
100
AcDbEntity
  8
SLD-0
  6
Continuous
 62
   179
100
AcDbLine
 10
321.1973106849
 20
181.7839886805
 30
0.0
 11
322.4963486849
 21
181.0339886805
 31
0.0
  0
LINE
  5
E0
330
1F
100
AcDbEntity
  8
SLD-0
  6
Continuous
 62
   179
100
AcDbLine
 10
322.4963486849
 20
181.0339886805
 30
0.0
 11
322.4963486849
 21
179.5339886805
 31
0.0
  0
LINE
  5
E1
330
1F
100
AcDbEntity
  8
SLD-0
  6
Continuous
 62
   179
100
AcDbLine
 10
322.4963486849
 20
179.5339886805
 30
0.0
 11
321.1973106849
 21
178.7839886805
 31
0.0
  0
LINE
  5
E2
330
1F
100
AcDbEntity
  8
SLD-0
  6
Continuous
 62
   179
100
AcDbLine
 10
321.1973106849
 20
178.7839886805
 30
0.0
 11
319.8982726849
 21
179.5339886805
 31
0.0
  0
LINE
  5
E3
330
1F
100
AcDbEntity
  8
SLD-0
  6
Continuous
 62
   179
100
AcDbLine
 10
319.8982726849
 20
179.5339886805
 30
0.0
 11
319.8982726849
 21
181.0339886805
 31
0.0
  0
LINE
  5
E4
330
1F
100
AcDbEntity
  8
SLD-0
  6
Continuous
 62
   179
100
AcDbLine
 10
319.8982726849
 20
181.0339886805
 30
0.0
 11
321.1973106849
 21
181.7839886805
 31
0.0
  0
LINE
  5
E5
330
1F
100
AcDbEntity
  8
SLD-0
  6
Continuous
 62
   179
100
AcDbLine
 10
319.8982726849
 20
161.0339886805
 30
0.0
 11
321.1973106849
 21
161.7839886805
 31
0.0
  0
LINE
  5
E6
330
1F
100
AcDbEntity
  8
SLD-0
  6
Continuous
 62
   179
100
AcDbLine
 10
321.1973106849
 20
161.7839886805
 30
0.0
 11
322.4963486849
 21
161.0339886805
 31
0.0
  0
LINE
  5
E7
330
1F
100
AcDbEntity
  8
SLD-0
  6
Continuous
 62
   179
100
AcDbLine
 10
322.4963486849
 20
161.0339886805
 30
0.0
 11
322.4963486849
 21
159.5339886805
 31
0.0
  0
LINE
  5
E8
330
1F
100
AcDbEntity
  8
SLD-0
  6
Continuous
 62
   179
100
AcDbLine
 10
322.4963486849
 20
159.5339886805
 30
0.0
 11
321.1973106849
 21
158.7839886805
 31
0.0
  0
LINE
  5
E9
330
1F
100
AcDbEntity
  8
SLD-0
  6
Continuous
 62
   179
100
AcDbLine
 10
321.1973106849
 20
158.7839886805
 30
0.0
 11
319.8982726849
 21
159.5339886805
 31
0.0
  0
LINE
  5
EA
330
1F
100
AcDbEntity
  8
SLD-0
  6
Continuous
 62
   179
100
AcDbLine
 10
319.8982726849
 20
159.5339886805
 30
0.0
 11
319.8982726849
 21
161.0339886805
 31
0.0
  0
LINE
  5
EB
330
1F
100
AcDbEntity
  8
SLD-0
  6
Continuous
 62
   179
100
AcDbLine
 10
299.1973106849
 20
156.7839886805
 30
0.0
 11
297.1973106849
 21
156.7839886805
 31
0.0
  0
LINE
  5
EC
330
1F
100
AcDbEntity
  8
SLD-0
  6
Continuous
 62
   179
100
AcDbLine
 10
293.9973106849
 20
167.4347576805
 30
0.0
 11
293.9973106849
 21
173.1332196805
 31
0.0
  0
LINE
  5
ED
330
1F
100
AcDbEntity
  8
SLD-0
  6
Continuous
 62
   179
100
AcDbLine
 10
300.3973106849
 20
173.1332196805
 30
0.0
 11
300.3973106849
 21
167.4347576805
 31
0.0
  0
LINE
  5
EE
330
1F
100
AcDbEntity
  8
SLD-0
  6
Continuous
 62
   179
100
AcDbLine
 10
303.1973106849
 20
152.7839886805
 30
0.0
 11
303.1973106849
 21
87.2839886805
 31
0.0
  0
LINE
  5
EF
330
1F
100
AcDbEntity
  8
SLD-0
  6
Continuous
 62
   179
100
AcDbLine
 10
303.1973106849
 20
87.2839886805
 30
0.0
 11
288.1973106849
 21
87.2839886805
 31
0.0
  0
LINE
  5
F0
330
1F
100
AcDbEntity
  8
SLD-0
  6
Continuous
 62
   179
100
AcDbLine
 10
288.1973106849
 20
87.2839886805
 30
0.0
 11
288.1973106849
 21
83.2839886805
 31
0.0
  0
LINE
  5
F1
330
1F
100
AcDbEntity
  8
SLD-0
  6
Continuous
 62
   179
100
AcDbLine
 10
288.1973106849
 20
83.2839886805
 30
0.0
 11
374.1973106849
 21
83.2839886805
 31
0.0
  0
LINE
  5
F2
330
1F
100
AcDbEntity
  8
SLD-0
  6
Continuous
 62
   179
100
AcDbLine
 10
374.1973106849
 20
83.2839886805
 30
0.0
 11
374.1973106849
 21
87.2839886805
 31
0.0
  0
LINE
  5
F3
330
1F
100
AcDbEntity
  8
SLD-0
  6
Continuous
 62
   179
100
AcDbLine
 10
374.1973106849
 20
87.2839886805
 30
0.0
 11
359.1973106849
 21
87.2839886805
 31
0.0
  0
LINE
  5
F4
330
1F
100
AcDbEntity
  8
SLD-0
  6
Continuous
 62
   179
100
AcDbLine
 10
359.1973106849
 20
87.2839886805
 30
0.0
 11
359.1973106849
 21
152.7839886805
 31
0.0
  0
LINE
  5
F5
330
1F
100
AcDbEntity
  8
SLD-0
  6
Continuous
 62
   179
100
AcDbLine
 10
363.1973106849
 20
156.7839886805
 30
0.0
 11
365.1973106849
 21
156.7839886805
 31
0.0
  0
LINE
  5
F6
330
1F
100
AcDbEntity
  8
SLD-0
  6
Continuous
 62
   179
100
AcDbLine
 10
374.1973106849
 20
165.7839886805
 30
0.0
 11
374.1973106849
 21
174.7839886805
 31
0.0
  0
LINE
  5
F7
330
1F
100
AcDbEntity
  8
SLD-0
  6
Continuous
 62
   179
100
AcDbLine
 10
365.1973106849
 20
183.7839886805
 30
0.0
 11
355.1973106849
 21
183.7839886805
 31
0.0
  0
LINE
  5
F8
330
1F
100
AcDbEntity
  8
SLD-0
  6
Continuous
 62
   179
100
AcDbLine
 10
350.6973106849
 20
188.2839886805
 30
0.0
 11
350.6973106849
 21
197.7839886805
 31
0.0
  0
LINE
  5
F9
330
1F
100
AcDbEntity
  8
SLD-0
  6
Continuous
 62
   179
100
AcDbLine
 10
354.1973106849
 20
197.5933896805
 30
0.0
 11
356.1973106849
 21
196.4386886805
 31
0.0
  0
LINE
  5
FA
330
1F
100
AcDbEntity
  8
SLD-0
  6
Continuous
 62
   179
100
AcDbLine
 10
356.1973106849
 20
196.4386886805
 30
0.0
 11
356.1973106849
 21
194.1292876805
 31
0.0
  0
LINE
  5
FB
330
1F
100
AcDbEntity
  8
SLD-0
  6
Continuous
 62
   179
100
AcDbLine
 10
356.1973106849
 20
194.1292876805
 30
0.0
 11
354.1973106849
 21
192.9745876805
 31
0.0
  0
LINE
  5
FC
330
1F
100
AcDbEntity
  8
SLD-0
  6
Continuous
 62
   179
100
AcDbLine
 10
354.1973106849
 20
192.9745876805
 30
0.0
 11
352.1973106849
 21
194.1292876805
 31
0.0
  0
LINE
  5
FD
330
1F
100
AcDbEntity
  8
SLD-0
  6
Continuous
 62
   179
100
AcDbLine
 10
352.1973106849
 20
194.1292876805
 30
0.0
 11
352.1973106849
 21
196.4386886805
 31
0.0
  0
LINE
  5
FE
330
1F
100
AcDbEntity
  8
SLD-0
  6
Continuous
 62
   179
100
AcDbLine
 10
352.1973106849
 20
196.4386886805
 30
0.0
 11
354.1973106849
 21
197.5933896805
 31
0.0
  0
LINE
  5
FF
330
1F
100
AcDbEntity
  8
SLD-0
  6
Continuous
 62
   179
100
AcDbLine
 10
359.1973106849
 20
183.7839886805
 30
0.0
 11
359.1973106849
 21
230.2839886805
 31
0.0
  0
LINE
  5
100
330
1F
100
AcDbEntity
  8
SLD-0
  6
Continuous
 62
   179
100
AcDbLine
 10
359.1973106849
 20
230.2839886805
 30
0.0
 11
345.1973106849
 21
265.2839886805
 31
0.0
  0
LINE
  5
101
330
1F
100
AcDbEntity
  8
SLD-0
  6
Continuous
 62
   179
100
AcDbLine
 10
345.1973106849
 20
265.2839886805
 30
0.0
 11
317.1973106849
 21
265.2839886805
 31
0.0
  0
LINE
  5
102
330
1F
100
AcDbEntity
  8
SLD-0
  6
Continuous
 62
   179
100
AcDbLine
 10
317.1973106849
 20
265.2839886805
 30
0.0
 11
303.1973106849
 21
230.2839886805
 31
0.0
  0
LINE
  5
103
330
1F
100
AcDbEntity
  8
SLD-0
  6
Continuous
 62
   179
100
AcDbLine
 10
303.1973106849
 20
230.2839886805
 30
0.0
 11
359.1973106849
 21
230.2839886805
 31
0.0
  0
LINE
  5
104
330
1F
100
AcDbEntity
  8
SLD-0
  6
Continuous
 62
   179
100
AcDbLine
 10
333.1833956849
 20
202.2839886805
 30
0.0
 11
332.1903536849
 21
200.5639886805
 31
0.0
  0
LINE
  5
105
330
1F
100
AcDbEntity
  8
SLD-0
  6
Continuous
 62
   179
100
AcDbLine
 10
332.1903536849
 20
200.5639886805
 30
0.0
 11
330.2042686849
 21
200.5639886805
 31
0.0
  0
LINE
  5
106
330
1F
100
AcDbEntity
  8
SLD-0
  6
Continuous
 62
   179
100
AcDbLine
 10
330.2042686849
 20
200.5639886805
 30
0.0
 11
329.2112256849
 21
202.2839886805
 31
0.0
  0
LINE
  5
107
330
1F
100
AcDbEntity
  8
SLD-0
  6
Continuous
 62
   179
100
AcDbLine
 10
329.2112256849
 20
202.2839886805
 30
0.0
 11
330.2042686849
 21
204.0039886805
 31
0.0
  0
LINE
  5
108
330
1F
100
AcDbEntity
  8
SLD-0
  6
Continuous
 62
   179
100
AcDbLine
 10
330.2042686849
 20
204.0039886805
 30
0.0
 11
332.1903536849
 21
204.0039886805
 31
0.0
  0
LINE
  5
109
330
1F
100
AcDbEntity
  8
SLD-0
  6
Continuous
 62
   179
100
AcDbLine
 10
332.1903536849
 20
204.0039886805
 30
0.0
 11
333.1833956849
 21
202.2839886805
 31
0.0
  0
LINE
  5
10A
330
1F
100
AcDbEntity
  8
SLD-0
  6
Continuous
 62
   179
100
AcDbLine
 10
341.1973106849
 20
181.7839886805
 30
0.0
 11
342.4963486849
 21
181.0339886805
 31
0.0
  0
LINE
  5
10B
330
1F
100
AcDbEntity
  8
SLD-0
  6
Continuous
 62
   179
100
AcDbLine
 10
342.4963486849
 20
181.0339886805
 30
0.0
 11
342.4963486849
 21
179.5339886805
 31
0.0
  0
LINE
  5
10C
330
1F
100
AcDbEntity
  8
SLD-0
  6
Continuous
 62
   179
100
AcDbLine
 10
342.4963486849
 20
179.5339886805
 30
0.0
 11
341.1973106849
 21
178.7839886805
 31
0.0
  0
LINE
  5
10D
330
1F
100
AcDbEntity
  8
SLD-0
  6
Continuous
 62
   179
100
AcDbLine
 10
341.1973106849
 20
178.7839886805
 30
0.0
 11
339.8982726849
 21
179.5339886805
 31
0.0
  0
LINE
  5
10E
330
1F
100
AcDbEntity
  8
SLD-0
  6
Continuous
 62
   179
100
AcDbLine
 10
339.8982726849
 20
179.5339886805
 30
0.0
 11
339.8982726849
 21
181.0339886805
 31
0.0
  0
LINE
  5
10F
330
1F
100
AcDbEntity
  8
SLD-0
  6
Continuous
 62
   179
100
AcDbLine
 10
339.8982726849
 20
181.0339886805
 30
0.0
 11
341.1973106849
 21
181.7839886805
 31
0.0
  0
LINE
  5
110
330
1F
100
AcDbEntity
  8
SLD-0
  6
Continuous
 62
   179
100
AcDbLine
 10
342.4963486849
 20
161.0339886805
 30
0.0
 11
342.4963486849
 21
159.5339886805
 31
0.0
  0
LINE
  5
111
330
1F
100
AcDbEntity
  8
SLD-0
  6
Continuous
 62
   179
100
AcDbLine
 10
342.4963486849
 20
159.5339886805
 30
0.0
 11
341.1973106849
 21
158.7839886805
 31
0.0
  0
LINE
  5
112
330
1F
100
AcDbEntity
  8
SLD-0
  6
Continuous
 62
   179
100
AcDbLine
 10
341.1973106849
 20
158.7839886805
 30
0.0
 11
339.8982726849
 21
159.5339886805
 31
0.0
  0
LINE
  5
113
330
1F
100
AcDbEntity
  8
SLD-0
  6
Continuous
 62
   179
100
AcDbLine
 10
339.8982726849
 20
159.5339886805
 30
0.0
 11
339.8982726849
 21
161.0339886805
 31
0.0
  0
LINE
  5
114
330
1F
100
AcDbEntity
  8
SLD-0
  6
Continuous
 62
   179
100
AcDbLine
 10
339.8982726849
 20
161.0339886805
 30
0.0
 11
341.1973106849
 21
161.7839886805
 31
0.0
  0
LINE
  5
115
330
1F
100
AcDbEntity
  8
SLD-0
  6
Continuous
 62
   179
100
AcDbLine
 10
341.1973106849
 20
161.7839886805
 30
0.0
 11
342.4963486849
 21
161.0339886805
 31
0.0
  0
LINE
  5
116
330
1F
100
AcDbEntity
  8
SLD-0
  6
Continuous
 62
   179
100
AcDbLine
 10
361.9973106849
 20
167.4347576805
 30
0.0
 11
361.9973106849
 21
173.1332196805
 31
0.0
  0
LINE
  5
117
330
1F
100
AcDbEntity
  8
SLD-0
  6
Continuous
 62
   179
100
AcDbLine
 10
368.3973106849
 20
173.1332196805
 30
0.0
 11
368.3973106849
 21
167.4347576805
 31
0.0
  0
LINE
  5
118
330
1F
100
AcDbEntity
  8
SLD-0
  6
Continuous
 62
   179
100
AcDbLine
 10
354.1973106849
 20
137.5933896805
 30
0.0
 11
356.1973106849
 21
136.4386886805
 31
0.0
  0
LINE
  5
119
330
1F
100
AcDbEntity
  8
SLD-0
  6
Continuous
 62
   179
100
AcDbLine
 10
356.1973106849
 20
136.4386886805
 30
0.0
 11
356.1973106849
 21
134.1292876805
 31
0.0
  0
LINE
  5
11A
330
1F
100
AcDbEntity
  8
SLD-0
  6
Continuous
 62
   179
100
AcDbLine
 10
356.1973106849
 20
134.1292876805
 30
0.0
 11
354.1973106849
 21
132.9745876805
 31
0.0
  0
LINE
  5
11B
330
1F
100
AcDbEntity
  8
SLD-0
  6
Continuous
 62
   179
100
AcDbLine
 10
354.1973106849
 20
132.9745876805
 30
0.0
 11
352.1973106849
 21
134.1292876805
 31
0.0
  0
LINE
  5
11C
330
1F
100
AcDbEntity
  8
SLD-0
  6
Continuous
 62
   179
100
AcDbLine
 10
352.1973106849
 20
134.1292876805
 30
0.0
 11
352.1973106849
 21
136.4386886805
 31
0.0
  0
LINE
  5
11D
330
1F
100
AcDbEntity
  8
SLD-0
  6
Continuous
 62
   179
100
AcDbLine
 10
352.1973106849
 20
136.4386886805
 30
0.0
 11
354.1973106849
 21
137.5933896805
 31
0.0
  0
LINE
  5
11E
330
1F
100
AcDbEntity
  8
SLD-0
  6
Continuous
 62
   179
100
AcDbLine
 10
333.1833956849
 20
138.2839886805
 30
0.0
 11
332.1903536849
 21
136.5639886805
 31
0.0
  0
LINE
  5
11F
330
1F
100
AcDbEntity
  8
SLD-0
  6
Continuous
 62
   179
100
AcDbLine
 10
332.1903536849
 20
136.5639886805
 30
0.0
 11
330.2042686849
 21
136.5639886805
 31
0.0
  0
LINE
  5
120
330
1F
100
AcDbEntity
  8
SLD-0
  6
Continuous
 62
   179
100
AcDbLine
 10
330.2042686849
 20
136.5639886805
 30
0.0
 11
329.2112256849
 21
138.2839886805
 31
0.0
  0
LINE
  5
121
330
1F
100
AcDbEntity
  8
SLD-0
  6
Continuous
 62
   179
100
AcDbLine
 10
329.2112256849
 20
138.2839886805
 30
0.0
 11
330.2042686849
 21
140.0039886805
 31
0.0
  0
LINE
  5
122
330
1F
100
AcDbEntity
  8
SLD-0
  6
Continuous
 62
   179
100
AcDbLine
 10
330.2042686849
 20
140.0039886805
 30
0.0
 11
332.1903536849
 21
140.0039886805
 31
0.0
  0
LINE
  5
123
330
1F
100
AcDbEntity
  8
SLD-0
  6
Continuous
 62
   179
100
AcDbLine
 10
332.1903536849
 20
140.0039886805
 30
0.0
 11
333.1833956849
 21
138.2839886805
 31
0.0
  0
LINE
  5
124
330
1F
100
AcDbEntity
  8
SLD-0
  6
Continuous
 62
   179
100
AcDbLine
 10
310.1973106849
 20
134.1292876805
 30
0.0
 11
310.1973106849
 21
136.4386886805
 31
0.0
  0
LINE
  5
125
330
1F
100
AcDbEntity
  8
SLD-0
  6
Continuous
 62
   179
100
AcDbLine
 10
310.1973106849
 20
136.4386886805
 30
0.0
 11
308.1973106849
 21
137.5933896805
 31
0.0
  0
LINE
  5
126
330
1F
100
AcDbEntity
  8
SLD-0
  6
Continuous
 62
   179
100
AcDbLine
 10
308.1973106849
 20
137.5933896805
 30
0.0
 11
306.1973106849
 21
136.4386886805
 31
0.0
  0
LINE
  5
127
330
1F
100
AcDbEntity
  8
SLD-0
  6
Continuous
 62
   179
100
AcDbLine
 10
306.1973106849
 20
136.4386886805
 30
0.0
 11
306.1973106849
 21
134.1292876805
 31
0.0
  0
LINE
  5
128
330
1F
100
AcDbEntity
  8
SLD-0
  6
Continuous
 62
   179
100
AcDbLine
 10
306.1973106849
 20
134.1292876805
 30
0.0
 11
308.1973106849
 21
132.9745876805
 31
0.0
  0
LINE
  5
129
330
1F
100
AcDbEntity
  8
SLD-0
  6
Continuous
 62
   179
100
AcDbLine
 10
308.1973106849
 20
132.9745876805
 30
0.0
 11
310.1973106849
 21
134.1292876805
 31
0.0
  0
LINE
  5
12A
330
1F
100
AcDbEntity
  8
SLD-0
  6
Continuous
 62
   179
100
AcDbLine
 10
264.6906666849
 20
133.7839886805
 30
0.0
 11
264.6906666849
 21
142.7839886805
 31
0.0
  0
LINE
  5
12B
330
1F
100
AcDbEntity
  8
SLD-0
  6
Continuous
 62
   179
100
AcDbLine
 10
264.1906666849
 20
143.2839886805
 30
0.0
 11
260.1906666849
 21
143.2839886805
 31
0.0
  0
LINE
  5
12C
330
1F
100
AcDbEntity
  8
SLD-0
  6
Continuous
 62
   179
100
AcDbLine
 10
260.1906666849
 20
143.2839886805
 30
0.0
 11
260.1906666849
 21
133.2839886805
 31
0.0
  0
LINE
  5
12D
330
1F
100
AcDbEntity
  8
SLD-0
  6
Continuous
 62
   179
100
AcDbLine
 10
260.1906666849
 20
133.2839886805
 30
0.0
 11
264.1906666849
 21
133.2839886805
 31
0.0
  0
LINE
  5
12E
330
1F
100
AcDbEntity
  8
SLD-0
  6
Continuous
 62
   179
100
AcDbLine
 10
259.9406666849
 20
135.3239886805
 30
0.0
 11
257.6906666849
 21
135.3239886805
 31
0.0
  0
LINE
  5
12F
330
1F
100
AcDbEntity
  8
SLD-0
  6
Continuous
 62
   179
100
AcDbLine
 10
257.6906666849
 20
135.3239886805
 30
0.0
 11
257.4006666849
 21
135.0339886805
 31
0.0
  0
LINE
  5
130
330
1F
100
AcDbEntity
  8
SLD-0
  6
Continuous
 62
   179
100
AcDbLine
 10
257.4006666849
 20
135.0339886805
 30
0.0
 11
252.1906666849
 21
135.0339886805
 31
0.0
  0
LINE
  5
131
330
1F
100
AcDbEntity
  8
SLD-0
  6
Continuous
 62
   179
100
AcDbLine
 10
252.1906666849
 20
132.5839886805
 30
0.0
 11
252.1906666849
 21
143.9839886805
 31
0.0
  0
LINE
  5
132
330
1F
100
AcDbEntity
  8
SLD-0
  6
Continuous
 62
   179
100
AcDbLine
 10
252.1906666849
 20
143.9839886805
 30
0.0
 11
251.3906666849
 21
144.7839886805
 31
0.0
  0
LINE
  5
133
330
1F
100
AcDbEntity
  8
SLD-0
  6
Continuous
 62
   179
100
AcDbLine
 10
251.3906666849
 20
144.7839886805
 30
0.0
 11
239.6906666849
 21
144.7839886805
 31
0.0
  0
LINE
  5
134
330
1F
100
AcDbEntity
  8
SLD-0
  6
Continuous
 62
   179
100
AcDbLine
 10
235.0929656849
 20
142.0718436805
 30
0.0
 11
234.9282316849
 21
141.5339886805
 31
0.0
  0
LINE
  5
135
330
1F
100
AcDbEntity
  8
SLD-0
  6
Continuous
 62
   179
100
AcDbLine
 10
235.0798136849
 20
141.5339886805
 30
0.0
 11
231.9387506849
 21
141.5339886805
 31
0.0
  0
LINE
  5
136
330
1F
100
AcDbEntity
  8
SLD-0
  6
Continuous
 62
   179
100
AcDbLine
 10
231.8285926849
 20
142.0469746805
 30
0.0
 11
233.4176616849
 21
134.6469746805
 31
0.0
  0
LINE
  5
137
330
1F
100
AcDbEntity
  8
SLD-0
  6
Continuous
 62
   179
100
AcDbLine
 10
232.8310346849
 20
134.5210026805
 30
0.0
 11
231.2419656849
 21
141.9210026805
 31
0.0
  0
LINE
  5
138
330
1F
100
AcDbEntity
  8
SLD-0
  6
Continuous
 62
   179
100
AcDbLine
 10
231.2329746849
 20
141.9628716805
 30
0.0
 11
231.1408766849
 21
141.5339886805
 31
0.0
  0
LINE
  5
139
330
1F
100
AcDbEntity
  8
SLD-0
  6
Continuous
 62
   179
100
AcDbLine
 10
231.3250726849
 20
141.5339886805
 30
0.0
 11
228.7787506849
 21
141.5339886805
 31
0.0
  0
LINE
  5
13A
330
1F
100
AcDbEntity
  8
SLD-0
  6
Continuous
 62
   179
100
AcDbLine
 10
228.6685926849
 20
142.0469746805
 30
0.0
 11
230.2666526849
 21
134.6051056805
 31
0.0
  0
LINE
  5
13B
330
1F
100
AcDbEntity
  8
SLD-0
  6
Continuous
 62
   179
100
AcDbLine
 10
229.6858356849
 20
134.4520786805
 30
0.0
 11
228.0729746849
 21
141.9628716805
 31
0.0
  0
LINE
  5
13C
330
1F
100
AcDbEntity
  8
SLD-0
  6
Continuous
 62
   179
100
AcDbLine
 10
228.0729746849
 20
141.9628716805
 30
0.0
 11
227.9808766849
 21
141.5339886805
 31
0.0
  0
LINE
  5
13D
330
1F
100
AcDbEntity
  8
SLD-0
  6
Continuous
 62
   179
100
AcDbLine
 10
228.1650726849
 20
141.5339886805
 30
0.0
 11
225.6187506849
 21
141.5339886805
 31
0.0
  0
LINE
  5
13E
330
1F
100
AcDbEntity
  8
SLD-0
  6
Continuous
 62
   179
100
AcDbLine
 10
225.5085926849
 20
142.0469746805
 30
0.0
 11
227.1066526849
 21
134.6051056805
 31
0.0
  0
LINE
  5
13F
330
1F
100
AcDbEntity
  8
SLD-0
  6
Continuous
 62
   179
100
AcDbLine
 10
227.0885926477
 20
134.5210029839
 30
0.0
 11
227.1987506477
 21
135.0339889839
 31
0.0
  0
LINE
  5
140
330
1F
100
AcDbEntity
  8
SLD-0
  6
Continuous
 62
   179
100
AcDbLine
 10
227.0145546849
 20
135.0339886805
 30
0.0
 11
229.5608766849
 21
135.0339886805
 31
0.0
  0
LINE
  5
141
330
1F
100
AcDbEntity
  8
SLD-0
  6
Continuous
 62
   179
100
AcDbLine
 10
230.1745546849
 20
135.0339886805
 30
0.0
 11
232.7208766849
 21
135.0339886805
 31
0.0
  0
LINE
  5
142
330
1F
100
AcDbEntity
  8
SLD-0
  6
Continuous
 62
   179
100
AcDbLine
 10
233.3345546849
 20
135.0339886805
 30
0.0
 11
235.0798136849
 21
135.0339886805
 31
0.0
  0
LINE
  5
143
330
1F
100
AcDbEntity
  8
SLD-0
  6
Continuous
 62
   179
100
AcDbLine
 10
235.0798136849
 20
134.5839886805
 30
0.0
 11
235.0798136849
 21
142.0289006805
 31
0.0
  0
LINE
  5
144
330
1F
100
AcDbEntity
  8
SLD-0
  6
Continuous
 62
   179
100
AcDbLine
 10
226.4008766849
 20
135.0339886805
 30
0.0
 11
225.1793416849
 21
135.0339886805
 31
0.0
  0
LINE
  5
145
330
1F
100
AcDbEntity
  8
SLD-0
  6
Continuous
 62
   179
100
AcDbLine
 10
225.1906666849
 20
131.5536036805
 30
0.0
 11
225.1906666849
 21
139.0143736805
 31
0.0
  0
LINE
  5
146
330
1F
100
AcDbEntity
  8
SLD-0
  6
Continuous
 62
   179
100
AcDbLine
 10
225.1906666849
 20
139.0143736805
 30
0.0
 11
224.8906666849
 21
139.5339886805
 31
0.0
  0
LINE
  5
147
330
1F
100
AcDbEntity
  8
SLD-0
  6
Continuous
 62
   179
100
AcDbLine
 10
224.8906666849
 20
139.5339886805
 30
0.0
 11
220.1906666849
 21
139.5339886805
 31
0.0
  0
LINE
  5
148
330
1F
100
AcDbEntity
  8
SLD-0
  6
Continuous
 62
   179
100
AcDbLine
 10
220.7798136849
 20
139.5339886805
 30
0.0
 11
220.7798136849
 21
141.9839886805
 31
0.0
  0
LINE
  5
149
330
1F
100
AcDbEntity
  8
SLD-0
  6
Continuous
 62
   179
100
AcDbLine
 10
220.7798136849
 20
141.5339886805
 30
0.0
 11
221.8450726849
 21
141.5339886805
 31
0.0
  0
LINE
  5
14A
330
1F
100
AcDbEntity
  8
SLD-0
  6
Continuous
 62
   179
100
AcDbLine
 10
221.6608766849
 20
141.5339886805
 30
0.0
 11
221.7529746849
 21
141.9628716805
 31
0.0
  0
LINE
  5
14B
330
1F
100
AcDbEntity
  8
SLD-0
  6
Continuous
 62
   179
100
AcDbLine
 10
221.7529746849
 20
141.9628716805
 30
0.0
 11
222.2745506849
 21
139.5339886805
 31
0.0
  0
LINE
  5
14C
330
1F
100
AcDbEntity
  8
SLD-0
  6
Continuous
 62
   179
100
AcDbLine
 10
222.8882286849
 20
139.5339886805
 30
0.0
 11
222.3485926849
 21
142.0469746805
 31
0.0
  0
LINE
  5
14D
330
1F
100
AcDbEntity
  8
SLD-0
  6
Continuous
 62
   179
100
AcDbLine
 10
222.4587506849
 20
141.5339886805
 30
0.0
 11
225.0050726849
 21
141.5339886805
 31
0.0
  0
LINE
  5
14E
330
1F
100
AcDbEntity
  8
SLD-0
  6
Continuous
 62
   179
100
AcDbLine
 10
224.8208766849
 20
141.5339886805
 30
0.0
 11
224.9129746849
 21
141.9628716805
 31
0.0
  0
LINE
  5
14F
330
1F
100
AcDbEntity
  8
SLD-0
  6
Continuous
 62
   179
100
AcDbLine
 10
224.9129746849
 20
141.9628716805
 30
0.0
 11
226.5258356849
 21
134.4520786805
 31
0.0
  0
LINE
  5
150
330
1F
100
AcDbEntity
  8
SLD-0
  6
Continuous
 62
   179
100
AcDbLine
 10
230.2485926477
 20
134.5210029839
 30
0.0
 11
230.3587506477
 21
135.0339889839
 31
0.0
  0
LINE
  5
151
330
1F
100
AcDbEntity
  8
SLD-0
  6
Continuous
 62
   179
100
AcDbLine
 10
233.4241986849
 20
134.5745096805
 30
0.0
 11
233.5649266849
 21
135.0339886805
 31
0.0
  0
LINE
  5
152
330
1F
100
AcDbEntity
  8
SLD-0
  6
Continuous
 62
   179
100
AcDbLine
 10
239.6906666849
 20
131.7839886805
 30
0.0
 11
251.3906666849
 21
131.7839886805
 31
0.0
  0
LINE
  5
153
330
1F
100
AcDbEntity
  8
SLD-0
  6
Continuous
 62
   179
100
AcDbLine
 10
251.3906666849
 20
131.7839886805
 30
0.0
 11
252.1906666849
 21
132.5839886805
 31
0.0
  0
LINE
  5
154
330
1F
100
AcDbEntity
  8
SLD-0
  6
Continuous
 62
   179
100
AcDbLine
 10
251.3906666849
 20
131.7839886805
 30
0.0
 11
251.3906666849
 21
144.7839886805
 31
0.0
  0
LINE
  5
155
330
1F
100
AcDbEntity
  8
SLD-0
  6
Continuous
 62
   179
100
AcDbLine
 10
252.1906666849
 20
141.5339886805
 30
0.0
 11
257.4006666849
 21
141.5339886805
 31
0.0
  0
LINE
  5
156
330
1F
100
AcDbEntity
  8
SLD-0
  6
Continuous
 62
   179
100
AcDbLine
 10
257.4006666849
 20
141.5339886805
 30
0.0
 11
257.4006666849
 21
135.0339886805
 31
0.0
  0
LINE
  5
157
330
1F
100
AcDbEntity
  8
SLD-0
  6
Continuous
 62
   179
100
AcDbLine
 10
257.6906666849
 20
135.3239886805
 30
0.0
 11
257.6906666849
 21
141.2439886805
 31
0.0
  0
LINE
  5
158
330
1F
100
AcDbEntity
  8
SLD-0
  6
Continuous
 62
   179
100
AcDbLine
 10
257.6906666849
 20
141.2439886805
 30
0.0
 11
259.9406666849
 21
141.2439886805
 31
0.0
  0
LINE
  5
159
330
1F
100
AcDbEntity
  8
SLD-0
  6
Continuous
 62
   179
100
AcDbLine
 10
257.6906666849
 20
141.2439886805
 30
0.0
 11
257.4006666849
 21
141.5339886805
 31
0.0
  0
LINE
  5
15A
330
1F
100
AcDbEntity
  8
SLD-0
  6
Continuous
 62
   179
100
AcDbLine
 10
224.8906666849
 20
139.5339886805
 30
0.0
 11
224.8906666849
 21
131.0339886805
 31
0.0
  0
LINE
  5
15B
330
1F
100
AcDbEntity
  8
SLD-0
  6
Continuous
 62
   179
100
AcDbLine
 10
224.8906666849
 20
131.0339886805
 30
0.0
 11
220.1906666849
 21
131.0339886805
 31
0.0
  0
LINE
  5
15C
330
1F
100
AcDbEntity
  8
SLD-0
  6
Continuous
 62
   179
100
AcDbLine
 10
224.8906666849
 20
131.0339886805
 30
0.0
 11
225.1906666849
 21
131.5536036805
 31
0.0
  0
LINE
  5
15D
330
1F
100
AcDbEntity
  8
SLD-0
  6
Continuous
 62
   179
100
AcDbLine
 10
214.1906666849
 20
115.2839886805
 30
0.0
 11
158.1906666849
 21
115.2839886805
 31
0.0
  0
LINE
  5
15E
330
1F
100
AcDbEntity
  8
SLD-0
  6
Continuous
 62
   179
100
AcDbLine
 10
158.1906666849
 20
130.2839886805
 30
0.0
 11
173.4203366849
 21
130.2839886805
 31
0.0
  0
LINE
  5
15F
330
1F
100
AcDbEntity
  8
SLD-0
  6
Continuous
 62
   179
100
AcDbLine
 10
175.4203366849
 20
128.2839886805
 30
0.0
 11
175.4203366849
 21
116.2839886805
 31
0.0
  0
LINE
  5
160
330
1F
100
AcDbEntity
  8
SLD-0
  6
Continuous
 62
   179
100
AcDbLine
 10
195.9609956849
 20
115.2839886805
 30
0.0
 11
196.9609956849
 21
116.2839886805
 31
0.0
  0
LINE
  5
161
330
1F
100
AcDbEntity
  8
SLD-0
  6
Continuous
 62
   179
100
AcDbLine
 10
144.6687775189
 20
89.8982177248
 30
0.0
 11
116.1687775189
 21
89.8982177248
 31
0.0
  0
LINE
  5
162
330
1F
100
AcDbEntity
  8
SLD-0
  6
Continuous
 62
   179
100
AcDbLine
 10
116.1687775189
 20
85.1294837248
 30
0.0
 11
144.6687775189
 21
85.1294837248
 31
0.0
  0
LINE
  5
163
330
1F
100
AcDbEntity
  8
SLD-0
  6
Continuous
 62
   179
100
AcDbLine
 10
144.6687775189
 20
82.6294837248
 30
0.0
 11
128.6687775189
 21
82.6294837248
 31
0.0
  0
LINE
  5
164
330
1F
100
AcDbEntity
  8
SLD-0
  6
Continuous
 62
   179
100
AcDbLine
 10
128.6687775189
 20
83.3201887248
 30
0.0
 11
128.6687775189
 21
71.9201887248
 31
0.0
  0
LINE
  5
165
330
1F
100
AcDbEntity
  8
SLD-0
  6
Continuous
 62
   179
100
AcDbLine
 10
128.6687775189
 20
71.9201887248
 30
0.0
 11
127.8687775189
 21
71.1201887248
 31
0.0
  0
LINE
  5
166
330
1F
100
AcDbEntity
  8
SLD-0
  6
Continuous
 62
   179
100
AcDbLine
 10
127.8687775189
 20
71.1201887248
 30
0.0
 11
116.1687775189
 21
71.1201887248
 31
0.0
  0
LINE
  5
167
330
1F
100
AcDbEntity
  8
SLD-0
  6
Continuous
 62
   179
100
AcDbLine
 10
116.1687775189
 20
70.1108937248
 30
0.0
 11
144.6687775189
 21
70.1108937248
 31
0.0
  0
LINE
  5
168
330
1F
100
AcDbEntity
  8
SLD-0
  6
Continuous
 62
   179
100
AcDbLine
 10
144.6687775189
 20
72.6108937248
 30
0.0
 11
128.6687775189
 21
72.6108937248
 31
0.0
  0
LINE
  5
169
330
1F
100
AcDbEntity
  8
SLD-0
  6
Continuous
 62
   179
100
AcDbLine
 10
127.8687775189
 20
71.1201887248
 30
0.0
 11
127.8687775189
 21
84.1201887248
 31
0.0
  0
LINE
  5
16A
330
1F
100
AcDbEntity
  8
SLD-0
  6
Continuous
 62
   179
100
AcDbLine
 10
127.8687775189
 20
84.1201887248
 30
0.0
 11
128.6687775189
 21
83.3201887248
 31
0.0
  0
LINE
  5
16B
330
1F
100
AcDbEntity
  8
SLD-0
  6
Continuous
 62
   179
100
AcDbLine
 10
127.8687775189
 20
84.1201887248
 30
0.0
 11
116.1687775189
 21
84.1201887248
 31
0.0
  0
LINE
  5
16C
330
1F
100
AcDbEntity
  8
SLD-0
  6
Continuous
 62
   179
100
AcDbLine
 10
128.6687775189
 20
80.8701887248
 30
0.0
 11
133.8787775189
 21
80.8701887248
 31
0.0
  0
LINE
  5
16D
330
1F
100
AcDbEntity
  8
SLD-0
  6
Continuous
 62
   179
100
AcDbLine
 10
133.8787775189
 20
80.8701887248
 30
0.0
 11
133.8787775189
 21
74.3701887248
 31
0.0
  0
LINE
  5
16E
330
1F
100
AcDbEntity
  8
SLD-0
  6
Continuous
 62
   179
100
AcDbLine
 10
133.8787775189
 20
74.3701887248
 30
0.0
 11
128.6687775189
 21
74.3701887248
 31
0.0
  0
LINE
  5
16F
330
1F
100
AcDbEntity
  8
SLD-0
  6
Continuous
 62
   179
100
AcDbLine
 10
133.8787775189
 20
74.3701887248
 30
0.0
 11
134.1687775189
 21
74.6601887248
 31
0.0
  0
LINE
  5
170
330
1F
100
AcDbEntity
  8
SLD-0
  6
Continuous
 62
   179
100
AcDbLine
 10
134.1687775189
 20
74.6601887248
 30
0.0
 11
136.4187775189
 21
74.6601887248
 31
0.0
  0
LINE
  5
171
330
1F
100
AcDbEntity
  8
SLD-0
  6
Continuous
 62
   179
100
AcDbLine
 10
136.6687775189
 20
72.6201887248
 30
0.0
 11
136.6687775189
 21
82.6201887248
 31
0.0
  0
LINE
  5
172
330
1F
100
AcDbEntity
  8
SLD-0
  6
Continuous
 62
   179
100
AcDbLine
 10
136.6687775189
 20
82.6201887248
 30
0.0
 11
140.6687775189
 21
82.6201887248
 31
0.0
  0
LINE
  5
173
330
1F
100
AcDbEntity
  8
SLD-0
  6
Continuous
 62
   179
100
AcDbLine
 10
141.1687775189
 20
82.1201887248
 30
0.0
 11
141.1687775189
 21
73.1201887248
 31
0.0
  0
LINE
  5
174
330
1F
100
AcDbEntity
  8
SLD-0
  6
Continuous
 62
   179
100
AcDbLine
 10
140.6687775189
 20
72.6201887248
 30
0.0
 11
136.6687775189
 21
72.6201887248
 31
0.0
  0
LINE
  5
175
330
1F
100
AcDbEntity
  8
SLD-0
  6
Continuous
 62
   179
100
AcDbLine
 10
134.1687775189
 20
74.6601887248
 30
0.0
 11
134.1687775189
 21
80.5801887248
 31
0.0
  0
LINE
  5
176
330
1F
100
AcDbEntity
  8
SLD-0
  6
Continuous
 62
   179
100
AcDbLine
 10
134.1687775189
 20
80.5801887248
 30
0.0
 11
133.8787775189
 21
80.8701887248
 31
0.0
  0
LINE
  5
177
330
1F
100
AcDbEntity
  8
SLD-0
  6
Continuous
 62
   179
100
AcDbLine
 10
134.1687775189
 20
80.5801887248
 30
0.0
 11
136.4187775189
 21
80.5801887248
 31
0.0
  0
LINE
  5
178
330
1F
100
AcDbEntity
  8
SLD-0
  6
Continuous
 62
   179
100
AcDbLine
 10
144.6687775189
 20
65.3421597248
 30
0.0
 11
116.1687775189
 21
65.3421597248
 31
0.0
  0
LINE
  5
179
330
1F
100
AcDbEntity
  8
SLD-0
  6
Continuous
 62
   179
100
AcDbLine
 10
303.1973106849
 20
183.7839886805
 30
0.0
 11
303.1973106849
 21
230.2839886805
 31
0.0
  0
LINE
  5
17A
330
1F
100
AcDbEntity
  8
SLD-0
  6
Continuous
 62
   179
100
AcDbLine
 10
264.6906666849
 20
206.7839886805
 30
0.0
 11
264.6906666849
 21
197.7839886805
 31
0.0
  0
LINE
  5
17B
330
1F
100
AcDbEntity
  8
SLD-0
  6
Continuous
 62
   179
100
AcDbLine
 10
264.1906666849
 20
197.2839886805
 30
0.0
 11
260.1906666849
 21
197.2839886805
 31
0.0
  0
LINE
  5
17C
330
1F
100
AcDbEntity
  8
SLD-0
  6
Continuous
 62
   179
100
AcDbLine
 10
260.1906666849
 20
197.2839886805
 30
0.0
 11
260.1906666849
 21
207.2839886805
 31
0.0
  0
LINE
  5
17D
330
1F
100
AcDbEntity
  8
SLD-0
  6
Continuous
 62
   179
100
AcDbLine
 10
260.1906666849
 20
207.2839886805
 30
0.0
 11
264.1906666849
 21
207.2839886805
 31
0.0
  0
LINE
  5
17E
330
1F
100
AcDbEntity
  8
SLD-0
  6
Continuous
 62
   179
100
AcDbLine
 10
259.9406666849
 20
205.2439886805
 30
0.0
 11
257.6906666849
 21
205.2439886805
 31
0.0
  0
LINE
  5
17F
330
1F
100
AcDbEntity
  8
SLD-0
  6
Continuous
 62
   179
100
AcDbLine
 10
257.6906666849
 20
205.2439886805
 30
0.0
 11
257.4006666849
 21
205.5339886805
 31
0.0
  0
LINE
  5
180
330
1F
100
AcDbEntity
  8
SLD-0
  6
Continuous
 62
   179
100
AcDbLine
 10
257.4006666849
 20
205.5339886805
 30
0.0
 11
257.4006666849
 21
199.0339886805
 31
0.0
  0
LINE
  5
181
330
1F
100
AcDbEntity
  8
SLD-0
  6
Continuous
 62
   179
100
AcDbLine
 10
257.4006666849
 20
199.0339886805
 30
0.0
 11
252.1906666849
 21
199.0339886805
 31
0.0
  0
LINE
  5
182
330
1F
100
AcDbEntity
  8
SLD-0
  6
Continuous
 62
   179
100
AcDbLine
 10
252.1906666849
 20
196.5839886805
 30
0.0
 11
252.1906666849
 21
207.9839886805
 31
0.0
  0
LINE
  5
183
330
1F
100
AcDbEntity
  8
SLD-0
  6
Continuous
 62
   179
100
AcDbLine
 10
252.1906666849
 20
207.9839886805
 30
0.0
 11
251.3906666849
 21
208.7839886805
 31
0.0
  0
LINE
  5
184
330
1F
100
AcDbEntity
  8
SLD-0
  6
Continuous
 62
   179
100
AcDbLine
 10
251.3906666849
 20
208.7839886805
 30
0.0
 11
251.3906666849
 21
195.7839886805
 31
0.0
  0
LINE
  5
185
330
1F
100
AcDbEntity
  8
SLD-0
  6
Continuous
 62
   179
100
AcDbLine
 10
251.3906666849
 20
195.7839886805
 30
0.0
 11
252.1906666849
 21
196.5839886805
 31
0.0
  0
LINE
  5
186
330
1F
100
AcDbEntity
  8
SLD-0
  6
Continuous
 62
   179
100
AcDbLine
 10
251.3906666849
 20
195.7839886805
 30
0.0
 11
239.6906666849
 21
195.7839886805
 31
0.0
  0
LINE
  5
187
330
1F
100
AcDbEntity
  8
SLD-0
  6
Continuous
 62
   179
100
AcDbLine
 10
231.2329746849
 20
205.9628716805
 30
0.0
 11
231.1408766849
 21
205.5339886805
 31
0.0
  0
LINE
  5
188
330
1F
100
AcDbEntity
  8
SLD-0
  6
Continuous
 62
   179
100
AcDbLine
 10
239.6906666849
 20
208.7839886805
 30
0.0
 11
251.3906666849
 21
208.7839886805
 31
0.0
  0
LINE
  5
189
330
1F
100
AcDbEntity
  8
SLD-0
  6
Continuous
 62
   179
100
AcDbLine
 10
252.1906666849
 20
205.5339886805
 30
0.0
 11
257.4006666849
 21
205.5339886805
 31
0.0
  0
LINE
  5
18A
330
1F
100
AcDbEntity
  8
SLD-0
  6
Continuous
 62
   179
100
AcDbLine
 10
257.6906666849
 20
205.2439886805
 30
0.0
 11
257.6906666849
 21
199.3239886805
 31
0.0
  0
LINE
  5
18B
330
1F
100
AcDbEntity
  8
SLD-0
  6
Continuous
 62
   179
100
AcDbLine
 10
257.6906666849
 20
199.3239886805
 30
0.0
 11
257.4006666849
 21
199.0339886805
 31
0.0
  0
LINE
  5
18C
330
1F
100
AcDbEntity
  8
SLD-0
  6
Continuous
 62
   179
100
AcDbLine
 10
257.6906666849
 20
199.3239886805
 30
0.0
 11
259.9406666849
 21
199.3239886805
 31
0.0
  0
LINE
  5
18D
330
1F
100
AcDbEntity
  8
SLD-0
  6
Continuous
 62
   179
100
AcDbLine
 10
307.1973106849
 20
224.7839886805
 30
0.0
 11
355.1973106849
 21
224.7839886805
 31
0.0
  0
LINE
  5
18E
330
1F
100
AcDbEntity
  8
SLD-0
  6
Continuous
 62
   179
100
AcDbLine
 10
333.3224504969
 20
247.9157009934
 30
0.0
 11
333.1169924969
 21
248.6824819934
 31
0.0
  0
LINE
  5
18F
330
1F
100
AcDbEntity
  8
SLD-0
  6
Continuous
 62
   179
100
AcDbLine
 10
333.6973106849
 20
250.2839886805
 30
0.0
 11
334.497310337
 21
250.2839886805
 31
0.0
  0
LINE
  5
190
330
1F
100
AcDbEntity
  8
SLD-0
  6
Continuous
 62
   179
100
AcDbLine
 10
332.1873105631
 20
253.4319878464
 30
0.0
 11
331.9473105631
 21
252.6688368464
 31
0.0
  0
LINE
  5
191
330
1F
100
AcDbEntity
  8
SLD-0
  6
Continuous
 62
   179
100
AcDbLine
 10
329.0721705252
 20
247.9157002156
 30
0.0
 11
329.2776295252
 21
248.6824812156
 31
0.0
  0
LINE
  5
192
330
1F
100
AcDbEntity
  8
SLD-0
  6
Continuous
 62
   179
100
AcDbLine
 10
328.6973106849
 20
250.2839886805
 30
0.0
 11
327.8973106849
 21
250.2839886805
 31
0.0
  0
LINE
  5
193
330
1F
100
AcDbEntity
  8
SLD-0
  6
Continuous
 62
   179
100
AcDbLine
 10
330.2073104587
 20
253.4319878464
 30
0.0
 11
330.4473104587
 21
252.6688368464
 31
0.0
  0
LINE
  5
194
330
1F
100
AcDbEntity
  8
SLD-0
  6
Continuous
 62
   179
100
AcDbLine
 10
214.1906668512
 20
230.2839886805
 30
0.0
 11
194.6906668512
 21
230.2839886805
 31
0.0
  0
LINE
  5
195
330
1F
100
AcDbEntity
  8
SLD-0
  6
Continuous
 62
   179
100
AcDbLine
 10
204.1906666849
 20
243.7839886805
 30
0.0
 11
204.8906666849
 21
243.7839886805
 31
0.0
  0
LINE
  5
196
330
1F
100
AcDbEntity
  8
SLD-0
  6
Continuous
 62
   179
100
AcDbLine
 10
204.8906666849
 20
243.7839886805
 30
0.0
 11
204.8906666849
 21
256.7839886805
 31
0.0
  0
LINE
  5
197
330
1F
100
AcDbEntity
  8
SLD-0
  6
Continuous
 62
   179
100
AcDbLine
 10
204.8906666849
 20
256.7839886805
 30
0.0
 11
204.1906666849
 21
256.7839886805
 31
0.0
  0
LINE
  5
198
330
1F
100
AcDbEntity
  8
SLD-0
  6
Continuous
 62
   179
100
AcDbLine
 10
204.8906666849
 20
256.7839886805
 30
0.0
 11
205.1906666849
 21
256.4839886805
 31
0.0
  0
LINE
  5
199
330
1F
100
AcDbEntity
  8
SLD-0
  6
Continuous
 62
   179
100
AcDbLine
 10
205.1906666849
 20
256.4839886805
 30
0.0
 11
205.1906666849
 21
244.0839886805
 31
0.0
  0
LINE
  5
19A
330
1F
100
AcDbEntity
  8
SLD-0
  6
Continuous
 62
   179
100
AcDbLine
 10
205.1906666849
 20
244.0839886805
 30
0.0
 11
204.8906666849
 21
243.7839886805
 31
0.0
  0
LINE
  5
19B
330
1F
100
AcDbEntity
  8
SLD-0
  6
Continuous
 62
   179
100
AcDbLine
 10
205.1906666849
 20
247.7839886805
 30
0.0
 11
205.5906666849
 21
247.7839886805
 31
0.0
  0
LINE
  5
19C
330
1F
100
AcDbEntity
  8
SLD-0
  6
Continuous
 62
   179
100
AcDbLine
 10
205.5906666849
 20
247.7839886805
 30
0.0
 11
205.5906666849
 21
251.7839886805
 31
0.0
  0
LINE
  5
19D
330
1F
100
AcDbEntity
  8
SLD-0
  6
Continuous
 62
   179
100
AcDbLine
 10
206.5906666849
 20
251.7839886805
 30
0.0
 11
206.5906666849
 21
247.7839886805
 31
0.0
  0
LINE
  5
19E
330
1F
100
AcDbEntity
  8
SLD-0
  6
Continuous
 62
   179
100
AcDbLine
 10
206.5906666849
 20
247.7839886805
 30
0.0
 11
207.6906666849
 21
247.7839886805
 31
0.0
  0
LINE
  5
19F
330
1F
100
AcDbEntity
  8
SLD-0
  6
Continuous
 62
   179
100
AcDbLine
 10
207.6906666849
 20
247.7839886805
 30
0.0
 11
208.1906666849
 21
248.2839886805
 31
0.0
  0
LINE
  5
1A0
330
1F
100
AcDbEntity
  8
SLD-0
  6
Continuous
 62
   179
100
AcDbLine
 10
208.1906666849
 20
248.2839886805
 30
0.0
 11
208.1906666849
 21
252.2839886805
 31
0.0
  0
LINE
  5
1A1
330
1F
100
AcDbEntity
  8
SLD-0
  6
Continuous
 62
   179
100
AcDbLine
 10
208.1906666849
 20
252.2839886805
 30
0.0
 11
207.6906666849
 21
252.7839886805
 31
0.0
  0
LINE
  5
1A2
330
1F
100
AcDbEntity
  8
SLD-0
  6
Continuous
 62
   179
100
AcDbLine
 10
207.6906666849
 20
252.7839886805
 30
0.0
 11
205.1906666849
 21
252.7839886805
 31
0.0
  0
LINE
  5
1A3
330
1F
100
AcDbEntity
  8
SLD-0
  6
Continuous
 62
   179
100
AcDbLine
 10
207.6906666849
 20
252.7839886805
 30
0.0
 11
207.6906666849
 21
247.7839886805
 31
0.0
  0
LINE
  5
1A4
330
1F
100
AcDbEntity
  8
SLD-0
  6
Continuous
 62
   179
100
AcDbLine
 10
194.6906666849
 20
247.7839886805
 30
0.0
 11
177.6906666849
 21
247.7839886805
 31
0.0
  0
LINE
  5
1A5
330
1F
100
AcDbEntity
  8
SLD-0
  6
Continuous
 62
   179
100
AcDbLine
 10
177.6906666849
 20
252.7839886805
 30
0.0
 11
194.6906666849
 21
252.7839886805
 31
0.0
  0
LINE
  5
1A6
330
1F
100
AcDbEntity
  8
SLD-0
  6
Continuous
 62
   179
100
AcDbLine
 10
168.1906666849
 20
256.7839886805
 30
0.0
 11
167.4906666849
 21
256.7839886805
 31
0.0
  0
LINE
  5
1A7
330
1F
100
AcDbEntity
  8
SLD-0
  6
Continuous
 62
   179
100
AcDbLine
 10
167.4906666849
 20
256.7839886805
 30
0.0
 11
167.1906666849
 21
256.4839886805
 31
0.0
  0
LINE
  5
1A8
330
1F
100
AcDbEntity
  8
SLD-0
  6
Continuous
 62
   179
100
AcDbLine
 10
167.1906666849
 20
256.4839886805
 30
0.0
 11
167.1906666849
 21
244.0839886805
 31
0.0
  0
LINE
  5
1A9
330
1F
100
AcDbEntity
  8
SLD-0
  6
Continuous
 62
   179
100
AcDbLine
 10
167.1906666849
 20
244.0839886805
 30
0.0
 11
167.4906666849
 21
243.7839886805
 31
0.0
  0
LINE
  5
1AA
330
1F
100
AcDbEntity
  8
SLD-0
  6
Continuous
 62
   179
100
AcDbLine
 10
167.4906666849
 20
243.7839886805
 30
0.0
 11
167.4906666849
 21
256.7839886805
 31
0.0
  0
LINE
  5
1AB
330
1F
100
AcDbEntity
  8
SLD-0
  6
Continuous
 62
   179
100
AcDbLine
 10
166.4906666849
 20
254.7839886805
 30
0.0
 11
165.8906666849
 21
254.7839886805
 31
0.0
  0
LINE
  5
1AC
330
1F
100
AcDbEntity
  8
SLD-0
  6
Continuous
 62
   179
100
AcDbLine
 10
165.8906666849
 20
254.7839886805
 30
0.0
 11
165.8906666849
 21
247.2839886805
 31
0.0
  0
LINE
  5
1AD
330
1F
100
AcDbEntity
  8
SLD-0
  6
Continuous
 62
   179
100
AcDbLine
 10
165.8906666849
 20
247.2839886805
 30
0.0
 11
166.4906666849
 21
247.2839886805
 31
0.0
  0
LINE
  5
1AE
330
1F
100
AcDbEntity
  8
SLD-0
  6
Continuous
 62
   179
100
AcDbLine
 10
166.4906666849
 20
247.2839886805
 30
0.0
 11
166.4906666849
 21
254.7839886805
 31
0.0
  0
LINE
  5
1AF
330
1F
100
AcDbEntity
  8
SLD-0
  6
Continuous
 62
   179
100
AcDbLine
 10
166.6906666849
 20
252.7839886805
 30
0.0
 11
166.6906666849
 21
247.7839886805
 31
0.0
  0
LINE
  5
1B0
330
1F
100
AcDbEntity
  8
SLD-0
  6
Continuous
 62
   179
100
AcDbLine
 10
166.6906666849
 20
247.7839886805
 30
0.0
 11
167.1906666849
 21
247.7839886805
 31
0.0
  0
LINE
  5
1B1
330
1F
100
AcDbEntity
  8
SLD-0
  6
Continuous
 62
   179
100
AcDbLine
 10
166.6906666849
 20
248.2589886805
 30
0.0
 11
166.4906666849
 21
248.2589886805
 31
0.0
  0
LINE
  5
1B2
330
1F
100
AcDbEntity
  8
SLD-0
  6
Continuous
 62
   179
100
AcDbLine
 10
165.8906666849
 20
248.2589886805
 30
0.0
 11
165.6906666849
 21
248.2589886805
 31
0.0
  0
LINE
  5
1B3
330
1F
100
AcDbEntity
  8
SLD-0
  6
Continuous
 62
   179
100
AcDbLine
 10
165.6906666849
 20
247.7839886805
 30
0.0
 11
165.6906666849
 21
252.7839886805
 31
0.0
  0
LINE
  5
1B4
330
1F
100
AcDbEntity
  8
SLD-0
  6
Continuous
 62
   179
100
AcDbLine
 10
165.6906666849
 20
252.7839886805
 30
0.0
 11
164.6906666849
 21
252.7839886805
 31
0.0
  0
LINE
  5
1B5
330
1F
100
AcDbEntity
  8
SLD-0
  6
Continuous
 62
   179
100
AcDbLine
 10
164.6906666849
 20
252.7839886805
 30
0.0
 11
164.6906666849
 21
247.7839886805
 31
0.0
  0
LINE
  5
1B6
330
1F
100
AcDbEntity
  8
SLD-0
  6
Continuous
 62
   179
100
AcDbLine
 10
164.6906666849
 20
247.7839886805
 30
0.0
 11
165.6906666849
 21
247.7839886805
 31
0.0
  0
LINE
  5
1B7
330
1F
100
AcDbEntity
  8
SLD-0
  6
Continuous
 62
   179
100
AcDbLine
 10
164.6906666849
 20
247.7839886805
 30
0.0
 11
164.1906666849
 21
248.2839886805
 31
0.0
  0
LINE
  5
1B8
330
1F
100
AcDbEntity
  8
SLD-0
  6
Continuous
 62
   179
100
AcDbLine
 10
164.1906666849
 20
248.2839886805
 30
0.0
 11
164.1906666849
 21
252.2839886805
 31
0.0
  0
LINE
  5
1B9
330
1F
100
AcDbEntity
  8
SLD-0
  6
Continuous
 62
   179
100
AcDbLine
 10
164.1906666849
 20
252.2839886805
 30
0.0
 11
164.6906666849
 21
252.7839886805
 31
0.0
  0
LINE
  5
1BA
330
1F
100
AcDbEntity
  8
SLD-0
  6
Continuous
 62
   179
100
AcDbLine
 10
165.6906666849
 20
252.3089886805
 30
0.0
 11
165.8906666849
 21
252.3089886805
 31
0.0
  0
LINE
  5
1BB
330
1F
100
AcDbEntity
  8
SLD-0
  6
Continuous
 62
   179
100
AcDbLine
 10
166.4906666849
 20
252.3089886805
 30
0.0
 11
166.6906666849
 21
252.3089886805
 31
0.0
  0
LINE
  5
1BC
330
1F
100
AcDbEntity
  8
SLD-0
  6
Continuous
 62
   179
100
AcDbLine
 10
166.6906666849
 20
252.7839886805
 30
0.0
 11
167.1906666849
 21
252.7839886805
 31
0.0
  0
LINE
  5
1BD
330
1F
100
AcDbEntity
  8
SLD-0
  6
Continuous
 62
   179
100
AcDbLine
 10
167.4906666849
 20
243.7839886805
 30
0.0
 11
168.1906666849
 21
243.7839886805
 31
0.0
  0
LINE
  5
1BE
330
1F
100
AcDbEntity
  8
SLD-0
  6
Continuous
 62
   179
100
AcDbLine
 10
177.6906666849
 20
230.2839886805
 30
0.0
 11
158.1906666849
 21
230.2839886805
 31
0.0
  0
LINE
  5
1BF
330
1F
100
AcDbEntity
  8
SLD-0
  6
Continuous
 62
   179
100
AcDbLine
 10
70.0180085189
 20
114.8201887248
 30
0.0
 11
64.3195465189
 21
114.8201887248
 31
0.0
  0
LINE
  5
1C0
330
1F
100
AcDbEntity
  8
SLD-0
  6
Continuous
 62
   179
100
AcDbLine
 10
64.3195465189
 20
108.4201887248
 30
0.0
 11
70.0180085189
 21
108.4201887248
 31
0.0
  0
LINE
  5
1C1
330
1F
100
AcDbEntity
  8
SLD-0
  6
CENTER
 62
   179
100
AcDbLine
 10
57.4136595189
 20
43.6201887248
 30
0.0
 11
76.4075735189
 21
43.6201887248
 31
0.0
  0
LINE
  5
1C2
330
1F
100
AcDbEntity
  8
SLD-0
  6
CENTER
 62
   179
100
AcDbLine
 10
70.4187775189
 20
38.8547337248
 30
0.0
 11
70.4187775189
 21
49.1601887248
 31
0.0
  0
LINE
  5
1C3
330
1F
100
AcDbEntity
  8
SLD-0
  6
CENTER
 62
   179
100
AcDbLine
 10
63.9187775189
 20
48.4229367248
 30
0.0
 11
63.9187775189
 21
39.0438247248
 31
0.0
  0
LINE
  5
1C4
330
1F
100
AcDbEntity
  8
SLD-0
  6
CENTER
 62
   179
100
AcDbLine
 10
67.1687775189
 20
31.2944747248
 30
0.0
 11
67.1687775189
 21
124.9092227248
 31
0.0
  0
LINE
  5
1C5
330
1F
100
AcDbEntity
  8
SLD-0
  6
CENTER
 62
   179
100
AcDbLine
 10
70.4187775189
 20
116.3856427248
 30
0.0
 11
70.4187775189
 21
106.0801887248
 31
0.0
  0
LINE
  5
1C6
330
1F
100
AcDbEntity
  8
SLD-0
  6
CENTER
 62
   179
100
AcDbLine
 10
63.9187775189
 20
106.8174407248
 30
0.0
 11
63.9187775189
 21
116.1965527248
 31
0.0
  0
LINE
  5
1C7
330
1F
100
AcDbEntity
  8
SLD-0
  6
CENTER
 62
   179
100
AcDbLine
 10
56.5914775189
 20
111.6201887248
 30
0.0
 11
78.0798445189
 21
111.6201887248
 31
0.0
  0
LINE
  5
1C8
330
1F
100
AcDbEntity
  8
SLD-0
  6
HIDDEN
 62
   179
100
AcDbLine
 10
112.1687775189
 20
105.6201887248
 30
0.0
 11
112.1687775189
 21
49.6201887248
 31
0.0
  0
LINE
  5
1C9
330
1F
100
AcDbEntity
  8
SLD-0
  6
Continuous
 62
   179
100
AcDbLine
 10
116.1687775189
 20
56.9701887248
 30
0.0
 11
125.5187775189
 21
56.9701887248
 31
0.0
  0
LINE
  5
1CA
330
1F
100
AcDbEntity
  8
SLD-0
  6
CENTER
 62
   179
100
AcDbLine
 10
128.1373755189
 20
58.6201887248
 30
0.0
 11
110.0096595189
 21
58.6201887248
 31
0.0
  0
LINE
  5
1CB
330
1F
100
AcDbEntity
  8
SLD-0
  6
Continuous
 62
   179
100
AcDbLine
 10
116.1687775189
 20
60.2701887248
 30
0.0
 11
125.5187775189
 21
60.2701887248
 31
0.0
  0
LINE
  5
1CC
330
1F
100
AcDbEntity
  8
SLD-0
  6
CENTER
 62
   179
100
AcDbLine
 10
149.4651695189
 20
77.6201887248
 30
0.0
 11
28.5901935189
 21
77.6201887248
 31
0.0
  0
LINE
  5
1CD
330
1F
100
AcDbEntity
  8
SLD-0
  6
CENTER
 62
   179
100
AcDbLine
 10
155.7261356849
 20
145.2839886805
 30
0.0
 11
168.3696386849
 21
145.2839886805
 31
0.0
  0
LINE
  5
1CE
330
1F
100
AcDbEntity
  8
SLD-0
  6
CENTER
 62
   179
100
AcDbLine
 10
163.1906666849
 20
138.6926406805
 30
0.0
 11
163.1906666849
 21
210.3578266805
 31
0.0
  0
LINE
  5
1CF
330
1F
100
AcDbEntity
  8
SLD-0
  6
CENTER
 62
   179
100
AcDbLine
 10
168.1442766849
 20
205.2839886805
 30
0.0
 11
156.1665826849
 21
205.2839886805
 31
0.0
  0
LINE
  5
1D0
330
1F
100
AcDbEntity
  8
SLD-0
  6
CENTER
 62
   179
100
AcDbLine
 10
204.2370566849
 20
205.2839886805
 30
0.0
 11
215.8471016849
 21
205.2839886805
 31
0.0
  0
LINE
  5
1D1
330
1F
100
AcDbEntity
  8
SLD-0
  6
CENTER
 62
   179
100
AcDbLine
 10
218.5614466849
 20
205.9628716805
 30
0.0
 11
236.5852766849
 21
205.9628716805
 31
0.0
  0
LINE
  5
1D2
330
1F
100
AcDbEntity
  8
SLD-0
  6
CENTER
 62
   179
100
AcDbLine
 10
236.5852766849
 20
198.6051056805
 30
0.0
 11
218.5614466849
 21
198.6051056805
 31
0.0
  0
LINE
  5
1D3
330
1F
100
AcDbEntity
  8
SLD-0
  6
CENTER
 62
   179
100
AcDbLine
 10
217.8680006849
 20
195.2839886805
 30
0.0
 11
227.3083816849
 21
195.2839886805
 31
0.0
  0
LINE
  5
1D4
330
1F
100
AcDbEntity
  8
SLD-0
  6
CENTER
 62
   179
100
AcDbLine
 10
247.6906666849
 20
174.3064296805
 30
0.0
 11
247.6906666849
 21
166.3065036805
 31
0.0
  0
LINE
  5
1D5
330
1F
100
AcDbEntity
  8
SLD-0
  6
CENTER
 62
   179
100
AcDbLine
 10
262.6906666849
 20
166.4000696805
 30
0.0
 11
262.6906666849
 21
174.3532126805
 31
0.0
  0
LINE
  5
1D6
330
1F
100
AcDbEntity
  8
SLD-0
  6
CENTER
 62
   179
100
AcDbLine
 10
272.3841356849
 20
170.2839886805
 30
0.0
 11
212.0266796849
 21
170.2839886805
 31
0.0
  0
LINE
  5
1D7
330
1F
100
AcDbEntity
  8
SLD-0
  6
CENTER
 62
   179
100
AcDbLine
 10
212.1997516849
 20
202.2839886805
 30
0.0
 11
266.0178376849
 21
202.2839886805
 31
0.0
  0
LINE
  5
1D8
330
1F
100
AcDbEntity
  8
SLD-0
  6
CENTER
 62
   179
100
AcDbLine
 10
300.4743596849
 20
195.2839886805
 30
0.0
 11
360.7440756849
 21
195.2839886805
 31
0.0
  0
LINE
  5
1D9
330
1F
100
AcDbEntity
  8
SLD-0
  6
CENTER
 62
   179
100
AcDbLine
 10
354.1973106849
 20
189.0418646805
 30
0.0
 11
354.1973106849
 21
203.2955326805
 31
0.0
  0
LINE
  5
1DA
330
1F
100
AcDbEntity
  8
SLD-0
  6
CENTER
 62
   179
100
AcDbLine
 10
349.1973106849
 20
207.2175416805
 30
0.0
 11
349.1973106849
 21
217.7791286805
 31
0.0
  0
LINE
  5
1DB
330
1F
100
AcDbEntity
  8
SLD-0
  6
CENTER
 62
   179
100
AcDbLine
 10
356.8809476849
 20
212.2839886805
 30
0.0
 11
306.6118566849
 21
212.2839886805
 31
0.0
  0
LINE
  5
1DC
330
1F
100
AcDbEntity
  8
SLD-0
  6
CENTER
 62
   179
100
AcDbLine
 10
313.1973106849
 20
206.3712606805
 30
0.0
 11
313.1973106849
 21
218.5894426805
 31
0.0
  0
LINE
  5
1DD
330
1F
100
AcDbEntity
  8
SLD-0
  6
CENTER
 62
   179
100
AcDbLine
 10
308.1973106849
 20
203.5728406805
 30
0.0
 11
308.1973106849
 21
189.1527886805
 31
0.0
  0
LINE
  5
1DE
330
1F
100
AcDbEntity
  8
SLD-0
  6
CENTER
 62
   179
100
AcDbLine
 10
315.4683096849
 20
180.2839886805
 30
0.0
 11
346.9335226849
 21
180.2839886805
 31
0.0
  0
LINE
  5
1DF
330
1F
100
AcDbEntity
  8
SLD-0
  6
CENTER
 62
   179
100
AcDbLine
 10
350.1973106849
 20
175.2266736805
 30
0.0
 11
350.1973106849
 21
165.4656156805
 31
0.0
  0
LINE
  5
1E0
330
1F
100
AcDbEntity
  8
SLD-0
  6
CENTER
 62
   179
100
AcDbLine
 10
359.4388236849
 20
173.0836036805
 30
0.0
 11
370.4945006849
 21
173.0836036805
 31
0.0
  0
LINE
  5
1E1
330
1F
100
AcDbEntity
  8
SLD-0
  6
CENTER
 62
   179
100
AcDbLine
 10
370.4945006849
 20
167.4843726805
 30
0.0
 11
359.4388236849
 21
167.4843726805
 31
0.0
  0
LINE
  5
1E2
330
1F
100
AcDbEntity
  8
SLD-0
  6
CENTER
 62
   179
100
AcDbLine
 10
365.1973106849
 20
159.3184636805
 30
0.0
 11
365.1973106849
 21
179.2469656805
 31
0.0
  0
LINE
  5
1E3
330
1F
100
AcDbEntity
  8
SLD-0
  6
CENTER
 62
   179
100
AcDbLine
 10
291.9001216849
 20
167.4843726805
 30
0.0
 11
302.9557986849
 21
167.4843726805
 31
0.0
  0
LINE
  5
1E4
330
1F
100
AcDbEntity
  8
SLD-0
  6
CENTER
 62
   179
100
AcDbLine
 10
302.9557986849
 20
173.0836036805
 30
0.0
 11
291.9001216849
 21
173.0836036805
 31
0.0
  0
LINE
  5
1E5
330
1F
100
AcDbEntity
  8
SLD-0
  6
CENTER
 62
   179
100
AcDbLine
 10
297.1973106849
 20
178.8903306805
 30
0.0
 11
297.1973106849
 21
159.3184636805
 31
0.0
  0
LINE
  5
1E6
330
1F
100
AcDbEntity
  8
SLD-0
  6
CENTER
 62
   179
100
AcDbLine
 10
312.1973106849
 20
165.1170066805
 30
0.0
 11
312.1973106849
 21
175.0175086805
 31
0.0
  0
LINE
  5
1E7
330
1F
100
AcDbEntity
  8
SLD-0
  6
CENTER
 62
   179
100
AcDbLine
 10
321.1973106849
 20
186.0890796805
 30
0.0
 11
321.1973106849
 21
154.1975646805
 31
0.0
  0
LINE
  5
1E8
330
1F
100
AcDbEntity
  8
SLD-0
  6
CENTER
 62
   179
100
AcDbLine
 10
315.0623076849
 20
160.2839886805
 30
0.0
 11
347.1771246849
 21
160.2839886805
 31
0.0
  0
LINE
  5
1E9
330
1F
100
AcDbEntity
  8
SLD-0
  6
CENTER
 62
   179
100
AcDbLine
 10
341.1973106849
 20
154.0757636805
 30
0.0
 11
341.1973106849
 21
186.8198846805
 31
0.0
  0
LINE
  5
1EA
330
1F
100
AcDbEntity
  8
SLD-0
  6
CENTER
 62
   179
100
AcDbLine
 10
339.8034976849
 20
202.2839886805
 30
0.0
 11
321.7561206849
 21
202.2839886805
 31
0.0
  0
LINE
  5
1EB
330
1F
100
AcDbEntity
  8
SLD-0
  6
CENTER
 62
   179
100
AcDbLine
 10
323.0931886849
 20
250.2839886805
 30
0.0
 11
327.8973106849
 21
250.2839886805
 31
0.0
  0
LINE
  5
1EC
330
1F
100
AcDbEntity
  8
SLD-0
  6
CENTER
 62
   179
100
AcDbLine
 10
328.6973106849
 20
250.2839886805
 30
0.0
 11
333.6973106849
 21
250.2839886805
 31
0.0
  0
LINE
  5
1ED
330
1F
100
AcDbEntity
  8
SLD-0
  6
CENTER
 62
   179
100
AcDbLine
 10
334.497310337
 20
250.2839886805
 30
0.0
 11
339.301433337
 21
250.2839886805
 31
0.0
  0
LINE
  5
1EE
330
1F
100
AcDbEntity
  8
SLD-0
  6
CENTER
 62
   179
100
AcDbLine
 10
331.1973106849
 20
270.9826016805
 30
0.0
 11
331.1973106849
 21
76.7464206805
 31
0.0
  0
LINE
  5
1EF
330
1F
100
AcDbEntity
  8
SLD-0
  6
HIDDEN
 62
   179
100
AcDbLine
 10
359.1973106849
 20
87.2839886805
 30
0.0
 11
303.1973106849
 21
87.2839886805
 31
0.0
  0
LINE
  5
1F0
330
1F
100
AcDbEntity
  8
SLD-0
  6
CENTER
 62
   179
100
AcDbLine
 10
297.1973106849
 20
90.9794746805
 30
0.0
 11
297.1973106849
 21
78.8659316805
 31
0.0
  0
LINE
  5
1F1
330
1F
100
AcDbEntity
  8
SLD-0
  6
CENTER
 62
   179
100
AcDbLine
 10
308.1973106849
 20
129.0418646805
 30
0.0
 11
308.1973106849
 21
141.2371226805
 31
0.0
  0
LINE
  5
1F2
330
1F
100
AcDbEntity
  8
SLD-0
  6
CENTER
 62
   179
100
AcDbLine
 10
313.1899096849
 20
135.2839886805
 30
0.0
 11
302.2615616849
 21
135.2839886805
 31
0.0
  0
LINE
  5
1F3
330
1F
100
AcDbEntity
  8
SLD-0
  6
CENTER
 62
   179
100
AcDbLine
 10
323.5739296849
 20
138.2839886805
 30
0.0
 11
338.8594816849
 21
138.2839886805
 31
0.0
  0
LINE
  5
1F4
330
1F
100
AcDbEntity
  8
SLD-0
  6
CENTER
 62
   179
100
AcDbLine
 10
349.2047126849
 20
135.2839886805
 30
0.0
 11
360.1330606849
 21
135.2839886805
 31
0.0
  0
LINE
  5
1F5
330
1F
100
AcDbEntity
  8
SLD-0
  6
CENTER
 62
   179
100
AcDbLine
 10
354.1973106849
 20
141.2371226805
 30
0.0
 11
354.1973106849
 21
129.0418646805
 31
0.0
  0
LINE
  5
1F6
330
1F
100
AcDbEntity
  8
SLD-0
  6
CENTER
 62
   179
100
AcDbLine
 10
365.1973106849
 20
90.9794746805
 30
0.0
 11
365.1973106849
 21
78.8659316805
 31
0.0
  0
LINE
  5
1F7
330
1F
100
AcDbEntity
  8
SLD-0
  6
CENTER
 62
   179
100
AcDbLine
 10
267.8939806849
 20
138.2839886805
 30
0.0
 11
216.1650666849
 21
138.2839886805
 31
0.0
  0
LINE
  5
1F8
330
1F
100
AcDbEntity
  8
SLD-0
  6
CENTER
 62
   179
100
AcDbLine
 10
217.8680006849
 20
135.2839886805
 30
0.0
 11
227.3083816849
 21
135.2839886805
 31
0.0
  0
LINE
  5
1F9
330
1F
100
AcDbEntity
  8
SLD-0
  6
CENTER
 62
   179
100
AcDbLine
 10
236.5852766849
 20
134.6051056805
 30
0.0
 11
218.5614466849
 21
134.6051056805
 31
0.0
  0
LINE
  5
1FA
330
1F
100
AcDbEntity
  8
SLD-0
  6
CENTER
 62
   179
100
AcDbLine
 10
218.5614466849
 20
141.9628716805
 30
0.0
 11
236.5852766849
 21
141.9628716805
 31
0.0
  0
LINE
  5
1FB
330
1F
100
AcDbEntity
  8
SLD-0
  6
CENTER
 62
   179
100
AcDbLine
 10
216.0673256849
 20
145.2839886805
 30
0.0
 11
204.0116946849
 21
145.2839886805
 31
0.0
  0
LINE
  5
1FC
330
1F
100
AcDbEntity
  8
SLD-0
  6
CENTER
 62
   179
100
AcDbLine
 10
209.1906666849
 20
138.6926406805
 30
0.0
 11
209.1906666849
 21
210.3578266805
 31
0.0
  0
LINE
  5
1FD
330
1F
100
AcDbEntity
  8
SLD-0
  6
CENTER
 62
   179
100
AcDbLine
 10
210.1632756849
 20
250.2839886805
 30
0.0
 11
160.9476226849
 21
250.2839886805
 31
0.0
  0
LINE
  5
1FE
330
1F
100
AcDbEntity
  8
SLD-0
  6
CENTER
 62
   179
100
AcDbLine
 10
186.1906666849
 20
262.9098866805
 30
0.0
 11
186.1906666849
 21
80.6754166805
 31
0.0
  0
LINE
  5
1FF
330
1F
100
AcDbEntity
  8
SLD-0
  6
CENTER
 62
   179
100
AcDbLine
 10
187.8910506849
 20
81.8388356805
 30
0.0
 11
187.8910506849
 21
88.6297126805
 31
0.0
  0
LINE
  5
200
330
1F
100
AcDbEntity
  8
SLD-0
  6
CENTER
 62
   179
100
AcDbLine
 10
190.6906666849
 20
88.6297126805
 30
0.0
 11
190.6906666849
 21
81.8388356805
 31
0.0
  0
LINE
  5
201
330
1F
100
AcDbEntity
  8
SLD-0
  6
CENTER
 62
   179
100
AcDbLine
 10
193.4902816849
 20
81.8388356805
 30
0.0
 11
193.4902816849
 21
88.6297126805
 31
0.0
  0
LINE
  5
202
330
1F
100
AcDbEntity
  8
SLD-0
  6
CENTER
 62
   179
100
AcDbLine
 10
193.4375996849
 20
98.0157766805
 30
0.0
 11
193.4375996849
 21
112.6071946805
 31
0.0
  0
LINE
  5
203
330
1F
100
AcDbEntity
  8
SLD-0
  6
CENTER
 62
   179
100
AcDbLine
 10
200.4133436849
 20
105.2839886805
 30
0.0
 11
186.3289636849
 21
105.2839886805
 31
0.0
  0
LINE
  5
204
330
1F
100
AcDbEntity
  8
SLD-0
  6
Continuous
 62
   179
100
AcDbLine
 10
239.6906666849
 20
116.0056206805
 30
0.0
 11
239.6906666849
 21
116.9463226805
 31
0.0
  0
LINE
  5
205
330
1F
100
AcDbEntity
  8
SLD-0
  6
Continuous
 62
   179
100
AcDbLine
 10
351.8515756849
 20
169.1599736805
 30
0.0
 11
354.6791796849
 21
168.1576496805
 31
0.0
  0
LINE
  5
206
330
1F
100
AcDbEntity
  8
SLD-0
  6
Continuous
 62
   179
100
AcDbLine
 10
351.8515756849
 20
169.1599736805
 30
0.0
 11
353.7991906849
 21
166.8781336805
 31
0.0
  0
LINE
  5
207
330
1F
100
AcDbEntity
  8
SLD-0
  6
HIDDEN
 62
   179
100
AcDbLine
 10
197.8906666849
 20
122.3839886805
 30
0.0
 11
201.8906666849
 21
122.3839886805
 31
0.0
  0
LINE
  5
208
330
1F
100
AcDbEntity
  8
SLD-0
  6
HIDDEN
 62
     3
100
AcDbLine
 10
453.6614966849
 20
87.5981146805
 30
0.0
 11
457.6614966849
 21
87.5981146805
 31
0.0
  0
LINE
  5
209
330
1F
100
AcDbEntity
  8
SLD-0
  6
Continuous
 62
   179
100
AcDbLine
 10
402.25
 20
285.5
 30
0.0
 11
402.25
 21
11.5
 31
0.0
  0
LINE
  5
20A
330
1F
100
AcDbEntity
  8
SLD-0
  6
Continuous
 62
   179
100
AcDbLine
 10
17.25
 20
11.5
 30
0.0
 11
402.25
 21
11.5
 31
0.0
  0
LINE
  5
20B
330
1F
100
AcDbEntity
  8
SLD-0
  6
Continuous
 62
   179
100
AcDbLine
 10
17.25
 20
285.5
 30
0.0
 11
17.25
 21
11.5
 31
0.0
  0
LINE
  5
20C
330
1F
100
AcDbEntity
  8
SLD-0
  6
Continuous
 62
   179
100
AcDbLine
 10
17.25
 20
285.5
 30
0.0
 11
402.25
 21
285.5
 31
0.0
  0
LINE
  5
20D
330
1F
100
AcDbEntity
  8
SLD-0
  6
Continuous
 62
   179
100
AcDbLine
 10
82.8746895524
 20
21.6004849985
 30
0.0
 11
103.2494880858
 21
21.6004849985
 31
0.0
  0
LINE
  5
20E
330
1F
100
AcDbEntity
  8
SLD-0
  6
Continuous
 62
   179
100
AcDbLine
 10
82.8746895524
 20
20.6004849985
 30
0.0
 11
103.2494880858
 21
20.6004849985
 31
0.0
  0
LINE
  5
20F
330
1F
100
AcDbEntity
  8
SLD-0
  6
Continuous
 62
   179
100
AcDbLine
 10
333.75
 20
50.0
 30
0.0
 11
333.75
 21
11.5
 31
0.0
  0
LINE
  5
210
330
1F
100
AcDbEntity
  8
SLD-0
  6
Continuous
 62
   179
100
AcDbLine
 10
333.75
 20
24.0
 30
0.0
 11
402.25
 21
24.0
 31
0.0
  0
LINE
  5
211
330
1F
100
AcDbEntity
  8
SLD-0
  6
Continuous
 62
   179
100
AcDbLine
 10
333.75
 20
36.5
 30
0.0
 11
402.25
 21
36.5
 31
0.0
  0
LINE
  5
212
330
1F
100
AcDbEntity
  8
SLD-0
  6
Continuous
 62
   179
100
AcDbLine
 10
333.75
 20
50.0
 30
0.0
 11
402.25
 21
50.0
 31
0.0
  0
LINE
  5
213
330
1F
100
AcDbEntity
  8
SLD-0
  6
Continuous
 62
   179
100
AcDbLine
 10
17.05
 20
11.3
 30
0.0
 11
402.45
 21
11.3
 31
0.0
  0
LINE
  5
214
330
1F
100
AcDbEntity
  8
SLD-0
  6
Continuous
 62
   179
100
AcDbLine
 10
17.05
 20
285.7
 30
0.0
 11
17.05
 21
11.3
 31
0.0
  0
LINE
  5
215
330
1F
100
AcDbEntity
  8
SLD-0
  6
Continuous
 62
   179
100
AcDbLine
 10
17.05
 20
285.7
 30
0.0
 11
402.45
 21
285.7
 31
0.0
  0
LINE
  5
216
330
1F
100
AcDbEntity
  8
SLD-0
  6
Continuous
 62
   179
100
AcDbLine
 10
402.45
 20
285.7
 30
0.0
 11
402.45
 21
11.3
 31
0.0
  0
LINE
  5
217
330
1F
100
AcDbEntity
  8
SLD-0
  6
Continuous
 62
   179
100
AcDbLine
 10
188.7178007256
 20
65.2894169842
 30
0.0
 11
188.7178007256
 21
57.7894169842
 31
0.0
  0
LINE
  5
218
330
1F
100
AcDbEntity
  8
SLD-0
  6
Continuous
 62
   179
100
AcDbLine
 10
186.7081817824
 20
65.2894169842
 30
0.0
 11
190.7274196689
 21
65.2894169842
 31
0.0
  0
LINE
  5
219
330
1F
100
AcDbEntity
  8
SLD-0
  6
Continuous
 62
   179
100
AcDbLine
 10
186.7081817824
 20
65.2894169842
 30
0.0
 11
188.7178007256
 21
72.7894169842
 31
0.0
  0
LINE
  5
21A
330
1F
100
AcDbEntity
  8
SLD-0
  6
Continuous
 62
   179
100
AcDbLine
 10
188.7178007256
 20
72.7894169842
 30
0.0
 11
190.7274196689
 21
65.2894169842
 31
0.0
  0
LINE
  5
21B
330
1F
100
AcDbEntity
  8
SLD-0
  6
Continuous
 62
   179
100
AcDbLine
 10
190.4445769564
 20
65.2894169842
 30
0.0
 11
190.6676479707
 21
65.5124879985
 31
0.0
  0
LINE
  5
21C
330
1F
100
AcDbEntity
  8
SLD-0
  6
Continuous
 62
   179
100
AcDbLine
 10
190.1617342439
 20
65.2894169842
 30
0.0
 11
190.6078762726
 21
65.7355590128
 31
0.0
  0
LINE
  5
21D
330
1F
100
AcDbEntity
  8
SLD-0
  6
Continuous
 62
   179
100
AcDbLine
 10
189.8788915315
 20
65.2894169842
 30
0.0
 11
190.5481045744
 21
65.9586300272
 31
0.0
  0
LINE
  5
21E
330
1F
100
AcDbEntity
  8
SLD-0
  6
Continuous
 62
   179
100
AcDbLine
 10
189.596048819
 20
65.2894169842
 30
0.0
 11
190.4883328763
 21
66.1817010415
 31
0.0
  0
LINE
  5
21F
330
1F
100
AcDbEntity
  8
SLD-0
  6
Continuous
 62
   179
100
AcDbLine
 10
189.3132061065
 20
65.2894169842
 30
0.0
 11
190.4285611782
 21
66.4047720558
 31
0.0
  0
LINE
  5
220
330
1F
100
AcDbEntity
  8
SLD-0
  6
Continuous
 62
   179
100
AcDbLine
 10
189.030363394
 20
65.2894169842
 30
0.0
 11
190.36878948
 21
66.6278430702
 31
0.0
  0
LINE
  5
221
330
1F
100
AcDbEntity
  8
SLD-0
  6
Continuous
 62
   179
100
AcDbLine
 10
188.7475206816
 20
65.2894169842
 30
0.0
 11
190.3090177819
 21
66.8509140845
 31
0.0
  0
LINE
  5
222
330
1F
100
AcDbEntity
  8
SLD-0
  6
Continuous
 62
   179
100
AcDbLine
 10
188.4646779691
 20
65.2894169842
 30
0.0
 11
190.2492460837
 21
67.0739850988
 31
0.0
  0
LINE
  5
223
330
1F
100
AcDbEntity
  8
SLD-0
  6
Continuous
 62
   179
100
AcDbLine
 10
188.1818352566
 20
65.2894169842
 30
0.0
 11
190.1894743856
 21
67.2970561131
 31
0.0
  0
LINE
  5
224
330
1F
100
AcDbEntity
  8
SLD-0
  6
Continuous
 62
   179
100
AcDbLine
 10
187.8989925441
 20
65.2894169842
 30
0.0
 11
190.1297026874
 21
67.5201271275
 31
0.0
  0
LINE
  5
225
330
1F
100
AcDbEntity
  8
SLD-0
  6
Continuous
 62
   179
100
AcDbLine
 10
187.6161498317
 20
65.2894169842
 30
0.0
 11
190.0699309893
 21
67.7431981418
 31
0.0
  0
LINE
  5
226
330
1F
100
AcDbEntity
  8
SLD-0
  6
Continuous
 62
   179
100
AcDbLine
 10
187.3333071192
 20
65.2894169842
 30
0.0
 11
190.0101592911
 21
67.9662691561
 31
0.0
  0
LINE
  5
227
330
1F
100
AcDbEntity
  8
SLD-0
  6
Continuous
 62
   179
100
AcDbLine
 10
187.0504644067
 20
65.2894169842
 30
0.0
 11
189.950387593
 21
68.1893401705
 31
0.0
  0
LINE
  5
228
330
1F
100
AcDbEntity
  8
SLD-0
  6
Continuous
 62
   179
100
AcDbLine
 10
186.7676216942
 20
65.2894169842
 30
0.0
 11
189.8906158949
 21
68.4124111848
 31
0.0
  0
LINE
  5
229
330
1F
100
AcDbEntity
  8
SLD-0
  6
Continuous
 62
   179
100
AcDbLine
 10
186.7899528827
 20
65.5945908851
 30
0.0
 11
189.8308441967
 21
68.6354821991
 31
0.0
  0
LINE
  5
22A
330
1F
100
AcDbEntity
  8
SLD-0
  6
Continuous
 62
   179
100
AcDbLine
 10
186.8934805008
 20
65.9809612157
 30
0.0
 11
189.7710724986
 21
68.8585532135
 31
0.0
  0
LINE
  5
22B
330
1F
100
AcDbEntity
  8
SLD-0
  6
Continuous
 62
   179
100
AcDbLine
 10
186.9970081188
 20
66.3673315462
 30
0.0
 11
189.7113008004
 21
69.0816242278
 31
0.0
  0
LINE
  5
22C
330
1F
100
AcDbEntity
  8
SLD-0
  6
Continuous
 62
   179
100
AcDbLine
 10
187.1005357368
 20
66.7537018767
 30
0.0
 11
189.6515291023
 21
69.3046952421
 31
0.0
  0
LINE
  5
22D
330
1F
100
AcDbEntity
  8
SLD-0
  6
Continuous
 62
   179
100
AcDbLine
 10
187.2040633549
 20
67.1400722072
 30
0.0
 11
189.5917574041
 21
69.5277662564
 31
0.0
  0
LINE
  5
22E
330
1F
100
AcDbEntity
  8
SLD-0
  6
Continuous
 62
   179
100
AcDbLine
 10
187.3075909729
 20
67.5264425377
 30
0.0
 11
189.531985706
 21
69.7508372708
 31
0.0
  0
LINE
  5
22F
330
1F
100
AcDbEntity
  8
SLD-0
  6
Continuous
 62
   179
100
AcDbLine
 10
187.411118591
 20
67.9128128682
 30
0.0
 11
189.4722140078
 21
69.9739082851
 31
0.0
  0
LINE
  5
230
330
1F
100
AcDbEntity
  8
SLD-0
  6
Continuous
 62
   179
100
AcDbLine
 10
187.514646209
 20
68.2991831987
 30
0.0
 11
189.4124423097
 21
70.1969792994
 31
0.0
  0
LINE
  5
231
330
1F
100
AcDbEntity
  8
SLD-0
  6
Continuous
 62
   179
100
AcDbLine
 10
187.6181738271
 20
68.6855535293
 30
0.0
 11
189.3526706116
 21
70.4200503138
 31
0.0
  0
LINE
  5
232
330
1F
100
AcDbEntity
  8
SLD-0
  6
Continuous
 62
   179
100
AcDbLine
 10
187.7217014451
 20
69.0719238598
 30
0.0
 11
189.2928989134
 21
70.6431213281
 31
0.0
  0
LINE
  5
233
330
1F
100
AcDbEntity
  8
SLD-0
  6
Continuous
 62
   179
100
AcDbLine
 10
187.8252290631
 20
69.4582941903
 30
0.0
 11
189.2331272153
 21
70.8661923424
 31
0.0
  0
LINE
  5
234
330
1F
100
AcDbEntity
  8
SLD-0
  6
Continuous
 62
   179
100
AcDbLine
 10
187.9287566812
 20
69.8446645208
 30
0.0
 11
189.1733555171
 21
71.0892633568
 31
0.0
  0
LINE
  5
235
330
1F
100
AcDbEntity
  8
SLD-0
  6
Continuous
 62
   179
100
AcDbLine
 10
188.0322842992
 20
70.2310348513
 30
0.0
 11
189.113583819
 21
71.3123343711
 31
0.0
  0
LINE
  5
236
330
1F
100
AcDbEntity
  8
SLD-0
  6
Continuous
 62
   179
100
AcDbLine
 10
188.1358119173
 20
70.6174051818
 30
0.0
 11
189.0538121208
 21
71.5354053854
 31
0.0
  0
LINE
  5
237
330
1F
100
AcDbEntity
  8
SLD-0
  6
Continuous
 62
   179
100
AcDbLine
 10
188.2393395353
 20
71.0037755124
 30
0.0
 11
188.9940404227
 21
71.7584763997
 31
0.0
  0
LINE
  5
238
330
1F
100
AcDbEntity
  8
SLD-0
  6
Continuous
 62
   179
100
AcDbLine
 10
188.3428671533
 20
71.3901458429
 30
0.0
 11
188.9342687245
 21
71.9815474141
 31
0.0
  0
LINE
  5
239
330
1F
100
AcDbEntity
  8
SLD-0
  6
Continuous
 62
   179
100
AcDbLine
 10
188.4463947714
 20
71.7765161734
 30
0.0
 11
188.8744970264
 21
72.2046184284
 31
0.0
  0
LINE
  5
23A
330
1F
100
AcDbEntity
  8
SLD-0
  6
Continuous
 62
   179
100
AcDbLine
 10
188.5499223894
 20
72.1628865039
 30
0.0
 11
188.8147253283
 21
72.4276894427
 31
0.0
  0
LINE
  5
23B
330
1F
100
AcDbEntity
  8
SLD-0
  6
Continuous
 62
   179
100
AcDbLine
 10
188.6534500075
 20
72.5492568344
 30
0.0
 11
188.7549536301
 21
72.6507604571
 31
0.0
  0
LINE
  5
23C
330
1F
100
AcDbEntity
  8
SLD-0
  6
Continuous
 62
   179
100
AcDbLine
 10
197.6875996849
 20
105.2839886805
 30
0.0
 11
197.6714276849
 21
105.6417626805
 31
0.0
  0
LINE
  5
23D
330
1F
100
AcDbEntity
  8
SLD-0
  6
Continuous
 62
   179
100
AcDbLine
 10
197.6714276849
 20
105.6417626805
 30
0.0
 11
197.6230326849
 21
105.9968146805
 31
0.0
  0
LINE
  5
23E
330
1F
100
AcDbEntity
  8
SLD-0
  6
Continuous
 62
   179
100
AcDbLine
 10
197.6230326849
 20
105.9968146805
 30
0.0
 11
197.5427846849
 21
106.3464406805
 31
0.0
  0
LINE
  5
23F
330
1F
100
AcDbEntity
  8
SLD-0
  6
Continuous
 62
   179
100
AcDbLine
 10
197.5427846849
 20
106.3464406805
 30
0.0
 11
197.4312936849
 21
106.6879806805
 31
0.0
  0
LINE
  5
240
330
1F
100
AcDbEntity
  8
SLD-0
  6
Continuous
 62
   179
100
AcDbLine
 10
197.4312936849
 20
106.6879806805
 30
0.0
 11
197.2894076849
 21
107.0188366805
 31
0.0
  0
LINE
  5
241
330
1F
100
AcDbEntity
  8
SLD-0
  6
Continuous
 62
   179
100
AcDbLine
 10
197.2894076849
 20
107.0188366805
 30
0.0
 11
197.1182076849
 21
107.3364886805
 31
0.0
  0
LINE
  5
242
330
1F
100
AcDbEntity
  8
SLD-0
  6
Continuous
 62
   179
100
AcDbLine
 10
197.1182076849
 20
107.3364886805
 30
0.0
 11
196.9189956849
 21
107.6385196805
 31
0.0
  0
LINE
  5
243
330
1F
100
AcDbEntity
  8
SLD-0
  6
Continuous
 62
   179
100
AcDbLine
 10
196.9189956849
 20
107.6385196805
 30
0.0
 11
196.6932886849
 21
107.9226316805
 31
0.0
  0
LINE
  5
244
330
1F
100
AcDbEntity
  8
SLD-0
  6
Continuous
 62
   179
100
AcDbLine
 10
196.6932886849
 20
107.9226316805
 30
0.0
 11
196.4428036849
 21
108.1866616805
 31
0.0
  0
LINE
  5
245
330
1F
100
AcDbEntity
  8
SLD-0
  6
Continuous
 62
   179
100
AcDbLine
 10
196.4428036849
 20
108.1866616805
 30
0.0
 11
196.1694466849
 21
108.4286006805
 31
0.0
  0
LINE
  5
246
330
1F
100
AcDbEntity
  8
SLD-0
  6
Continuous
 62
   179
100
AcDbLine
 10
196.1694466849
 20
108.4286006805
 30
0.0
 11
195.8752996849
 21
108.6466076805
 31
0.0
  0
LINE
  5
247
330
1F
100
AcDbEntity
  8
SLD-0
  6
Continuous
 62
   179
100
AcDbLine
 10
195.8752996849
 20
108.6466076805
 30
0.0
 11
195.5625996849
 21
108.8390226805
 31
0.0
  0
LINE
  5
248
330
1F
100
AcDbEntity
  8
SLD-0
  6
Continuous
 62
   179
100
AcDbLine
 10
195.5625996849
 20
108.8390226805
 30
0.0
 11
195.2337276849
 21
109.0043816805
 31
0.0
  0
LINE
  5
249
330
1F
100
AcDbEntity
  8
SLD-0
  6
Continuous
 62
   179
100
AcDbLine
 10
195.2337276849
 20
109.0043816805
 30
0.0
 11
194.8911856849
 21
109.1414266805
 31
0.0
  0
LINE
  5
24A
330
1F
100
AcDbEntity
  8
SLD-0
  6
Continuous
 62
   179
100
AcDbLine
 10
194.8911856849
 20
109.1414266805
 30
0.0
 11
194.5375806849
 21
109.2491136805
 31
0.0
  0
LINE
  5
24B
330
1F
100
AcDbEntity
  8
SLD-0
  6
Continuous
 62
   179
100
AcDbLine
 10
194.5375806849
 20
109.2491136805
 30
0.0
 11
194.1756046849
 21
109.3266246805
 31
0.0
  0
LINE
  5
24C
330
1F
100
AcDbEntity
  8
SLD-0
  6
Continuous
 62
   179
100
AcDbLine
 10
194.1756046849
 20
109.3266246805
 30
0.0
 11
193.8080116849
 21
109.3733676805
 31
0.0
  0
LINE
  5
24D
330
1F
100
AcDbEntity
  8
SLD-0
  6
Continuous
 62
   179
100
AcDbLine
 10
193.8080116849
 20
109.3733676805
 30
0.0
 11
193.4375996849
 21
109.3889886805
 31
0.0
  0
LINE
  5
24E
330
1F
100
AcDbEntity
  8
SLD-0
  6
Continuous
 62
   179
100
AcDbLine
 10
193.4375996849
 20
109.3889886805
 30
0.0
 11
193.0671876849
 21
109.3733676805
 31
0.0
  0
LINE
  5
24F
330
1F
100
AcDbEntity
  8
SLD-0
  6
Continuous
 62
   179
100
AcDbLine
 10
193.0671876849
 20
109.3733676805
 30
0.0
 11
192.6995946849
 21
109.3266246805
 31
0.0
  0
LINE
  5
250
330
1F
100
AcDbEntity
  8
SLD-0
  6
Continuous
 62
   179
100
AcDbLine
 10
192.6995946849
 20
109.3266246805
 30
0.0
 11
192.3376186849
 21
109.2491136805
 31
0.0
  0
LINE
  5
251
330
1F
100
AcDbEntity
  8
SLD-0
  6
Continuous
 62
   179
100
AcDbLine
 10
192.3376186849
 20
109.2491136805
 30
0.0
 11
191.9840146849
 21
109.1414266805
 31
0.0
  0
LINE
  5
252
330
1F
100
AcDbEntity
  8
SLD-0
  6
Continuous
 62
   179
100
AcDbLine
 10
191.9840146849
 20
109.1414266805
 30
0.0
 11
191.6414726849
 21
109.0043816805
 31
0.0
  0
LINE
  5
253
330
1F
100
AcDbEntity
  8
SLD-0
  6
Continuous
 62
   179
100
AcDbLine
 10
191.6414726849
 20
109.0043816805
 30
0.0
 11
191.3125996849
 21
108.8390226805
 31
0.0
  0
LINE
  5
254
330
1F
100
AcDbEntity
  8
SLD-0
  6
Continuous
 62
   179
100
AcDbLine
 10
191.3125996849
 20
108.8390226805
 30
0.0
 11
190.9998996849
 21
108.6466076805
 31
0.0
  0
LINE
  5
255
330
1F
100
AcDbEntity
  8
SLD-0
  6
Continuous
 62
   179
100
AcDbLine
 10
190.9998996849
 20
108.6466076805
 30
0.0
 11
190.7057526849
 21
108.4286006805
 31
0.0
  0
LINE
  5
256
330
1F
100
AcDbEntity
  8
SLD-0
  6
Continuous
 62
   179
100
AcDbLine
 10
190.7057526849
 20
108.4286006805
 30
0.0
 11
190.4323956849
 21
108.1866616805
 31
0.0
  0
LINE
  5
257
330
1F
100
AcDbEntity
  8
SLD-0
  6
Continuous
 62
   179
100
AcDbLine
 10
190.4323956849
 20
108.1866616805
 30
0.0
 11
190.1819106849
 21
107.9226316805
 31
0.0
  0
LINE
  5
258
330
1F
100
AcDbEntity
  8
SLD-0
  6
Continuous
 62
   179
100
AcDbLine
 10
190.1819106849
 20
107.9226316805
 30
0.0
 11
189.9562036849
 21
107.6385196805
 31
0.0
  0
LINE
  5
259
330
1F
100
AcDbEntity
  8
SLD-0
  6
Continuous
 62
   179
100
AcDbLine
 10
189.9562036849
 20
107.6385196805
 30
0.0
 11
189.7569916849
 21
107.3364886805
 31
0.0
  0
LINE
  5
25A
330
1F
100
AcDbEntity
  8
SLD-0
  6
Continuous
 62
   179
100
AcDbLine
 10
189.7569916849
 20
107.3364886805
 30
0.0
 11
189.5857916849
 21
107.0188366805
 31
0.0
  0
LINE
  5
25B
330
1F
100
AcDbEntity
  8
SLD-0
  6
Continuous
 62
   179
100
AcDbLine
 10
189.5857916849
 20
107.0188366805
 30
0.0
 11
189.4439056849
 21
106.6879806805
 31
0.0
  0
LINE
  5
25C
330
1F
100
AcDbEntity
  8
SLD-0
  6
Continuous
 62
   179
100
AcDbLine
 10
189.4439056849
 20
106.6879806805
 30
0.0
 11
189.3324146849
 21
106.3464406805
 31
0.0
  0
LINE
  5
25D
330
1F
100
AcDbEntity
  8
SLD-0
  6
Continuous
 62
   179
100
AcDbLine
 10
189.3324146849
 20
106.3464406805
 30
0.0
 11
189.2521666849
 21
105.9968146805
 31
0.0
  0
LINE
  5
25E
330
1F
100
AcDbEntity
  8
SLD-0
  6
Continuous
 62
   179
100
AcDbLine
 10
189.2521666849
 20
105.9968146805
 30
0.0
 11
189.2037726849
 21
105.6417626805
 31
0.0
  0
LINE
  5
25F
330
1F
100
AcDbEntity
  8
SLD-0
  6
Continuous
 62
   179
100
AcDbLine
 10
189.2037726849
 20
105.6417626805
 30
0.0
 11
189.1875996849
 21
105.2839886805
 31
0.0
  0
LINE
  5
260
330
1F
100
AcDbEntity
  8
SLD-0
  6
Continuous
 62
   179
100
AcDbLine
 10
189.1875996849
 20
105.2839886805
 30
0.0
 11
189.2037726849
 21
104.9262136805
 31
0.0
  0
LINE
  5
261
330
1F
100
AcDbEntity
  8
SLD-0
  6
Continuous
 62
   179
100
AcDbLine
 10
189.2037726849
 20
104.9262136805
 30
0.0
 11
189.2521666849
 21
104.5711626805
 31
0.0
  0
LINE
  5
262
330
1F
100
AcDbEntity
  8
SLD-0
  6
Continuous
 62
   179
100
AcDbLine
 10
189.2521666849
 20
104.5711626805
 30
0.0
 11
189.3324146849
 21
104.2215366805
 31
0.0
  0
LINE
  5
263
330
1F
100
AcDbEntity
  8
SLD-0
  6
Continuous
 62
   179
100
AcDbLine
 10
189.3324146849
 20
104.2215366805
 30
0.0
 11
189.4439056849
 21
103.8799956805
 31
0.0
  0
LINE
  5
264
330
1F
100
AcDbEntity
  8
SLD-0
  6
Continuous
 62
   179
100
AcDbLine
 10
189.4439056849
 20
103.8799956805
 30
0.0
 11
189.5857916849
 21
103.5491406805
 31
0.0
  0
LINE
  5
265
330
1F
100
AcDbEntity
  8
SLD-0
  6
Continuous
 62
   179
100
AcDbLine
 10
189.5857916849
 20
103.5491406805
 30
0.0
 11
189.7569916849
 21
103.2314886805
 31
0.0
  0
LINE
  5
266
330
1F
100
AcDbEntity
  8
SLD-0
  6
Continuous
 62
   179
100
AcDbLine
 10
189.7569916849
 20
103.2314886805
 30
0.0
 11
189.9562036849
 21
102.9294566805
 31
0.0
  0
LINE
  5
267
330
1F
100
AcDbEntity
  8
SLD-0
  6
Continuous
 62
   179
100
AcDbLine
 10
189.9562036849
 20
102.9294566805
 30
0.0
 11
190.1819106849
 21
102.6453456805
 31
0.0
  0
LINE
  5
268
330
1F
100
AcDbEntity
  8
SLD-0
  6
Continuous
 62
   179
100
AcDbLine
 10
190.1819106849
 20
102.6453456805
 30
0.0
 11
190.4323956849
 21
102.3813146805
 31
0.0
  0
LINE
  5
269
330
1F
100
AcDbEntity
  8
SLD-0
  6
Continuous
 62
   179
100
AcDbLine
 10
190.4323956849
 20
102.3813146805
 30
0.0
 11
190.7057526849
 21
102.1393756805
 31
0.0
  0
LINE
  5
26A
330
1F
100
AcDbEntity
  8
SLD-0
  6
Continuous
 62
   179
100
AcDbLine
 10
190.7057526849
 20
102.1393756805
 30
0.0
 11
190.9998996849
 21
101.9213696805
 31
0.0
  0
LINE
  5
26B
330
1F
100
AcDbEntity
  8
SLD-0
  6
Continuous
 62
   179
100
AcDbLine
 10
190.9998996849
 20
101.9213696805
 30
0.0
 11
191.3125996849
 21
101.7289536805
 31
0.0
  0
LINE
  5
26C
330
1F
100
AcDbEntity
  8
SLD-0
  6
Continuous
 62
   179
100
AcDbLine
 10
191.3125996849
 20
101.7289536805
 30
0.0
 11
191.6414726849
 21
101.5635946805
 31
0.0
  0
LINE
  5
26D
330
1F
100
AcDbEntity
  8
SLD-0
  6
Continuous
 62
   179
100
AcDbLine
 10
191.6414726849
 20
101.5635946805
 30
0.0
 11
191.9840146849
 21
101.4265506805
 31
0.0
  0
LINE
  5
26E
330
1F
100
AcDbEntity
  8
SLD-0
  6
Continuous
 62
   179
100
AcDbLine
 10
191.9840146849
 20
101.4265506805
 30
0.0
 11
192.3376186849
 21
101.3188626805
 31
0.0
  0
LINE
  5
26F
330
1F
100
AcDbEntity
  8
SLD-0
  6
Continuous
 62
   179
100
AcDbLine
 10
192.3376186849
 20
101.3188626805
 30
0.0
 11
192.6995946849
 21
101.2413526805
 31
0.0
  0
LINE
  5
270
330
1F
100
AcDbEntity
  8
SLD-0
  6
Continuous
 62
   179
100
AcDbLine
 10
192.6995946849
 20
101.2413526805
 30
0.0
 11
193.0671876849
 21
101.1946096805
 31
0.0
  0
LINE
  5
271
330
1F
100
AcDbEntity
  8
SLD-0
  6
Continuous
 62
   179
100
AcDbLine
 10
193.0671876849
 20
101.1946096805
 30
0.0
 11
193.4375996849
 21
101.1789886805
 31
0.0
  0
LINE
  5
272
330
1F
100
AcDbEntity
  8
SLD-0
  6
Continuous
 62
   179
100
AcDbLine
 10
193.4375996849
 20
101.1789886805
 30
0.0
 11
193.8080116849
 21
101.1946096805
 31
0.0
  0
LINE
  5
273
330
1F
100
AcDbEntity
  8
SLD-0
  6
Continuous
 62
   179
100
AcDbLine
 10
193.8080116849
 20
101.1946096805
 30
0.0
 11
194.1756046849
 21
101.2413526805
 31
0.0
  0
LINE
  5
274
330
1F
100
AcDbEntity
  8
SLD-0
  6
Continuous
 62
   179
100
AcDbLine
 10
194.1756046849
 20
101.2413526805
 30
0.0
 11
194.5375806849
 21
101.3188626805
 31
0.0
  0
LINE
  5
275
330
1F
100
AcDbEntity
  8
SLD-0
  6
Continuous
 62
   179
100
AcDbLine
 10
194.5375806849
 20
101.3188626805
 30
0.0
 11
194.8911856849
 21
101.4265506805
 31
0.0
  0
LINE
  5
276
330
1F
100
AcDbEntity
  8
SLD-0
  6
Continuous
 62
   179
100
AcDbLine
 10
194.8911856849
 20
101.4265506805
 30
0.0
 11
195.2337276849
 21
101.5635946805
 31
0.0
  0
LINE
  5
277
330
1F
100
AcDbEntity
  8
SLD-0
  6
Continuous
 62
   179
100
AcDbLine
 10
195.2337276849
 20
101.5635946805
 30
0.0
 11
195.5625996849
 21
101.7289536805
 31
0.0
  0
LINE
  5
278
330
1F
100
AcDbEntity
  8
SLD-0
  6
Continuous
 62
   179
100
AcDbLine
 10
195.5625996849
 20
101.7289536805
 30
0.0
 11
195.8752996849
 21
101.9213696805
 31
0.0
  0
LINE
  5
279
330
1F
100
AcDbEntity
  8
SLD-0
  6
Continuous
 62
   179
100
AcDbLine
 10
195.8752996849
 20
101.9213696805
 30
0.0
 11
196.1694466849
 21
102.1393756805
 31
0.0
  0
LINE
  5
27A
330
1F
100
AcDbEntity
  8
SLD-0
  6
Continuous
 62
   179
100
AcDbLine
 10
196.1694466849
 20
102.1393756805
 30
0.0
 11
196.4428036849
 21
102.3813146805
 31
0.0
  0
LINE
  5
27B
330
1F
100
AcDbEntity
  8
SLD-0
  6
Continuous
 62
   179
100
AcDbLine
 10
196.4428036849
 20
102.3813146805
 30
0.0
 11
196.6932886849
 21
102.6453456805
 31
0.0
  0
LINE
  5
27C
330
1F
100
AcDbEntity
  8
SLD-0
  6
Continuous
 62
   179
100
AcDbLine
 10
196.6932886849
 20
102.6453456805
 30
0.0
 11
196.9189956849
 21
102.9294566805
 31
0.0
  0
LINE
  5
27D
330
1F
100
AcDbEntity
  8
SLD-0
  6
Continuous
 62
   179
100
AcDbLine
 10
196.9189956849
 20
102.9294566805
 30
0.0
 11
197.1182076849
 21
103.2314886805
 31
0.0
  0
LINE
  5
27E
330
1F
100
AcDbEntity
  8
SLD-0
  6
Continuous
 62
   179
100
AcDbLine
 10
197.1182076849
 20
103.2314886805
 30
0.0
 11
197.2894076849
 21
103.5491406805
 31
0.0
  0
LINE
  5
27F
330
1F
100
AcDbEntity
  8
SLD-0
  6
Continuous
 62
   179
100
AcDbLine
 10
197.2894076849
 20
103.5491406805
 30
0.0
 11
197.4312936849
 21
103.8799956805
 31
0.0
  0
LINE
  5
280
330
1F
100
AcDbEntity
  8
SLD-0
  6
Continuous
 62
   179
100
AcDbLine
 10
197.4312936849
 20
103.8799956805
 30
0.0
 11
197.5427846849
 21
104.2215366805
 31
0.0
  0
LINE
  5
281
330
1F
100
AcDbEntity
  8
SLD-0
  6
Continuous
 62
   179
100
AcDbLine
 10
197.5427846849
 20
104.2215366805
 30
0.0
 11
197.6230326849
 21
104.5711626805
 31
0.0
  0
LINE
  5
282
330
1F
100
AcDbEntity
  8
SLD-0
  6
Continuous
 62
   179
100
AcDbLine
 10
197.6230326849
 20
104.5711626805
 30
0.0
 11
197.6714276849
 21
104.9262136805
 31
0.0
  0
LINE
  5
283
330
1F
100
AcDbEntity
  8
SLD-0
  6
Continuous
 62
   179
100
AcDbLine
 10
197.6714276849
 20
104.9262136805
 30
0.0
 11
197.6875996849
 21
105.2839886805
 31
0.0
  0
LINE
  5
284
330
1F
100
AcDbEntity
  8
SLD-0
  6
Continuous
 62
   179
100
AcDbLine
 10
198.1875996849
 20
105.2839886805
 30
0.0
 11
198.1695246849
 21
105.6835976805
 31
0.0
  0
LINE
  5
285
330
1F
100
AcDbEntity
  8
SLD-0
  6
Continuous
 62
   179
100
AcDbLine
 10
198.1695246849
 20
105.6835976805
 30
0.0
 11
198.1154366849
 21
106.0801656805
 31
0.0
  0
LINE
  5
286
330
1F
100
AcDbEntity
  8
SLD-0
  6
Continuous
 62
   179
100
AcDbLine
 10
198.1154366849
 20
106.0801656805
 30
0.0
 11
198.0257476849
 21
106.4706736805
 31
0.0
  0
LINE
  5
287
330
1F
100
AcDbEntity
  8
SLD-0
  6
Continuous
 62
   179
100
AcDbLine
 10
198.0257476849
 20
106.4706736805
 30
0.0
 11
197.9011396849
 21
106.8521506805
 31
0.0
  0
LINE
  5
288
330
1F
100
AcDbEntity
  8
SLD-0
  6
Continuous
 62
   179
100
AcDbLine
 10
197.9011396849
 20
106.8521506805
 30
0.0
 11
197.7425616849
 21
107.2216926805
 31
0.0
  0
LINE
  5
289
330
1F
100
AcDbEntity
  8
SLD-0
  6
Continuous
 62
   179
100
AcDbLine
 10
197.7425616849
 20
107.2216926805
 30
0.0
 11
197.5512206849
 21
107.5764886805
 31
0.0
  0
LINE
  5
28A
330
1F
100
AcDbEntity
  8
SLD-0
  6
Continuous
 62
   179
100
AcDbLine
 10
197.5512206849
 20
107.5764886805
 30
0.0
 11
197.3285716849
 21
107.9138366805
 31
0.0
  0
LINE
  5
28B
330
1F
100
AcDbEntity
  8
SLD-0
  6
Continuous
 62
   179
100
AcDbLine
 10
197.3285716849
 20
107.9138366805
 30
0.0
 11
197.0763106849
 21
108.2311696805
 31
0.0
  0
LINE
  5
28C
330
1F
100
AcDbEntity
  8
SLD-0
  6
Continuous
 62
   179
100
AcDbLine
 10
197.0763106849
 20
108.2311696805
 30
0.0
 11
196.7963566849
 21
108.5260726805
 31
0.0
  0
LINE
  5
28D
330
1F
100
AcDbEntity
  8
SLD-0
  6
Continuous
 62
   179
100
AcDbLine
 10
196.7963566849
 20
108.5260726805
 30
0.0
 11
196.4908406849
 21
108.7963026805
 31
0.0
  0
LINE
  5
28E
330
1F
100
AcDbEntity
  8
SLD-0
  6
Continuous
 62
   179
100
AcDbLine
 10
196.4908406849
 20
108.7963026805
 30
0.0
 11
196.1620876849
 21
109.0398006805
 31
0.0
  0
LINE
  5
28F
330
1F
100
AcDbEntity
  8
SLD-0
  6
Continuous
 62
   179
100
AcDbLine
 10
196.1620876849
 20
109.0398006805
 30
0.0
 11
195.8125996849
 21
109.2547146805
 31
0.0
  0
LINE
  5
290
330
1F
100
AcDbEntity
  8
SLD-0
  6
Continuous
 62
   179
100
AcDbLine
 10
195.8125996849
 20
109.2547146805
 30
0.0
 11
195.4450366849
 21
109.4394096805
 31
0.0
  0
LINE
  5
291
330
1F
100
AcDbEntity
  8
SLD-0
  6
Continuous
 62
   179
100
AcDbLine
 10
195.4450366849
 20
109.4394096805
 30
0.0
 11
195.0621956849
 21
109.5924786805
 31
0.0
  0
LINE
  5
292
330
1F
100
AcDbEntity
  8
SLD-0
  6
Continuous
 62
   179
100
AcDbLine
 10
195.0621956849
 20
109.5924786805
 30
0.0
 11
194.6669906849
 21
109.7127586805
 31
0.0
  0
LINE
  5
293
330
1F
100
AcDbEntity
  8
SLD-0
  6
Continuous
 62
   179
100
AcDbLine
 10
194.6669906849
 20
109.7127586805
 30
0.0
 11
194.2624286849
 21
109.7993316805
 31
0.0
  0
LINE
  5
294
330
1F
100
AcDbEntity
  8
SLD-0
  6
Continuous
 62
   179
100
AcDbLine
 10
194.2624286849
 20
109.7993316805
 30
0.0
 11
193.8515896849
 21
109.8515406805
 31
0.0
  0
LINE
  5
295
330
1F
100
AcDbEntity
  8
SLD-0
  6
Continuous
 62
   179
100
AcDbLine
 10
193.8515896849
 20
109.8515406805
 30
0.0
 11
193.4375996849
 21
109.8689886805
 31
0.0
  0
LINE
  5
296
330
1F
100
AcDbEntity
  8
SLD-0
  6
Continuous
 62
   179
100
AcDbLine
 10
193.4375996849
 20
109.8689886805
 30
0.0
 11
193.0236096849
 21
109.8515406805
 31
0.0
  0
LINE
  5
297
330
1F
100
AcDbEntity
  8
SLD-0
  6
Continuous
 62
   179
100
AcDbLine
 10
193.0236096849
 20
109.8515406805
 30
0.0
 11
192.6127706849
 21
109.7993316805
 31
0.0
  0
LINE
  5
298
330
1F
100
AcDbEntity
  8
SLD-0
  6
Continuous
 62
   179
100
AcDbLine
 10
192.6127706849
 20
109.7993316805
 30
0.0
 11
192.2082096849
 21
109.7127586805
 31
0.0
  0
LINE
  5
299
330
1F
100
AcDbEntity
  8
SLD-0
  6
Continuous
 62
   179
100
AcDbLine
 10
192.2082096849
 20
109.7127586805
 30
0.0
 11
191.8130036849
 21
109.5924786805
 31
0.0
  0
LINE
  5
29A
330
1F
100
AcDbEntity
  8
SLD-0
  6
Continuous
 62
   179
100
AcDbLine
 10
191.8130036849
 20
109.5924786805
 30
0.0
 11
191.4301626849
 21
109.4394096805
 31
0.0
  0
LINE
  5
29B
330
1F
100
AcDbEntity
  8
SLD-0
  6
Continuous
 62
   179
100
AcDbLine
 10
191.4301626849
 20
109.4394096805
 30
0.0
 11
191.0625996849
 21
109.2547146805
 31
0.0
  0
LINE
  5
29C
330
1F
100
AcDbEntity
  8
SLD-0
  6
Continuous
 62
   179
100
AcDbLine
 10
191.0625996849
 20
109.2547146805
 30
0.0
 11
190.7131116849
 21
109.0398006805
 31
0.0
  0
LINE
  5
29D
330
1F
100
AcDbEntity
  8
SLD-0
  6
Continuous
 62
   179
100
AcDbLine
 10
190.7131116849
 20
109.0398006805
 30
0.0
 11
190.3843586849
 21
108.7963026805
 31
0.0
  0
LINE
  5
29E
330
1F
100
AcDbEntity
  8
SLD-0
  6
Continuous
 62
   179
100
AcDbLine
 10
190.3843586849
 20
108.7963026805
 30
0.0
 11
190.0788426849
 21
108.5260726805
 31
0.0
  0
LINE
  5
29F
330
1F
100
AcDbEntity
  8
SLD-0
  6
Continuous
 62
   179
100
AcDbLine
 10
190.0788426849
 20
108.5260726805
 30
0.0
 11
189.7988886849
 21
108.2311696805
 31
0.0
  0
LINE
  5
2A0
330
1F
100
AcDbEntity
  8
SLD-0
  6
Continuous
 62
   179
100
AcDbLine
 10
189.7988886849
 20
108.2311696805
 30
0.0
 11
189.5466276849
 21
107.9138366805
 31
0.0
  0
LINE
  5
2A1
330
1F
100
AcDbEntity
  8
SLD-0
  6
Continuous
 62
   179
100
AcDbLine
 10
189.5466276849
 20
107.9138366805
 30
0.0
 11
189.3239786849
 21
107.5764886805
 31
0.0
  0
LINE
  5
2A2
330
1F
100
AcDbEntity
  8
SLD-0
  6
Continuous
 62
   179
100
AcDbLine
 10
189.3239786849
 20
107.5764886805
 30
0.0
 11
189.1326376849
 21
107.2216926805
 31
0.0
  0
LINE
  5
2A3
330
1F
100
AcDbEntity
  8
SLD-0
  6
Continuous
 62
   179
100
AcDbLine
 10
189.1326376849
 20
107.2216926805
 30
0.0
 11
188.9740596849
 21
106.8521506805
 31
0.0
  0
LINE
  5
2A4
330
1F
100
AcDbEntity
  8
SLD-0
  6
Continuous
 62
   179
100
AcDbLine
 10
188.9740596849
 20
106.8521506805
 30
0.0
 11
188.8494516849
 21
106.4706736805
 31
0.0
  0
LINE
  5
2A5
330
1F
100
AcDbEntity
  8
SLD-0
  6
Continuous
 62
   179
100
AcDbLine
 10
188.8494516849
 20
106.4706736805
 30
0.0
 11
188.7597626849
 21
106.0801656805
 31
0.0
  0
LINE
  5
2A6
330
1F
100
AcDbEntity
  8
SLD-0
  6
Continuous
 62
   179
100
AcDbLine
 10
188.7597626849
 20
106.0801656805
 30
0.0
 11
188.7056746849
 21
105.6835976805
 31
0.0
  0
LINE
  5
2A7
330
1F
100
AcDbEntity
  8
SLD-0
  6
Continuous
 62
   179
100
AcDbLine
 10
188.7056746849
 20
105.6835976805
 30
0.0
 11
188.6875996849
 21
105.2839886805
 31
0.0
  0
LINE
  5
2A8
330
1F
100
AcDbEntity
  8
SLD-0
  6
Continuous
 62
   179
100
AcDbLine
 10
188.6875996849
 20
105.2839886805
 30
0.0
 11
188.7056746849
 21
104.8843796805
 31
0.0
  0
LINE
  5
2A9
330
1F
100
AcDbEntity
  8
SLD-0
  6
Continuous
 62
   179
100
AcDbLine
 10
188.7056746849
 20
104.8843796805
 30
0.0
 11
188.7597626849
 21
104.4878116805
 31
0.0
  0
LINE
  5
2AA
330
1F
100
AcDbEntity
  8
SLD-0
  6
Continuous
 62
   179
100
AcDbLine
 10
188.7597626849
 20
104.4878116805
 30
0.0
 11
188.8494516849
 21
104.0973026805
 31
0.0
  0
LINE
  5
2AB
330
1F
100
AcDbEntity
  8
SLD-0
  6
Continuous
 62
   179
100
AcDbLine
 10
188.8494516849
 20
104.0973026805
 30
0.0
 11
188.9740596849
 21
103.7158256805
 31
0.0
  0
LINE
  5
2AC
330
1F
100
AcDbEntity
  8
SLD-0
  6
Continuous
 62
   179
100
AcDbLine
 10
188.9740596849
 20
103.7158256805
 30
0.0
 11
189.1326376849
 21
103.3462836805
 31
0.0
  0
LINE
  5
2AD
330
1F
100
AcDbEntity
  8
SLD-0
  6
Continuous
 62
   179
100
AcDbLine
 10
189.1326376849
 20
103.3462836805
 30
0.0
 11
189.3239786849
 21
102.9914886805
 31
0.0
  0
LINE
  5
2AE
330
1F
100
AcDbEntity
  8
SLD-0
  6
Continuous
 62
   179
100
AcDbLine
 10
189.3239786849
 20
102.9914886805
 30
0.0
 11
189.5466276849
 21
102.6541406805
 31
0.0
  0
LINE
  5
2AF
330
1F
100
AcDbEntity
  8
SLD-0
  6
Continuous
 62
   179
100
AcDbLine
 10
189.5466276849
 20
102.6541406805
 30
0.0
 11
189.7988886849
 21
102.3368076805
 31
0.0
  0
LINE
  5
2B0
330
1F
100
AcDbEntity
  8
SLD-0
  6
Continuous
 62
   179
100
AcDbLine
 10
189.7988886849
 20
102.3368076805
 30
0.0
 11
190.0788426849
 21
102.0419036805
 31
0.0
  0
LINE
  5
2B1
330
1F
100
AcDbEntity
  8
SLD-0
  6
Continuous
 62
   179
100
AcDbLine
 10
190.0788426849
 20
102.0419036805
 30
0.0
 11
190.3843586849
 21
101.7716746805
 31
0.0
  0
LINE
  5
2B2
330
1F
100
AcDbEntity
  8
SLD-0
  6
Continuous
 62
   179
100
AcDbLine
 10
190.3843586849
 20
101.7716746805
 30
0.0
 11
190.7131116849
 21
101.5281766805
 31
0.0
  0
LINE
  5
2B3
330
1F
100
AcDbEntity
  8
SLD-0
  6
Continuous
 62
   179
100
AcDbLine
 10
190.7131116849
 20
101.5281766805
 30
0.0
 11
191.0625996849
 21
101.3132616805
 31
0.0
  0
LINE
  5
2B4
330
1F
100
AcDbEntity
  8
SLD-0
  6
Continuous
 62
   179
100
AcDbLine
 10
191.0625996849
 20
101.3132616805
 30
0.0
 11
191.4301626849
 21
101.1285676805
 31
0.0
  0
LINE
  5
2B5
330
1F
100
AcDbEntity
  8
SLD-0
  6
Continuous
 62
   179
100
AcDbLine
 10
191.4301626849
 20
101.1285676805
 30
0.0
 11
191.8130036849
 21
100.9754976805
 31
0.0
  0
LINE
  5
2B6
330
1F
100
AcDbEntity
  8
SLD-0
  6
Continuous
 62
   179
100
AcDbLine
 10
191.8130036849
 20
100.9754976805
 30
0.0
 11
192.2082096849
 21
100.8552186805
 31
0.0
  0
LINE
  5
2B7
330
1F
100
AcDbEntity
  8
SLD-0
  6
Continuous
 62
   179
100
AcDbLine
 10
192.2082096849
 20
100.8552186805
 30
0.0
 11
192.6127706849
 21
100.7686446805
 31
0.0
  0
LINE
  5
2B8
330
1F
100
AcDbEntity
  8
SLD-0
  6
Continuous
 62
   179
100
AcDbLine
 10
192.6127706849
 20
100.7686446805
 30
0.0
 11
193.0236096849
 21
100.7164356805
 31
0.0
  0
LINE
  5
2B9
330
1F
100
AcDbEntity
  8
SLD-0
  6
Continuous
 62
   179
100
AcDbLine
 10
193.0236096849
 20
100.7164356805
 30
0.0
 11
193.4375996849
 21
100.6989886805
 31
0.0
  0
LINE
  5
2BA
330
1F
100
AcDbEntity
  8
SLD-0
  6
Continuous
 62
   179
100
AcDbLine
 10
193.4375996849
 20
100.6989886805
 30
0.0
 11
193.8515896849
 21
100.7164356805
 31
0.0
  0
LINE
  5
2BB
330
1F
100
AcDbEntity
  8
SLD-0
  6
Continuous
 62
   179
100
AcDbLine
 10
193.8515896849
 20
100.7164356805
 30
0.0
 11
194.2624286849
 21
100.7686446805
 31
0.0
  0
LINE
  5
2BC
330
1F
100
AcDbEntity
  8
SLD-0
  6
Continuous
 62
   179
100
AcDbLine
 10
194.2624286849
 20
100.7686446805
 30
0.0
 11
194.6669906849
 21
100.8552186805
 31
0.0
  0
LINE
  5
2BD
330
1F
100
AcDbEntity
  8
SLD-0
  6
Continuous
 62
   179
100
AcDbLine
 10
194.6669906849
 20
100.8552186805
 30
0.0
 11
195.0621956849
 21
100.9754976805
 31
0.0
  0
LINE
  5
2BE
330
1F
100
AcDbEntity
  8
SLD-0
  6
Continuous
 62
   179
100
AcDbLine
 10
195.0621956849
 20
100.9754976805
 30
0.0
 11
195.4450366849
 21
101.1285676805
 31
0.0
  0
LINE
  5
2BF
330
1F
100
AcDbEntity
  8
SLD-0
  6
Continuous
 62
   179
100
AcDbLine
 10
195.4450366849
 20
101.1285676805
 30
0.0
 11
195.8125996849
 21
101.3132616805
 31
0.0
  0
LINE
  5
2C0
330
1F
100
AcDbEntity
  8
SLD-0
  6
Continuous
 62
   179
100
AcDbLine
 10
195.8125996849
 20
101.3132616805
 30
0.0
 11
196.1620876849
 21
101.5281766805
 31
0.0
  0
LINE
  5
2C1
330
1F
100
AcDbEntity
  8
SLD-0
  6
Continuous
 62
   179
100
AcDbLine
 10
196.1620876849
 20
101.5281766805
 30
0.0
 11
196.4908406849
 21
101.7716746805
 31
0.0
  0
LINE
  5
2C2
330
1F
100
AcDbEntity
  8
SLD-0
  6
Continuous
 62
   179
100
AcDbLine
 10
196.4908406849
 20
101.7716746805
 30
0.0
 11
196.7963566849
 21
102.0419036805
 31
0.0
  0
LINE
  5
2C3
330
1F
100
AcDbEntity
  8
SLD-0
  6
Continuous
 62
   179
100
AcDbLine
 10
196.7963566849
 20
102.0419036805
 30
0.0
 11
197.0763106849
 21
102.3368076805
 31
0.0
  0
LINE
  5
2C4
330
1F
100
AcDbEntity
  8
SLD-0
  6
Continuous
 62
   179
100
AcDbLine
 10
197.0763106849
 20
102.3368076805
 30
0.0
 11
197.3285716849
 21
102.6541406805
 31
0.0
  0
LINE
  5
2C5
330
1F
100
AcDbEntity
  8
SLD-0
  6
Continuous
 62
   179
100
AcDbLine
 10
197.3285716849
 20
102.6541406805
 30
0.0
 11
197.5512206849
 21
102.9914886805
 31
0.0
  0
LINE
  5
2C6
330
1F
100
AcDbEntity
  8
SLD-0
  6
Continuous
 62
   179
100
AcDbLine
 10
197.5512206849
 20
102.9914886805
 30
0.0
 11
197.7425616849
 21
103.3462836805
 31
0.0
  0
LINE
  5
2C7
330
1F
100
AcDbEntity
  8
SLD-0
  6
Continuous
 62
   179
100
AcDbLine
 10
197.7425616849
 20
103.3462836805
 30
0.0
 11
197.9011396849
 21
103.7158256805
 31
0.0
  0
LINE
  5
2C8
330
1F
100
AcDbEntity
  8
SLD-0
  6
Continuous
 62
   179
100
AcDbLine
 10
197.9011396849
 20
103.7158256805
 30
0.0
 11
198.0257476849
 21
104.0973026805
 31
0.0
  0
LINE
  5
2C9
330
1F
100
AcDbEntity
  8
SLD-0
  6
Continuous
 62
   179
100
AcDbLine
 10
198.0257476849
 20
104.0973026805
 30
0.0
 11
198.1154366849
 21
104.4878116805
 31
0.0
  0
LINE
  5
2CA
330
1F
100
AcDbEntity
  8
SLD-0
  6
Continuous
 62
   179
100
AcDbLine
 10
198.1154366849
 20
104.4878116805
 30
0.0
 11
198.1695246849
 21
104.8843796805
 31
0.0
  0
LINE
  5
2CB
330
1F
100
AcDbEntity
  8
SLD-0
  6
Continuous
 62
   179
100
AcDbLine
 10
198.1695246849
 20
104.8843796805
 30
0.0
 11
198.1875996849
 21
105.2839886805
 31
0.0
  0
ARC
  5
2CC
330
1F
100
AcDbEntity
  8
SLD-0
  6
Continuous
 62
   179
100
AcDbCircle
 10
41.1687775189
 20
53.6201887248
 30
0.0
 40
4.0
100
AcDbArc
 50
180.0
 51
270.0
  0
ARC
  5
2CD
330
1F
100
AcDbEntity
  8
SLD-0
  6
Continuous
 62
   179
100
AcDbCircle
 10
49.6687775189
 20
45.6201887248
 30
0.0
 40
4.0
100
AcDbArc
 50
0.0
 51
90.0
  0
ARC
  5
2CE
330
1F
100
AcDbEntity
  8
SLD-0
  6
Continuous
 62
   179
100
AcDbCircle
 10
62.6687775189
 20
43.6201887248
 30
0.0
 40
9.000000000000007
100
AcDbArc
 50
180.0
 51
270.0
  0
ARC
  5
2CF
330
1F
100
AcDbEntity
  8
SLD-0
  6
Continuous
 62
   179
100
AcDbCircle
 10
71.6687775189
 20
43.6201887248
 30
0.0
 40
9.000000000000007
100
AcDbArc
 50
270.0
 51
0.0
  0
ARC
  5
2D0
330
1F
100
AcDbEntity
  8
SLD-0
  6
Continuous
 62
   179
100
AcDbCircle
 10
84.6687775189
 20
45.6201887248
 30
0.0
 40
4.0
100
AcDbArc
 50
90.0
 51
180.0
  0
ARC
  5
2D1
330
1F
100
AcDbEntity
  8
SLD-0
  6
Continuous
 62
   179
100
AcDbCircle
 10
84.6687775189
 20
109.6201887248
 30
0.0
 40
4.0
100
AcDbArc
 50
180.0
 51
270.0
  0
ARC
  5
2D2
330
1F
100
AcDbEntity
  8
SLD-0
  6
Continuous
 62
   179
100
AcDbCircle
 10
71.6687775189
 20
111.6201887248
 30
0.0
 40
9.0
100
AcDbArc
 50
0.0
 51
90.0
  0
ARC
  5
2D3
330
1F
100
AcDbEntity
  8
SLD-0
  6
Continuous
 62
   179
100
AcDbCircle
 10
62.6687775189
 20
111.6201887248
 30
0.0
 40
9.0
100
AcDbArc
 50
90.0
 51
180.0
  0
ARC
  5
2D4
330
1F
100
AcDbEntity
  8
SLD-0
  6
Continuous
 62
   179
100
AcDbCircle
 10
49.6687775189
 20
109.6201887248
 30
0.0
 40
4.0
100
AcDbArc
 50
270.0
 51
0.0
  0
ARC
  5
2D5
330
1F
100
AcDbEntity
  8
SLD-0
  6
Continuous
 62
   179
100
AcDbCircle
 10
41.1687775189
 20
101.6201887248
 30
0.0
 40
4.0
100
AcDbArc
 50
90.0
 51
180.0
  0
ARC
  5
2D6
330
1F
100
AcDbEntity
  8
SLD-0
  6
Continuous
 62
   179
100
AcDbCircle
 10
62.6687775189
 20
77.6201887248
 30
0.0
 40
28.00000000000001
100
AcDbArc
 50
155.604248
 51
204.395752
  0
ARC
  5
2D7
330
1F
100
AcDbEntity
  8
SLD-0
  6
Continuous
 62
   179
100
AcDbCircle
 10
69.9683925189
 20
43.6201887248
 30
0.0
 40
3.200385
100
AcDbArc
 50
269.111711
 51
90.888289
  0
ARC
  5
2D8
330
1F
100
AcDbEntity
  8
SLD-0
  6
Continuous
 62
   179
100
AcDbCircle
 10
64.3691625189
 20
43.6201887248
 30
0.0
 40
3.200385
100
AcDbArc
 50
89.111711
 51
270.888289
  0
ARC
  5
2D9
330
1F
100
AcDbEntity
  8
SLD-0
  6
Continuous
 62
   179
100
AcDbCircle
 10
236.6906666849
 20
86.2839886805
 30
0.0
 40
3.0
100
AcDbArc
 50
270.0
 51
0.0
  0
ARC
  5
2DA
330
1F
100
AcDbEntity
  8
SLD-0
  6
Continuous
 62
   179
100
AcDbCircle
 10
211.1906666849
 20
108.2839886805
 30
0.0
 40
2.0
100
AcDbArc
 50
90.0
 51
180.0
  0
ARC
  5
2DB
330
1F
100
AcDbEntity
  8
SLD-0
  6
Continuous
 62
   179
100
AcDbCircle
 10
218.1906668327
 20
243.7003966185
 30
0.0
 40
14.00000006468684
100
AcDbArc
 50
180.0
 51
253.3984505588
  0
ARC
  5
2DC
330
1F
100
AcDbEntity
  8
SLD-0
  6
Continuous
 62
   179
100
AcDbCircle
 10
154.1906667033
 20
243.7003966185
 30
0.0
 40
14.00000006468687
100
AcDbArc
 50
286.6015494412
 51
0.0
  0
ARC
  5
2DD
330
1F
100
AcDbEntity
  8
SLD-0
  6
Continuous
 62
   179
100
AcDbCircle
 10
161.1906666849
 20
108.2839886805
 30
0.0
 40
2.0
100
AcDbArc
 50
0.0
 51
90.0
  0
ARC
  5
2DE
330
1F
100
AcDbEntity
  8
SLD-0
  6
Continuous
 62
   179
100
AcDbCircle
 10
198.9609956849
 20
128.2839886805
 30
0.0
 40
2.0
100
AcDbArc
 50
90.0
 51
180.0
  0
CIRCLE
  5
2DF
330
1F
100
AcDbEntity
  8
SLD-0
  6
Continuous
 62
   179
100
AcDbCircle
 10
209.1906666849
 20
205.2839886805
 30
0.0
 40
2.099999999999994
  0
ARC
  5
2E0
330
1F
100
AcDbEntity
  8
SLD-0
  6
Continuous
 62
   179
100
AcDbCircle
 10
220.4798136849
 20
205.9839886805
 30
0.0
 40
0.3000000000000114
100
AcDbArc
 50
0.0
 51
180.0
  0
ARC
  5
2E1
330
1F
100
AcDbEntity
  8
SLD-0
  6
Continuous
 62
   179
100
AcDbCircle
 10
226.7952791043
 20
198.5839888859
 30
0.0
 40
0.3000000976172478
100
AcDbArc
 50
206.0847760675
 51
347.8804056838
  0
ARC
  5
2E2
330
1F
100
AcDbEntity
  8
SLD-0
  6
Continuous
 62
   179
100
AcDbCircle
 10
229.9552791043
 20
198.5839888859
 30
0.0
 40
0.3000000976171456
100
AcDbArc
 50
206.0847760675
 51
347.8804056838
  0
ARC
  5
2E3
330
1F
100
AcDbEntity
  8
SLD-0
  6
Continuous
 62
   179
100
AcDbCircle
 10
233.1243481849
 20
198.5839886805
 30
0.0
 40
0.3000000757970058
100
AcDbArc
 50
192.1196143652
 51
12.1196143653
  0
ARC
  5
2E4
330
1F
100
AcDbEntity
  8
SLD-0
  6
Continuous
 62
   179
100
AcDbCircle
 10
231.5352791628
 20
205.9839887832
 30
0.0
 40
0.3000000757970421
100
AcDbArc
 50
12.1195943162
 51
192.1196344143
  0
ARC
  5
2E5
330
1F
100
AcDbEntity
  8
SLD-0
  6
Continuous
 62
   179
100
AcDbCircle
 10
222.0552789609
 20
205.9839887398
 30
0.0
 40
0.3000002823264157
100
AcDbArc
 50
12.1195943162
 51
192.119591
  0
ARC
  5
2E6
330
1F
100
AcDbEntity
  8
SLD-0
  6
Continuous
 62
   179
100
AcDbCircle
 10
225.2152789609
 20
205.9839887398
 30
0.0
 40
0.3000002823264157
100
AcDbArc
 50
12.1195943163
 51
192.119591
  0
CIRCLE
  5
2E7
330
1F
100
AcDbEntity
  8
SLD-0
  6
Continuous
 62
   179
100
AcDbCircle
 10
163.1906666849
 20
205.2839886805
 30
0.0
 40
2.099999999999994
  0
ARC
  5
2E8
330
1F
100
AcDbEntity
  8
SLD-0
  6
Continuous
 62
   179
100
AcDbCircle
 10
225.1904437722
 20
175.2367555178
 30
0.0
 40
5.000000189436646
100
AcDbArc
 50
179.4587397948
 51
204.4062106124
  0
ARC
  5
2E9
330
1F
100
AcDbEntity
  8
SLD-0
  6
Continuous
 62
   179
100
AcDbCircle
 10
215.8372490719
 20
170.2839886862
 30
0.0
 40
9.553418035114349
100
AcDbArc
 50
342.412042441
 51
17.5879518419
  0
ARC
  5
2EA
330
1F
100
AcDbEntity
  8
SLD-0
  6
Continuous
 62
   179
100
AcDbCircle
 10
229.7440850719
 20
170.2839877775
 30
0.0
 40
9.553418035114378
100
AcDbArc
 50
162.412042441
 51
197.5879518419
  0
ARC
  5
2EB
330
1F
100
AcDbEntity
  8
SLD-0
  6
Continuous
 62
   179
100
AcDbCircle
 10
220.3908896192
 20
175.2367532246
 30
0.0
 40
5.000000189436757
100
AcDbArc
 50
335.5938182441
 51
0.5412864842
  0
CIRCLE
  5
2EC
330
1F
100
AcDbEntity
  8
SLD-0
  6
Continuous
 62
   179
100
AcDbCircle
 10
262.6906666849
 20
170.2839886805
 30
0.0
 40
2.5
  0
CIRCLE
  5
2ED
330
1F
100
AcDbEntity
  8
SLD-0
  6
Continuous
 62
   179
100
AcDbCircle
 10
247.6906666849
 20
170.2839886805
 30
0.0
 40
2.099999999999994
  0
ARC
  5
2EE
330
1F
100
AcDbEntity
  8
SLD-0
  6
Continuous
 62
   179
100
AcDbCircle
 10
220.3908898121
 20
165.3312226793
 30
0.0
 40
4.999999982835316
100
AcDbArc
 50
359.4587301911
 51
24.4061898746
  0
ARC
  5
2EF
330
1F
100
AcDbEntity
  8
SLD-0
  6
Continuous
 62
   179
100
AcDbCircle
 10
225.1904435676
 20
165.3312216299
 30
0.0
 40
4.999999982835298
100
AcDbArc
 50
155.5937969194
 51
180.5412577824
  0
ARC
  5
2F0
330
1F
100
AcDbEntity
  8
SLD-0
  6
Continuous
 62
   179
100
AcDbCircle
 10
297.1973106849
 20
174.7839886805
 30
0.0
 40
9.0
100
AcDbArc
 50
90.0
 51
180.0
  0
ARC
  5
2F1
330
1F
100
AcDbEntity
  8
SLD-0
  6
Continuous
 62
   179
100
AcDbCircle
 10
307.1973106849
 20
188.2839886805
 30
0.0
 40
4.5
100
AcDbArc
 50
270.0
 51
0.0
  0
ARC
  5
2F2
330
1F
100
AcDbEntity
  8
SLD-0
  6
Continuous
 62
   179
100
AcDbCircle
 10
307.1973106849
 20
197.7839886805
 30
0.0
 40
4.5
100
AcDbArc
 50
0.0
 51
90.0
  0
ARC
  5
2F3
330
1F
100
AcDbEntity
  8
SLD-0
  6
Continuous
 62
   179
100
AcDbCircle
 10
307.1973106849
 20
206.2839886805
 30
0.0
 40
4.0
100
AcDbArc
 50
180.0
 51
270.0
  0
ARC
  5
2F4
330
1F
100
AcDbEntity
  8
SLD-0
  6
Continuous
 62
   179
100
AcDbCircle
 10
308.1973106849
 20
195.2839886805
 30
0.0
 40
4.250000000000018
100
AcDbArc
 50
35.537678
 51
325.439678
  0
ARC
  5
2F5
330
1F
100
AcDbEntity
  8
SLD-0
  6
Continuous
 62
   179
100
AcDbCircle
 10
308.1973106849
 20
195.2839886805
 30
0.0
 40
3.730385000000031
100
AcDbArc
 50
20.241774
 51
339.758226
  0
ARC
  5
2F6
330
1F
100
AcDbEntity
  8
SLD-0
  6
Continuous
 62
   179
100
AcDbCircle
 10
331.1973106849
 20
170.2839886805
 30
0.0
 40
19.0000005442342
100
AcDbArc
 50
40.2566122132
 51
49.7433854855
  0
ARC
  5
2F7
330
1F
100
AcDbEntity
  8
SLD-0
  6
Continuous
 62
   179
100
AcDbCircle
 10
331.1973106849
 20
170.2839886805
 30
0.0
 40
19.00000054423441
100
AcDbArc
 50
310.2566145145
 51
319.7433877868
  0
ARC
  5
2F8
330
1F
100
AcDbEntity
  8
SLD-0
  6
Continuous
 62
   179
100
AcDbCircle
 10
331.1973106849
 20
170.2839886805
 30
0.0
 40
18.99999989802213
100
AcDbArc
 50
220.2566122132
 51
229.7433877868
  0
ARC
  5
2F9
330
1F
100
AcDbEntity
  8
SLD-0
  6
Continuous
 62
   179
100
AcDbCircle
 10
331.1973106849
 20
170.2839886805
 30
0.0
 40
18.99999989802213
100
AcDbArc
 50
130.2566122132
 51
139.7433877868
  0
CIRCLE
  5
2FA
330
1F
100
AcDbEntity
  8
SLD-0
  6
Continuous
 62
   179
100
AcDbCircle
 10
321.1973106849
 20
180.2839886805
 30
0.0
 40
2.75
  0
CIRCLE
  5
2FB
330
1F
100
AcDbEntity
  8
SLD-0
  6
Continuous
 62
   179
100
AcDbCircle
 10
321.1973106849
 20
180.2839886805
 30
0.0
 40
3.25
  0
CIRCLE
  5
2FC
330
1F
100
AcDbEntity
  8
SLD-0
  6
Continuous
 62
   179
100
AcDbCircle
 10
312.1973106849
 20
170.2839886805
 30
0.0
 40
3.0
  0
CIRCLE
  5
2FD
330
1F
100
AcDbEntity
  8
SLD-0
  6
Continuous
 62
   179
100
AcDbCircle
 10
321.1973106849
 20
160.2839886805
 30
0.0
 40
2.75
  0
CIRCLE
  5
2FE
330
1F
100
AcDbEntity
  8
SLD-0
  6
Continuous
 62
   179
100
AcDbCircle
 10
321.1973106849
 20
160.2839886805
 30
0.0
 40
3.25
  0
ARC
  5
2FF
330
1F
100
AcDbEntity
  8
SLD-0
  6
Continuous
 62
   179
100
AcDbCircle
 10
299.1973106849
 20
152.7839886805
 30
0.0
 40
4.0
100
AcDbArc
 50
0.0
 51
90.0
  0
ARC
  5
300
330
1F
100
AcDbEntity
  8
SLD-0
  6
Continuous
 62
   179
100
AcDbCircle
 10
297.1973106849
 20
165.7839886805
 30
0.0
 40
9.0
100
AcDbArc
 50
180.0
 51
270.0
  0
ARC
  5
301
330
1F
100
AcDbEntity
  8
SLD-0
  6
Continuous
 62
   179
100
AcDbCircle
 10
297.1973106849
 20
173.0836036805
 30
0.0
 40
3.200385000000028
100
AcDbArc
 50
359.1117109999
 51
180.888289
  0
ARC
  5
302
330
1F
100
AcDbEntity
  8
SLD-0
  6
Continuous
 62
   179
100
AcDbCircle
 10
297.1973106849
 20
167.4843726805
 30
0.0
 40
3.200385000000028
100
AcDbArc
 50
179.111711
 51
0.8882890001
  0
ARC
  5
303
330
1F
100
AcDbEntity
  8
SLD-0
  6
Continuous
 62
   179
100
AcDbCircle
 10
363.1973106849
 20
152.7839886805
 30
0.0
 40
4.0
100
AcDbArc
 50
90.0
 51
180.0
  0
ARC
  5
304
330
1F
100
AcDbEntity
  8
SLD-0
  6
Continuous
 62
   179
100
AcDbCircle
 10
365.1973106849
 20
165.7839886805
 30
0.0
 40
9.0
100
AcDbArc
 50
270.0
 51
0.0
  0
ARC
  5
305
330
1F
100
AcDbEntity
  8
SLD-0
  6
Continuous
 62
   179
100
AcDbCircle
 10
365.1973106849
 20
174.7839886805
 30
0.0
 40
9.0
100
AcDbArc
 50
0.0
 51
90.0
  0
ARC
  5
306
330
1F
100
AcDbEntity
  8
SLD-0
  6
Continuous
 62
   179
100
AcDbCircle
 10
355.1973106849
 20
188.2839886805
 30
0.0
 40
4.5
100
AcDbArc
 50
180.0
 51
270.0
  0
ARC
  5
307
330
1F
100
AcDbEntity
  8
SLD-0
  6
Continuous
 62
   179
100
AcDbCircle
 10
355.1973106849
 20
197.7839886805
 30
0.0
 40
4.5
100
AcDbArc
 50
90.0
 51
180.0
  0
ARC
  5
308
330
1F
100
AcDbEntity
  8
SLD-0
  6
Continuous
 62
   179
100
AcDbCircle
 10
355.1973106849
 20
206.2839886805
 30
0.0
 40
4.0
100
AcDbArc
 50
270.0
 51
0.0
  0
ARC
  5
309
330
1F
100
AcDbEntity
  8
SLD-0
  6
Continuous
 62
   179
100
AcDbCircle
 10
354.1973106849
 20
195.2839886805
 30
0.0
 40
4.250000000000023
100
AcDbArc
 50
214.560322
 51
144.462322
  0
ARC
  5
30A
330
1F
100
AcDbEntity
  8
SLD-0
  6
Continuous
 62
   179
100
AcDbCircle
 10
354.1973106849
 20
195.2839886805
 30
0.0
 40
3.730385000000031
100
AcDbArc
 50
200.241774
 51
159.758226
  0
ARC
  5
30B
330
1F
100
AcDbEntity
  8
SLD-0
  6
Continuous
 62
   179
100
AcDbCircle
 10
355.1973106849
 20
220.7839886805
 30
0.0
 40
4.0
100
AcDbArc
 50
0.0
 51
90.0
  0
CIRCLE
  5
30C
330
1F
100
AcDbEntity
  8
SLD-0
  6
Continuous
 62
   179
100
AcDbCircle
 10
349.1973106849
 20
212.2839886805
 30
0.0
 40
2.099999999999966
  0
CIRCLE
  5
30D
330
1F
100
AcDbEntity
  8
SLD-0
  6
Continuous
 62
   179
100
AcDbCircle
 10
331.1973106849
 20
202.2839886805
 30
0.0
 40
6.500000000000057
  0
CIRCLE
  5
30E
330
1F
100
AcDbEntity
  8
SLD-0
  6
Continuous
 62
   179
100
AcDbCircle
 10
331.1973106849
 20
202.2839886805
 30
0.0
 40
5.699999999999989
  0
CIRCLE
  5
30F
330
1F
100
AcDbEntity
  8
SLD-0
  6
Continuous
 62
   179
100
AcDbCircle
 10
331.1973106849
 20
202.2839886805
 30
0.0
 40
4.500000000000057
  0
CIRCLE
  5
310
330
1F
100
AcDbEntity
  8
SLD-0
  6
Continuous
 62
   179
100
AcDbCircle
 10
331.1973106849
 20
202.2839886805
 30
0.0
 40
5.000000000000057
  0
CIRCLE
  5
311
330
1F
100
AcDbEntity
  8
SLD-0
  6
Continuous
 62
   179
100
AcDbCircle
 10
341.1973106849
 20
180.2839886805
 30
0.0
 40
2.749999999999943
  0
CIRCLE
  5
312
330
1F
100
AcDbEntity
  8
SLD-0
  6
Continuous
 62
   179
100
AcDbCircle
 10
341.1973106849
 20
180.2839886805
 30
0.0
 40
3.249999999999943
  0
CIRCLE
  5
313
330
1F
100
AcDbEntity
  8
SLD-0
  6
Continuous
 62
   179
100
AcDbCircle
 10
350.1973106849
 20
170.2839886805
 30
0.0
 40
3.0
  0
CIRCLE
  5
314
330
1F
100
AcDbEntity
  8
SLD-0
  6
Continuous
 62
   179
100
AcDbCircle
 10
350.1973106849
 20
170.2839886805
 30
0.0
 40
2.0
  0
CIRCLE
  5
315
330
1F
100
AcDbEntity
  8
SLD-0
  6
Continuous
 62
   179
100
AcDbCircle
 10
341.1973106849
 20
160.2839886805
 30
0.0
 40
2.749999999999943
  0
CIRCLE
  5
316
330
1F
100
AcDbEntity
  8
SLD-0
  6
Continuous
 62
   179
100
AcDbCircle
 10
341.1973106849
 20
160.2839886805
 30
0.0
 40
3.249999999999943
  0
ARC
  5
317
330
1F
100
AcDbEntity
  8
SLD-0
  6
Continuous
 62
   179
100
AcDbCircle
 10
365.1973106849
 20
173.0836036805
 30
0.0
 40
3.200384999999972
100
AcDbArc
 50
359.111711
 51
180.888289
  0
ARC
  5
318
330
1F
100
AcDbEntity
  8
SLD-0
  6
Continuous
 62
   179
100
AcDbCircle
 10
365.1973106849
 20
167.4843726805
 30
0.0
 40
3.200384999999971
100
AcDbArc
 50
179.111711
 51
0.888289
  0
ARC
  5
319
330
1F
100
AcDbEntity
  8
SLD-0
  6
Continuous
 62
   179
100
AcDbCircle
 10
355.1973106849
 20
143.7839886805
 30
0.0
 40
4.0
100
AcDbArc
 50
270.0
 51
0.0
  0
ARC
  5
31A
330
1F
100
AcDbEntity
  8
SLD-0
  6
Continuous
 62
   179
100
AcDbCircle
 10
355.1973106849
 20
135.2839886805
 30
0.0
 40
4.5
100
AcDbArc
 50
90.0
 51
270.0
  0
ARC
  5
31B
330
1F
100
AcDbEntity
  8
SLD-0
  6
Continuous
 62
   179
100
AcDbCircle
 10
355.1973106849
 20
126.7839886805
 30
0.0
 40
4.0
100
AcDbArc
 50
0.0
 51
90.0
  0
ARC
  5
31C
330
1F
100
AcDbEntity
  8
SLD-0
  6
Continuous
 62
   179
100
AcDbCircle
 10
354.1973106849
 20
135.2839886805
 30
0.0
 40
4.250000000000011
100
AcDbArc
 50
261.969173
 51
98.030827
  0
ARC
  5
31D
330
1F
100
AcDbEntity
  8
SLD-0
  6
Continuous
 62
   179
100
AcDbCircle
 10
354.1973106849
 20
135.2839886805
 30
0.0
 40
3.730385000000025
100
AcDbArc
 50
224.359224
 51
135.640776
  0
CIRCLE
  5
31E
330
1F
100
AcDbEntity
  8
SLD-0
  6
Continuous
 62
   179
100
AcDbCircle
 10
331.1973106849
 20
138.2839886805
 30
0.0
 40
4.500000000000057
  0
CIRCLE
  5
31F
330
1F
100
AcDbEntity
  8
SLD-0
  6
Continuous
 62
   179
100
AcDbCircle
 10
331.1973106849
 20
138.2839886805
 30
0.0
 40
5.000000000000057
  0
CIRCLE
  5
320
330
1F
100
AcDbEntity
  8
SLD-0
  6
Continuous
 62
   179
100
AcDbCircle
 10
331.1973106849
 20
138.2839886805
 30
0.0
 40
5.500000000000057
  0
ARC
  5
321
330
1F
100
AcDbEntity
  8
SLD-0
  6
Continuous
 62
   179
100
AcDbCircle
 10
308.1973106849
 20
135.2839886805
 30
0.0
 40
3.730385000000025
100
AcDbArc
 50
44.359224
 51
315.640776
  0
ARC
  5
322
330
1F
100
AcDbEntity
  8
SLD-0
  6
Continuous
 62
   179
100
AcDbCircle
 10
308.1973106849
 20
135.2839886805
 30
0.0
 40
4.250000000000019
100
AcDbArc
 50
81.969173
 51
278.030827
  0
ARC
  5
323
330
1F
100
AcDbEntity
  8
SLD-0
  6
Continuous
 62
   179
100
AcDbCircle
 10
307.1973106849
 20
143.7839886805
 30
0.0
 40
4.0
100
AcDbArc
 50
180.0
 51
270.0
  0
ARC
  5
324
330
1F
100
AcDbEntity
  8
SLD-0
  6
Continuous
 62
   179
100
AcDbCircle
 10
307.1973106849
 20
135.2839886805
 30
0.0
 40
4.5
100
AcDbArc
 50
270.0
 51
90.0
  0
ARC
  5
325
330
1F
100
AcDbEntity
  8
SLD-0
  6
Continuous
 62
   179
100
AcDbCircle
 10
307.1973106849
 20
126.7839886805
 30
0.0
 40
4.0
100
AcDbArc
 50
90.0
 51
180.0
  0
ARC
  5
326
330
1F
100
AcDbEntity
  8
SLD-0
  6
Continuous
 62
   179
100
AcDbCircle
 10
264.1906666849
 20
142.7839886805
 30
0.0
 40
0.5
100
AcDbArc
 50
0.0
 51
90.0
  0
ARC
  5
327
330
1F
100
AcDbEntity
  8
SLD-0
  6
Continuous
 62
   179
100
AcDbCircle
 10
264.1906666849
 20
133.7839886805
 30
0.0
 40
0.5
100
AcDbArc
 50
270.0
 51
0.0
  0
ARC
  5
328
330
1F
100
AcDbEntity
  8
SLD-0
  6
Continuous
 62
   179
100
AcDbCircle
 10
259.9406666849
 20
135.0739886805
 30
0.0
 40
0.25
100
AcDbArc
 50
0.0
 51
90.0
  0
ARC
  5
329
330
1F
100
AcDbEntity
  8
SLD-0
  6
Continuous
 62
   179
100
AcDbCircle
 10
235.3798134648
 20
141.9839887479
 30
0.0
 40
0.3000002301073557
100
AcDbArc
 50
0.0
 51
162.9713682762
  0
ARC
  5
32A
330
1F
100
AcDbEntity
  8
SLD-0
  6
Continuous
 62
   179
100
AcDbCircle
 10
233.1243481849
 20
134.5839886805
 30
0.0
 40
0.3000000757971169
100
AcDbArc
 50
192.1196143652
 51
12.1196143653
  0
ARC
  5
32B
330
1F
100
AcDbEntity
  8
SLD-0
  6
Continuous
 62
   179
100
AcDbCircle
 10
231.5352791628
 20
141.9839887832
 30
0.0
 40
0.3000000757970778
100
AcDbArc
 50
12.1195943162
 51
192.1196344143
  0
ARC
  5
32C
330
1F
100
AcDbEntity
  8
SLD-0
  6
Continuous
 62
   179
100
AcDbCircle
 10
229.9552791043
 20
134.5839888859
 30
0.0
 40
0.3000000976173108
100
AcDbArc
 50
206.0847760676
 51
347.8804056838
  0
ARC
  5
32D
330
1F
100
AcDbEntity
  8
SLD-0
  6
Continuous
 62
   179
100
AcDbCircle
 10
228.3752789609
 20
141.9839887398
 30
0.0
 40
0.3000002823264097
100
AcDbArc
 50
12.1195943162
 51
192.119591
  0
ARC
  5
32E
330
1F
100
AcDbEntity
  8
SLD-0
  6
Continuous
 62
   179
100
AcDbCircle
 10
220.4798136849
 20
141.9839886805
 30
0.0
 40
0.3000000000000114
100
AcDbArc
 50
0.0
 51
180.0
  0
ARC
  5
32F
330
1F
100
AcDbEntity
  8
SLD-0
  6
Continuous
 62
   179
100
AcDbCircle
 10
222.0552789609
 20
141.9839887398
 30
0.0
 40
0.3000002823264129
100
AcDbArc
 50
12.1195943162
 51
192.119591
  0
ARC
  5
330
330
1F
100
AcDbEntity
  8
SLD-0
  6
Continuous
 62
   179
100
AcDbCircle
 10
226.7952791043
 20
134.5839888859
 30
0.0
 40
0.3000000976173031
100
AcDbArc
 50
206.0847760675
 51
347.8804056838
  0
ARC
  5
331
330
1F
100
AcDbEntity
  8
SLD-0
  6
Continuous
 62
   179
100
AcDbCircle
 10
235.3798136849
 20
134.5839886805
 30
0.0
 40
0.3000000000000682
100
AcDbArc
 50
180.0
 51
0.0
  0
ARC
  5
332
330
1F
100
AcDbEntity
  8
SLD-0
  6
Continuous
 62
   179
100
AcDbCircle
 10
259.9406666849
 20
141.4939886805
 30
0.0
 40
0.25
100
AcDbArc
 50
270.0
 51
0.0
  0
ARC
  5
333
330
1F
100
AcDbEntity
  8
SLD-0
  6
Continuous
 62
   179
100
AcDbCircle
 10
225.2152789609
 20
141.9839887398
 30
0.0
 40
0.3000002823263573
100
AcDbArc
 50
12.1195943162
 51
192.119591
  0
ARC
  5
334
330
1F
100
AcDbEntity
  8
SLD-0
  6
Continuous
 62
   179
100
AcDbCircle
 10
173.4203366849
 20
128.2839886805
 30
0.0
 40
2.0
100
AcDbArc
 50
0.0
 51
90.0
  0
CIRCLE
  5
335
330
1F
100
AcDbEntity
  8
SLD-0
  6
Continuous
 62
   179
100
AcDbCircle
 10
209.1906666849
 20
145.2839886805
 30
0.0
 40
2.099999999999994
  0
CIRCLE
  5
336
330
1F
100
AcDbEntity
  8
SLD-0
  6
Continuous
 62
   179
100
AcDbCircle
 10
163.1906666849
 20
145.2839886805
 30
0.0
 40
2.099999999999994
  0
ARC
  5
337
330
1F
100
AcDbEntity
  8
SLD-0
  6
Continuous
 62
   179
100
AcDbCircle
 10
136.4187775189
 20
74.4101887248
 30
0.0
 40
0.25
100
AcDbArc
 50
0.0
 51
90.0
  0
ARC
  5
338
330
1F
100
AcDbEntity
  8
SLD-0
  6
Continuous
 62
   179
100
AcDbCircle
 10
140.6687775189
 20
82.1201887248
 30
0.0
 40
0.5000000000000142
100
AcDbArc
 50
0.0
 51
90.0
  0
ARC
  5
339
330
1F
100
AcDbEntity
  8
SLD-0
  6
Continuous
 62
   179
100
AcDbCircle
 10
140.6687775189
 20
73.1201887248
 30
0.0
 40
0.5
100
AcDbArc
 50
270.0
 51
0.0
  0
ARC
  5
33A
330
1F
100
AcDbEntity
  8
SLD-0
  6
Continuous
 62
   179
100
AcDbCircle
 10
136.4187775189
 20
80.8301887248
 30
0.0
 40
0.25
100
AcDbArc
 50
270.0
 51
0.0
  0
ARC
  5
33B
330
1F
100
AcDbEntity
  8
SLD-0
  6
Continuous
 62
   179
100
AcDbCircle
 10
307.1973106849
 20
220.7839886805
 30
0.0
 40
4.0
100
AcDbArc
 50
90.0
 51
180.0
  0
CIRCLE
  5
33C
330
1F
100
AcDbEntity
  8
SLD-0
  6
Continuous
 62
   179
100
AcDbCircle
 10
313.1973106849
 20
212.2839886805
 30
0.0
 40
2.100000000000023
  0
ARC
  5
33D
330
1F
100
AcDbEntity
  8
SLD-0
  6
Continuous
 62
   179
100
AcDbCircle
 10
264.1906666849
 20
197.7839886805
 30
0.0
 40
0.5
100
AcDbArc
 50
270.0
 51
0.0
  0
ARC
  5
33E
330
1F
100
AcDbEntity
  8
SLD-0
  6
Continuous
 62
   179
100
AcDbCircle
 10
264.1906666849
 20
206.7839886805
 30
0.0
 40
0.5
100
AcDbArc
 50
0.0
 51
90.0
  0
ARC
  5
33F
330
1F
100
AcDbEntity
  8
SLD-0
  6
Continuous
 62
   179
100
AcDbCircle
 10
259.9406666849
 20
205.4939886805
 30
0.0
 40
0.25
100
AcDbArc
 50
270.0
 51
0.0
  0
ARC
  5
340
330
1F
100
AcDbEntity
  8
SLD-0
  6
Continuous
 62
   179
100
AcDbCircle
 10
235.3798136849
 20
198.5839886805
 30
0.0
 40
0.3000000000000682
100
AcDbArc
 50
180.0
 51
0.0
  0
ARC
  5
341
330
1F
100
AcDbEntity
  8
SLD-0
  6
Continuous
 62
   179
100
AcDbCircle
 10
235.3798134648
 20
205.9839887479
 30
0.0
 40
0.3000002301073557
100
AcDbArc
 50
0.0
 51
162.9713682762
  0
ARC
  5
342
330
1F
100
AcDbEntity
  8
SLD-0
  6
Continuous
 62
   179
100
AcDbCircle
 10
228.3752789609
 20
205.9839887398
 30
0.0
 40
0.3000002823263602
100
AcDbArc
 50
12.1195943162
 51
192.119591
  0
ARC
  5
343
330
1F
100
AcDbEntity
  8
SLD-0
  6
Continuous
 62
   179
100
AcDbCircle
 10
259.9406666849
 20
199.0739886805
 30
0.0
 40
0.25
100
AcDbArc
 50
0.0
 51
90.0
  0
ARC
  5
344
330
1F
100
AcDbEntity
  8
SLD-0
  6
Continuous
 62
   179
100
AcDbCircle
 10
334.1457141931
 20
248.136293912
 30
0.0
 40
0.8523053145350852
100
AcDbArc
 50
195.0000049377
 51
323.929421
  0
ARC
  5
345
330
1F
100
AcDbEntity
  8
SLD-0
  6
Continuous
 62
   179
100
AcDbCircle
 10
331.1973105109
 20
250.2839886805
 30
0.0
 40
3.299999826060766
100
AcDbArc
 50
0.0
 51
72.5423949768
  0
CIRCLE
  5
346
330
1F
100
AcDbEntity
  8
SLD-0
  6
Continuous
 62
   179
100
AcDbCircle
 10
331.1973105109
 20
250.2839886805
 30
0.0
 40
2.500000000000004
  0
CIRCLE
  5
347
330
1F
100
AcDbEntity
  8
SLD-0
  6
Continuous
 62
   179
100
AcDbCircle
 10
331.1973105109
 20
250.2839886805
 30
0.0
 40
1.999999999999995
  0
CIRCLE
  5
348
330
1F
100
AcDbEntity
  8
SLD-0
  6
Continuous
 62
   179
100
AcDbCircle
 10
331.1973105109
 20
250.2839886805
 30
0.0
 40
6.499999999999994
  0
CIRCLE
  5
349
330
1F
100
AcDbEntity
  8
SLD-0
  6
Continuous
 62
   179
100
AcDbCircle
 10
331.1973105109
 20
250.2839886805
 30
0.0
 40
6.199999999999958
  0
ARC
  5
34A
330
1F
100
AcDbEntity
  8
SLD-0
  6
Continuous
 62
   179
100
AcDbCircle
 10
331.1973105109
 20
250.2839886805
 30
0.0
 40
4.500000078626113
100
AcDbArc
 50
323.9294209503
 51
216.070579
  0
ARC
  5
34B
330
1F
100
AcDbEntity
  8
SLD-0
  6
Continuous
 62
   179
100
AcDbCircle
 10
328.2489070481
 20
248.1362933434
 30
0.0
 40
0.852305157092431
100
AcDbArc
 50
216.0705391571
 51
344.9999776633
  0
ARC
  5
34C
330
1F
100
AcDbEntity
  8
SLD-0
  6
Continuous
 62
   179
100
AcDbCircle
 10
331.1973105109
 20
250.2839886805
 30
0.0
 40
3.299999826060741
100
AcDbArc
 50
107.4576050232
 51
180.0
  0
ARC
  5
34D
330
1F
100
AcDbEntity
  8
SLD-0
  6
Continuous
 62
   179
100
AcDbCircle
 10
206.0906666849
 20
251.7839886805
 30
0.0
 40
0.5
100
AcDbArc
 50
0.0
 51
180.0
  0
ARC
  5
34E
330
1F
100
AcDbEntity
  8
SLD-0
  6
Continuous
 62
   179
100
AcDbCircle
 10
206.0906666849
 20
247.7839886805
 30
0.0
 40
0.5
100
AcDbArc
 50
180.0
 51
0.0
  0
ARC
  5
34F
330
1F
100
AcDbEntity
  8
SLD-0
  6
Continuous
 62
   179
100
AcDbCircle
 10
206.0906666849
 20
250.2839886805
 30
0.0
 40
0.6000000000000032
100
AcDbArc
 50
146.44269
 51
213.55731
  0
ARC
  5
350
330
1F
100
AcDbEntity
  8
SLD-0
  6
Continuous
 62
   179
100
AcDbCircle
 10
206.0906666849
 20
250.2839886805
 30
0.0
 40
0.6000000000000032
100
AcDbArc
 50
326.44269
 51
33.55731
  0
ARC
  5
351
330
1F
100
AcDbEntity
  8
SLD-0
  6
Continuous
 62
   179
100
AcDbCircle
 10
64.3691625189
 20
111.6201887248
 30
0.0
 40
3.200385
100
AcDbArc
 50
89.111711
 51
270.888289
  0
ARC
  5
352
330
1F
100
AcDbEntity
  8
SLD-0
  6
Continuous
 62
   179
100
AcDbCircle
 10
69.9683925189
 20
111.6201887248
 30
0.0
 40
3.200385
100
AcDbArc
 50
269.111711
 51
90.888289
  0
CIRCLE
  5
353
330
1F
100
AcDbEntity
  8
SLD-0
  6
Continuous
 62
   179
100
AcDbCircle
 10
163.1906666849
 20
145.2839886805
 30
0.0
 40
2.5
  0
CIRCLE
  5
354
330
1F
100
AcDbEntity
  8
SLD-0
  6
Continuous
 62
   179
100
AcDbCircle
 10
163.1906666849
 20
205.2839886805
 30
0.0
 40
2.5
  0
CIRCLE
  5
355
330
1F
100
AcDbEntity
  8
SLD-0
  6
Continuous
 62
   179
100
AcDbCircle
 10
247.6906666849
 20
170.2839886805
 30
0.0
 40
2.499999999999972
  0
CIRCLE
  5
356
330
1F
100
AcDbEntity
  8
SLD-0
  6
Continuous
 62
   179
100
AcDbCircle
 10
262.6906666849
 20
170.2839886805
 30
0.0
 40
2.100000000000023
  0
CIRCLE
  5
357
330
1F
100
AcDbEntity
  8
SLD-0
  6
Continuous
 62
   179
100
AcDbCircle
 10
349.1973106849
 20
212.2839886805
 30
0.0
 40
2.5
  0
CIRCLE
  5
358
330
1F
100
AcDbEntity
  8
SLD-0
  6
Continuous
 62
   179
100
AcDbCircle
 10
313.1973106849
 20
212.2839886805
 30
0.0
 40
2.5
  0
CIRCLE
  5
359
330
1F
100
AcDbEntity
  8
SLD-0
  6
Continuous
 62
   179
100
AcDbCircle
 10
350.1973106849
 20
170.2839886805
 30
0.0
 40
1.649999999999977
  0
CIRCLE
  5
35A
330
1F
100
AcDbEntity
  8
SLD-0
  6
Continuous
 62
   179
100
AcDbCircle
 10
209.1906666849
 20
145.2839886805
 30
0.0
 40
2.5
  0
CIRCLE
  5
35B
330
1F
100
AcDbEntity
  8
SLD-0
  6
Continuous
 62
   179
100
AcDbCircle
 10
209.1906666849
 20
205.2839886805
 30
0.0
 40
2.5
  0
CIRCLE
  5
35C
330
1F
100
AcDbEntity
  8
SLD-0
  6
Continuous
 62
   179
100
AcDbCircle
 10
336.2455676849
 20
164.7674726805
 30
0.0
 40
0.3000000000000114
  0
CIRCLE
  5
35D
330
1F
100
AcDbEntity
  8
SLD-0
  6
Continuous
 62
   179
100
AcDbCircle
 10
336.2455676849
 20
164.7674726805
 30
0.0
 40
0.1499999999999773
  0
MTEXT
  5
35F
330
1F
100
AcDbEntity
  8
SLD-0
 62
     7
100
AcDbMText
 10
191.6675328762
 20
62.1667801877
 30
0.0
 40
4.8000001907
 41
0.0
 71
     1
 72
     1
  1
Ａ
  7
SLDTEXTSTYLE2
 73
     1
 44
1.0
  0
MTEXT
  5
361
330
1F
100
AcDbEntity
  8
SLD-0
 62
     7
100
AcDbMText
 10
83.9078862625
 20
26.4185615452
 30
0.0
 40
4.8000001907
 41
0.0
 71
     1
 72
     1
  1
Ａ矢視図
  7
SLDTEXTSTYLE3
 73
     1
 44
1.0
  0
MTEXT
  5
363
330
1F
100
AcDbEntity
  8
SLD-0
 62
     7
100
AcDbMText
 10
353.5232377482
 20
47.3658075047
 30
0.0
 40
4.8000001907
 41
0.0
 71
     1
 72
     1
  1
エアニッパー
  7
SLDTEXTSTYLE4
 73
     1
 44
1.0
  0
MTEXT
  5
365
330
1F
100
AcDbEntity
  8
SLD-0
 62
     7
100
AcDbMText
 10
345.947308596
 20
41.7268584193
 30
0.0
 40
4.8000001907
 41
0.0
 71
     1
 72
     1
  1
（スライドタイプ）
  7
SLDTEXTSTYLE5
 73
     1
 44
1.0
  0
MTEXT
  5
367
330
1F
100
AcDbEntity
  8
SLD-0
 62
     7
100
AcDbMText
 10
337.0693586616
 20
31.9526800048
 30
0.0
 40
4.8000001907
 41
0.0
 71
     1
 72
     1
  1
ＧＴ－ＮＢ３０（１０－Ｈｉｋｕ）
  7
SLDTEXTSTYLE6
 73
     1
 44
1.0
  0
MTEXT
  5
368
330
1F
100
AcDbEntity
  8
SLD-0
 62
     7
100
AcDbMText
 10
353.8991676873
 20
19.7349569865
 30
0.0
 40
4.8000001907
 41
0.0
 71
     1
 72
     1
  1
１３０２３５
  7
SLDTEXTSTYLE4
 73
     1
 44
1.0
  0
INSERT
  5
369
330
1F
100
AcDbEntity
  8
0
  6
Continuous
 62
     7
370
     0
100
AcDbBlockReference
  2
KOZU0029
 10
350.6245210279
 20
214.3365652654
 30
0.0
  0
INSERT
  5
36A
330
1F
100
AcDbEntity
  8
0
  6
Continuous
 62
     7
370
     0
100
AcDbBlockReference
  2
KOZU0030
 10
195.324945873
 20
100.9653057617
 30
0.0
  0
ENDSEC
  0
SECTION
  2
OBJECTS
  0
DICTIONARY
  5
C
330
0
100
AcDbDictionary
281
     1
  3
ACAD_GROUP
350
D
  3
ACAD_LAYOUT
350
1A
  3
ACAD_MLINESTYLE
350
17
  3
ACAD_PLOTSETTINGS
350
19
  3
ACAD_PLOTSTYLENAME
350
E
  0
DICTIONARY
  5
D
102
{ACAD_REACTORS
330
C
102
}
330
C
100
AcDbDictionary
281
     1
  0
DICTIONARY
  5
1A
102
{ACAD_REACTORS
330
C
102
}
330
C
100
AcDbDictionary
281
     1
  3
Layout1
350
1E
  3
Layout2
350
26
  3
Model
350
22
  0
DICTIONARY
  5
17
102
{ACAD_REACTORS
330
C
102
}
330
C
100
AcDbDictionary
281
     1
  3
Standard
350
18
  0
DICTIONARY
  5
19
102
{ACAD_REACTORS
330
C
102
}
330
C
100
AcDbDictionary
281
     1
  0
ACDBDICTIONARYWDFLT
  5
E
102
{ACAD_REACTORS
330
C
102
}
330
C
100
AcDbDictionary
281
     1
  3
Normal
350
F
100
AcDbDictionaryWithDefault
340
F
  0
LAYOUT
  5
1E
102
{ACAD_REACTORS
330
1A
102
}
330
1A
100
AcDbPlotSettings
  1

  2

  4

  6

 40
0.0
 41
0.0
 42
0.0
 43
0.0
 44
0.0
 45
0.0
 46
0.0
 47
0.0
 48
0.0
 49
0.0
140
0.0
141
0.0
142
1.0
143
1.0
 70
   688
 72
     0
 73
     0
 74
     5
  7

 75
    16
147
1.0
148
0.0
149
0.0
100
AcDbLayout
  1
Layout1
 70
     1
 71
     1
 10
0.0
 20
0.0
 11
0.0
 21
0.0
 12
0.0
 22
0.0
 32
0.0
 14
0.0
 24
0.0
 34
0.0
 15
0.0
 25
0.0
 35
0.0
146
0.0
 13
0.0
 23
0.0
 33
0.0
 16
1.0
 26
0.0
 36
0.0
 17
0.0
 27
1.0
 37
0.0
 76
     0
330
1B
  0
LAYOUT
  5
26
102
{ACAD_REACTORS
330
1A
102
}
330
1A
100
AcDbPlotSettings
  1

  2

  4

  6

 40
0.0
 41
0.0
 42
0.0
 43
0.0
 44
0.0
 45
0.0
 46
0.0
 47
0.0
 48
0.0
 49
0.0
140
0.0
141
0.0
142
1.0
143
1.0
 70
   688
 72
     0
 73
     0
 74
     5
  7

 75
    16
147
1.0
148
0.0
149
0.0
100
AcDbLayout
  1
Layout2
 70
     1
 71
     2
 10
0.0
 20
0.0
 11
0.0
 21
0.0
 12
0.0
 22
0.0
 32
0.0
 14
0.0
 24
0.0
 34
0.0
 15
0.0
 25
0.0
 35
0.0
146
0.0
 13
0.0
 23
0.0
 33
0.0
 16
1.0
 26
0.0
 36
0.0
 17
0.0
 27
1.0
 37
0.0
 76
     0
330
23
  0
LAYOUT
  5
22
102
{ACAD_REACTORS
330
1A
102
}
330
1A
100
AcDbPlotSettings
  1

  2

  4

  6

 40
0.0
 41
0.0
 42
0.0
 43
0.0
 44
0.0
 45
0.0
 46
0.0
 47
0.0
 48
0.0
 49
0.0
140
0.0
141
0.0
142
1.0
143
1.0
 70
  1712
 72
     0
 73
     0
 74
     0
  7

 75
     0
147
1.0
148
0.0
149
0.0
100
AcDbLayout
  1
Model
 70
     1
 71
     0
 10
0.0
 20
0.0
 11
0.0
 21
0.0
 12
0.0
 22
0.0
 32
0.0
 14
0.0
 24
0.0
 34
0.0
 15
420.0
 25
297.0
 35
0.0
146
0.0
 13
0.0
 23
0.0
 33
0.0
 16
1.0
 26
0.0
 36
0.0
 17
0.0
 27
1.0
 37
0.0
 76
     0
330
1F
  0
MLINESTYLE
  5
18
102
{ACAD_REACTORS
330
17
102
}
330
17
100
AcDbMlineStyle
  2
Standard
 70
     0
  3

 62
   256
 51
90.0
 52
90.0
 71
     2
 49
0.5
 62
   256
  6
BYLAYER
 49
-0.5
 62
   256
  6
BYLAYER
  0
ACDBPLACEHOLDER
  5
F
102
{ACAD_REACTORS
330
E
102
}
330
E
  0
ENDSEC
  0
EOF
