  0
SECTION
  2
HEADER
  9
$ACADVER
  1
AC1015
  9
$ACADMAINTVER
 70
     6
  9
$DWGCODEPAGE
  3
DOS932
  9
$INSBASE
 10
0.0
 20
0.0
 30
0.0
  9
$EXTMIN
 10
0.0
 20
0.0
 30
0.0
  9
$EXTMAX
 10
420.0
 20
297.0
 30
0.0
  9
$LIMMIN
 10
0.0
 20
0.0
  9
$LIMMAX
 10
0.0
 20
0.0
  9
$ORTHOMODE
 70
     0
  9
$REGENMODE
 70
     1
  9
$FILLMODE
 70
     1
  9
$QTEXTMODE
 70
     0
  9
$MIRRTEXT
 70
     1
  9
$LTSCALE
 40
1.0
  9
$ATTMODE
 70
     1
  9
$TEXTSIZE
 40
3.5
  9
$TRACEWID
 40
1.0
  9
$TEXTSTYLE
  7
Standard
  9
$CLAYER
  8
0
  9
$CELTYPE
  6
ByLayer
  9
$CECOLOR
 62
   256
  9
$CELTSCALE
 40
1.0
  9
$DISPSILH
 70
     0
  9
$DIMSCALE
 40
1.0
  9
$DIMASZ
 40
3.0
  9
$DIMEXO
 40
1.0
  9
$DIMDLI
 40
3.75
  9
$DIMRND
 40
0.0
  9
$DIMDLE
 40
0.0
  9
$DIMEXE
 40
1.0
  9
$DIMTP
 40
0.0
  9
$DIMTM
 40
0.0
  9
$DIMTXT
 40
3.2
  9
$DIMCEN
 40
2.5
  9
$DIMTSZ
 40
0.0
  9
$DIMTOL
 70
     0
  9
$DIMLIM
 70
     0
  9
$DIMTIH
 70
     1
  9
$DIMTOH
 70
     1
  9
$DIMSE1
 70
     0
  9
$DIMSE2
 70
     0
  9
$DIMTAD
 70
     1
  9
$DIMZIN
 70
     1
  9
$DIMBLK
  1

  9
$DIMASO
 70
     1
  9
$DIMSHO
 70
     1
  9
$DIMPOST
  1

  9
$DIMAPOST
  1

  9
$DIMALT
 70
     0
  9
$DIMALTD
 70
     3
  9
$DIMALTF
 40
0.0393700787
  9
$DIMLFAC
 40
1.0
  9
$DIMTOFL
 70
     1
  9
$DIMTVP
 40
0.0
  9
$DIMTIX
 70
     0
  9
$DIMSOXD
 70
     0
  9
$DIMSAH
 70
     0
  9
$DIMBLK1
  1

  9
$DIMBLK2
  1

  9
$DIMSTYLE
  2
ISO-25
  9
$DIMCLRD
 70
     0
  9
$DIMCLRE
 70
     0
  9
$DIMCLRT
 70
     0
  9
$DIMTFAC
 40
1.0
  9
$DIMGAP
 40
1.524
  9
$DIMJUST
 70
     0
  9
$DIMSD1
 70
     0
  9
$DIMSD2
 70
     0
  9
$DIMTOLJ
 70
     0
  9
$DIMTZIN
 70
     1
  9
$DIMALTZ
 70
     0
  9
$DIMALTTZ
 70
     0
  9
$DIMUPT
 70
     0
  9
$DIMDEC
 70
     2
  9
$DIMTDEC
 70
     2
  9
$DIMALTU
 70
     2
  9
$DIMALTTD
 70
     3
  9
$DIMTXSTY
  7
Standard
  9
$DIMAUNIT
 70
     0
  9
$DIMADEC
 70
     0
  9
$DIMALTRND
 40
0.0
  9
$DIMAZIN
 70
     0
  9
$DIMDSEP
 70
    44
  9
$DIMATFIT
 70
     3
  9
$DIMFRAC
 70
     0
  9
$DIMLDRBLK
  1

  9
$DIMLUNIT
 70
     2
  9
$DIMLWD
 70
    -2
  9
$DIMLWE
 70
    -2
  9
$DIMTMOVE
 70
     0
  9
$LUNITS
 70
     2
  9
$LUPREC
 70
     4
  9
$SKETCHINC
 40
1.0
  9
$FILLETRAD
 40
10.0
  9
$AUNITS
 70
     0
  9
$AUPREC
 70
     0
  9
$MENU
  1
.
  9
$ELEVATION
 40
0.0
  9
$PELEVATION
 40
0.0
  9
$THICKNESS
 40
0.0
  9
$LIMCHECK
 70
     0
  9
$CHAMFERA
 40
10.0
  9
$CHAMFERB
 40
10.0
  9
$CHAMFERC
 40
20.0
  9
$CHAMFERD
 40
0.0
  9
$SKPOLY
 70
     0
  9
$TDCREATE
 40
2454307.693333333
  9
$TDUCREATE
 40
2454307.318333333
  9
$TDUPDATE
 40
2454307.693333345
  9
$TDUUPDATE
 40
2454307.318333345
  9
$TDINDWG
 40
0.0000000116
  9
$TDUSRTIMER
 40
0.0000000116
  9
$USRTIMER
 70
     1
  9
$ANGBASE
 50
0.0
  9
$ANGDIR
 70
     0
  9
$PDMODE
 70
     0
  9
$PDSIZE
 40
-1.0
  9
$PLINEWID
 40
0.0
  9
$SPLFRAME
 70
     0
  9
$SPLINETYPE
 70
     6
  9
$SPLINESEGS
 70
     8
  9
$HANDSEED
  5
2FD
  9
$SURFTAB1
 70
     6
  9
$SURFTAB2
 70
     6
  9
$SURFTYPE
 70
     6
  9
$SURFU
 70
     6
  9
$SURFV
 70
     6
  9
$UCSBASE
  2

  9
$UCSNAME
  2

  9
$UCSORG
 10
0.0
 20
0.0
 30
0.0
  9
$UCSXDIR
 10
1.0
 20
0.0
 30
0.0
  9
$UCSYDIR
 10
0.0
 20
1.0
 30
0.0
  9
$UCSORTHOREF
  2

  9
$UCSORTHOVIEW
 70
     0
  9
$UCSORGTOP
 10
0.0
 20
0.0
 30
0.0
  9
$UCSORGBOTTOM
 10
0.0
 20
0.0
 30
0.0
  9
$UCSORGLEFT
 10
0.0
 20
0.0
 30
0.0
  9
$UCSORGRIGHT
 10
0.0
 20
0.0
 30
0.0
  9
$UCSORGFRONT
 10
0.0
 20
0.0
 30
0.0
  9
$UCSORGBACK
 10
0.0
 20
0.0
 30
0.0
  9
$PUCSBASE
  2

  9
$PUCSNAME
  2

  9
$PUCSORG
 10
0.0
 20
0.0
 30
0.0
  9
$PUCSXDIR
 10
1.0
 20
0.0
 30
0.0
  9
$PUCSYDIR
 10
0.0
 20
1.0
 30
0.0
  9
$PUCSORTHOREF
  2

  9
$PUCSORTHOVIEW
 70
     0
  9
$PUCSORGTOP
 10
0.0
 20
0.0
 30
0.0
  9
$PUCSORGBOTTOM
 10
0.0
 20
0.0
 30
0.0
  9
$PUCSORGLEFT
 10
0.0
 20
0.0
 30
0.0
  9
$PUCSORGRIGHT
 10
0.0
 20
0.0
 30
0.0
  9
$PUCSORGFRONT
 10
0.0
 20
0.0
 30
0.0
  9
$PUCSORGBACK
 10
0.0
 20
0.0
 30
0.0
  9
$USERI1
 70
     0
  9
$USERI2
 70
     0
  9
$USERI3
 70
     0
  9
$USERI4
 70
     0
  9
$USERI5
 70
     0
  9
$USERR1
 40
0.0
  9
$USERR2
 40
0.0
  9
$USERR3
 40
0.0
  9
$USERR4
 40
0.0
  9
$USERR5
 40
0.0
  9
$WORLDVIEW
 70
     1
  9
$SHADEDGE
 70
     3
  9
$SHADEDIF
 70
    70
  9
$TILEMODE
 70
     1
  9
$MAXACTVP
 70
    64
  9
$PINSBASE
 10
0.0
 20
0.0
 30
0.0
  9
$PLIMCHECK
 70
     0
  9
$PEXTMIN
 10
1.0000000000E+20
 20
1.0000000000E+20
 30
1.0000000000E+20
  9
$PEXTMAX
 10
-1.0000000000E+20
 20
-1.0000000000E+20
 30
-1.0000000000E+20
  9
$PLIMMIN
 10
0.0
 20
0.0
  9
$PLIMMAX
 10
420.0
 20
297.0
  9
$UNITMODE
 70
     0
  9
$VISRETAIN
 70
     1
  9
$PLINEGEN
 70
     0
  9
$PSLTSCALE
 70
     1
  9
$TREEDEPTH
 70
  3020
  9
$CMLSTYLE
  2
Standard
  9
$CMLJUST
 70
     0
  9
$CMLSCALE
 40
20.0
  9
$PROXYGRAPHICS
 70
     1
  9
$MEASUREMENT
 70
     1
  9
$CELWEIGHT
370
    -1
  9
$ENDCAPS
280
     0
  9
$JOINSTYLE
280
     0
  9
$LWDISPLAY
290
     1
  9
$INSUNITS
 70
     4
  9
$HYPERLINKBASE
  1

  9
$STYLESHEET
  1

  9
$XEDIT
290
     1
  9
$CEPSNTYPE
380
     0
  9
$PSTYLEMODE
290
     1
  9
$FINGERPRINTGUID
  2
{8A80FED9-B94C-44A2-A8AF-FBF50A05DDF0}
  9
$VERSIONGUID
  2
{FAEB1C32-E019-11D5-929B-00C0DF256EC4}
  9
$EXTNAMES
290
     1
  9
$PSVPSCALE
 40
0.0
  9
$OLESTARTUP
290
     0
  0
ENDSEC
  0
SECTION
  2
CLASSES
  0
CLASS
  1
ACDBDICTIONARYWDFLT
  2
AcDbDictionaryWithDefault
  3
ObjectDBX Classes
 90
        0
280
     0
281
     0
  0
CLASS
  1
ACDBPLACEHOLDER
  2
AcDbPlaceHolder
  3
ObjectDBX Classes
 90
        0
280
     0
281
     0
  0
CLASS
  1
LAYOUT
  2
AcDbLayout
  3
ObjectDBX Classes
 90
        0
280
     0
281
     0
  0
ENDSEC
  0
SECTION
  2
TABLES
  0
TABLE
  2
VPORT
  5
8
330
0
100
AcDbSymbolTable
 70
     1
  0
VPORT
  5
29
330
8
100
AcDbSymbolTableRecord
100
AcDbViewportTableRecord
  2
*Active
 70
     0
 10
0.0
 20
0.0
 11
1.0
 21
1.0
 12
210.0
 22
148.5
 13
0.0
 23
0.0
 14
10.0
 24
10.0
 15
10.0
 25
10.0
 16
0.0
 26
0.0
 36
1.0
 17
0.0
 27
0.0
 37
0.0
 40
297.0
 41
1.9729729729
 42
50.0
 43
0.0
 44
0.0
 50
0.0
 51
0.0
 71
     0
 72
  2000
 73
     1
 74
     3
 75
     0
 76
     0
 77
     0
 78
     0
281
     0
 65
     1
110
0.0
120
0.0
130
0.0
111
1.0
121
0.0
131
0.0
112
0.0
122
1.0
132
0.0
 79
     0
146
0.0
  0
ENDTAB
  0
TABLE
  2
LTYPE
  5
5
330
0
100
AcDbSymbolTable
 70
     6
  0
LTYPE
  5
14
330
5
100
AcDbSymbolTableRecord
100
AcDbLinetypeTableRecord
  2
ByBlock
 70
     0
  3

 72
    65
 73
     0
 40
0.0
  0
LTYPE
  5
15
330
5
100
AcDbSymbolTableRecord
100
AcDbLinetypeTableRecord
  2
ByLayer
 70
     0
  3

 72
    65
 73
     0
 40
0.0
  0
LTYPE
  5
16
330
5
100
AcDbSymbolTableRecord
100
AcDbLinetypeTableRecord
  2
Continuous
 70
     0
  3
Solid line
 72
    65
 73
     0
 40
0.0
  0
LTYPE
  5
2A
330
5
100
AcDbSymbolTableRecord
100
AcDbLinetypeTableRecord
  2
HIDDEN
 70
     0
  3
Hidden __ __ __ __ __ __ __ __ __ __ __ __ __ __
 72
    65
 73
     2
 40
1.905
 49
1.27
 74
     0
 49
-0.635
 74
     0
  0
LTYPE
  5
2B
330
5
100
AcDbSymbolTableRecord
100
AcDbLinetypeTableRecord
  2
PHANTOM
 70
     0
  3
Phantom ______  __  __  ______  __  __  ______
 72
    65
 73
     6
 40
12.7
 49
6.35
 74
     0
 49
-1.27
 74
     0
 49
1.27
 74
     0
 49
-1.27
 74
     0
 49
1.27
 74
     0
 49
-1.27
 74
     0
  0
LTYPE
  5
2C
330
5
100
AcDbSymbolTableRecord
100
AcDbLinetypeTableRecord
  2
CENTER
 70
     0
  3
Center ____ _ ____ _ ____ _ ____ _ ____ _ ____
 72
    65
 73
     4
 40
10.16
 49
6.35
 74
     0
 49
-1.27
 74
     0
 49
1.27
 74
     0
 49
-1.27
 74
     0
  0
LTYPE
  5
2D
330
5
100
AcDbSymbolTableRecord
100
AcDbLinetypeTableRecord
  2
CENTERX2
 70
     0
  3
Center (2x) ________  __  ________  __  _____
 72
    65
 73
     4
 40
20.32
 49
12.7
 74
     0
 49
-2.54
 74
     0
 49
2.54
 74
     0
 49
-2.54
 74
     0
  0
LTYPE
  5
2E
330
5
100
AcDbSymbolTableRecord
100
AcDbLinetypeTableRecord
  2
DOT2
 70
     0
  3
Dot (.5x) ........................................
 72
    65
 73
     2
 40
0.635
 49
0.0
 74
     0
 49
-0.635
 74
     0
  0
ENDTAB
  0
TABLE
  2
LAYER
  5
2
330
0
100
AcDbSymbolTable
 70
     2
  0
LAYER
  5
10
330
2
100
AcDbSymbolTableRecord
100
AcDbLayerTableRecord
  2
0
 70
     0
 62
     7
  6
Continuous
370
    -3
390
F
  0
LAYER
  5
2F
330
2
100
AcDbSymbolTableRecord
100
AcDbLayerTableRecord
  2
SLD-0
 70
     0
 62
   179
  6
Continuous
370
     0
390
F
  0
ENDTAB
  0
TABLE
  2
STYLE
  5
3
330
0
100
AcDbSymbolTable
 70
    14
  0
STYLE
  5
11
330
3
100
AcDbSymbolTableRecord
100
AcDbTextStyleTableRecord
  2
Standard
 70
     0
 40
0.0
 41
1.0
 50
0.0
 71
     0
 42
2.5
  3
txt
  4
bigfont
  0
STYLE
  5
38
330
3
100
AcDbSymbolTableRecord
100
AcDbTextStyleTableRecord
  2
SLDTEXTSTYLE0
 70
     0
 40
0.0
 41
0.6244081126
 50
0.0
 71
     0
 42
0.2
  3
TXT
  4
bigfont
  0
STYLE
  5
3A
330
3
100
AcDbSymbolTableRecord
100
AcDbTextStyleTableRecord
  2
SLDTEXTSTYLE1
 70
     0
 40
0.0
 41
0.6230481821
 50
0.0
 71
     0
 42
0.2
  3
TXT
  4
bigfont
  0
STYLE
  5
44
330
3
100
AcDbSymbolTableRecord
100
AcDbTextStyleTableRecord
  2
SLDTEXTSTYLE2
 70
     0
 40
0.0
 41
0.6222509779
 50
0.0
 71
     0
 42
0.2
  3
TXT
  4
bigfont
  0
STYLE
  5
46
330
3
100
AcDbSymbolTableRecord
100
AcDbTextStyleTableRecord
  2
SLDTEXTSTYLE3
 70
     0
 40
0.0
 41
0.6255252021
 50
0.0
 71
     0
 42
0.2
  3
TXT
  4
bigfont
  0
STYLE
  5
50
330
3
100
AcDbSymbolTableRecord
100
AcDbTextStyleTableRecord
  2
SLDTEXTSTYLE4
 70
     0
 40
0.0
 41
0.6272516084
 50
0.0
 71
     0
 42
0.2
  3
TXT
  4
bigfont
  0
STYLE
  5
52
330
3
100
AcDbSymbolTableRecord
100
AcDbTextStyleTableRecord
  2
SLDTEXTSTYLE5
 70
     0
 40
0.0
 41
0.6302728232
 50
0.0
 71
     0
 42
0.2
  3
TXT
  4
bigfont
  0
STYLE
  5
5D
330
3
100
AcDbSymbolTableRecord
100
AcDbTextStyleTableRecord
  2
SLDTEXTSTYLE6
 70
     0
 40
0.0
 41
0.6212091789
 50
0.0
 71
     0
 42
0.2
  3
TXT
  4
bigfont
  0
STYLE
  5
62
330
3
100
AcDbSymbolTableRecord
100
AcDbTextStyleTableRecord
  2
SLDTEXTSTYLE7
 70
     0
 40
0.0
 41
0.6217270979
 50
0.0
 71
     0
 42
0.2
  3
TXT
  4
bigfont
  0
STYLE
  5
2ED
330
3
100
AcDbSymbolTableRecord
100
AcDbTextStyleTableRecord
  2
SLDTEXTSTYLE8
 70
     0
 40
0.0
 41
0.6230480937
 50
0.0
 71
     0
 42
0.2
  3
TXT
  4
bigfont
  0
STYLE
  5
2EF
330
3
100
AcDbSymbolTableRecord
100
AcDbTextStyleTableRecord
  2
SLDTEXTSTYLE9
 70
     0
 40
0.0
 41
0.6226035053
 50
0.0
 71
     0
 42
0.2
  3
TXT
  4
bigfont
  0
STYLE
  5
2F1
330
3
100
AcDbSymbolTableRecord
100
AcDbTextStyleTableRecord
  2
SLDTEXTSTYLE10
 70
     0
 40
0.0
 41
0.6255251211
 50
0.0
 71
     0
 42
0.2
  3
TXT
  4
bigfont
  0
STYLE
  5
2F3
330
3
100
AcDbSymbolTableRecord
100
AcDbTextStyleTableRecord
  2
SLDTEXTSTYLE11
 70
     0
 40
0.0
 41
0.6244080316
 50
0.0
 71
     0
 42
0.2
  3
TXT
  4
bigfont
  0
STYLE
  5
2F5
330
3
100
AcDbSymbolTableRecord
100
AcDbTextStyleTableRecord
  2
SLDTEXTSTYLE12
 70
     0
 40
0.0
 41
0.6215272
 50
0.0
 71
     0
 42
0.2
  3
TXT
  4
bigfont
  0
ENDTAB
  0
TABLE
  2
VIEW
  5
6
330
0
100
AcDbSymbolTable
 70
     0
  0
ENDTAB
  0
TABLE
  2
UCS
  5
7
330
0
100
AcDbSymbolTable
 70
     0
  0
ENDTAB
  0
TABLE
  2
APPID
  5
9
330
0
100
AcDbSymbolTable
 70
     1
  0
APPID
  5
12
330
9
100
AcDbSymbolTableRecord
100
AcDbRegAppTableRecord
  2
ACAD
 70
     0
  0
ENDTAB
  0
TABLE
  2
DIMSTYLE
  5
A
330
0
100
AcDbSymbolTable
 70
     1
100
AcDbDimStyleTable
  0
DIMSTYLE
105
27
330
A
100
AcDbSymbolTableRecord
100
AcDbDimStyleTableRecord
  2
ISO-25
 70
     0
 41
2.5
 42
0.625
 43
3.75
 44
1.25
 73
     0
 74
     0
 77
     1
 78
     8
140
2.5
141
2.5
143
0.0393700787
147
0.625
171
     3
172
     1
271
     2
272
     2
274
     3
278
    44
283
     0
284
     8
340
11
  0
ENDTAB
  0
TABLE
  2
BLOCK_RECORD
  5
1
330
0
100
AcDbSymbolTable
 70
     8
  0
BLOCK_RECORD
  5
1F
330
1
100
AcDbSymbolTableRecord
100
AcDbBlockTableRecord
  2
*Model_Space
340
22
  0
BLOCK_RECORD
  5
1B
330
1
100
AcDbSymbolTableRecord
100
AcDbBlockTableRecord
  2
*Paper_Space
340
1E
  0
BLOCK_RECORD
  5
23
330
1
100
AcDbSymbolTableRecord
100
AcDbBlockTableRecord
  2
*Paper_Space0
340
26
  0
BLOCK_RECORD
  5
30
330
1
100
AcDbSymbolTableRecord
100
AcDbBlockTableRecord
  2
KOZU0001
340
0
102
{BLKREFS
331
2F7
102
}
  0
BLOCK_RECORD
  5
3C
330
1
100
AcDbSymbolTableRecord
100
AcDbBlockTableRecord
  2
KOZU0002
340
0
102
{BLKREFS
331
2F8
102
}
  0
BLOCK_RECORD
  5
48
330
1
100
AcDbSymbolTableRecord
100
AcDbBlockTableRecord
  2
KOZU0003
340
0
102
{BLKREFS
331
2F9
102
}
  0
BLOCK_RECORD
  5
54
330
1
100
AcDbSymbolTableRecord
100
AcDbBlockTableRecord
  2
KOZU0004
340
0
102
{BLKREFS
331
2FA
102
}
  0
BLOCK_RECORD
  5
5F
330
1
100
AcDbSymbolTableRecord
100
AcDbBlockTableRecord
  2
SW_NOTE_0
340
0
102
{BLKREFS
331
66
102
}
  0
BLOCK_RECORD
  5
67
330
1
100
AcDbSymbolTableRecord
100
AcDbBlockTableRecord
  2
KOZU0005
340
0
102
{BLKREFS
331
2FB
102
}
  0
BLOCK_RECORD
  5
71
330
1
100
AcDbSymbolTableRecord
100
AcDbBlockTableRecord
  2
KOZU0006
340
0
102
{BLKREFS
331
2FC
102
}
  0
ENDTAB
  0
ENDSEC
  0
SECTION
  2
BLOCKS
  0
BLOCK
  5
20
330
1F
100
AcDbEntity
  8
0
100
AcDbBlockBegin
  2
*Model_Space
 70
     0
 71
     0
 10
0.0
 20
0.0
 30
0.0
  3
*Model_Space
  1

  0
ENDBLK
  5
21
330
1F
100
AcDbEntity
  8
0
100
AcDbBlockEnd
  0
BLOCK
  5
1C
330
1B
100
AcDbEntity
 67
     1
  8
0
100
AcDbBlockBegin
  2
*Paper_Space
 70
     0
 71
     0
 10
0.0
 20
0.0
 30
0.0
  3
*Paper_Space
  1

  0
ENDBLK
  5
1D
330
1B
100
AcDbEntity
 67
     1
  8
0
100
AcDbBlockEnd
  0
BLOCK
  5
24
330
23
100
AcDbEntity
  8
0
100
AcDbBlockBegin
  2
*Paper_Space0
 70
     0
 71
     0
 10
0.0
 20
0.0
 30
0.0
  3
*Paper_Space0
  1

  0
ENDBLK
  5
25
330
23
100
AcDbEntity
  8
0
100
AcDbBlockEnd
  0
BLOCK
  5
31
330
30
100
AcDbEntity
  8
0
100
AcDbBlockBegin
  2
KOZU0001
 70
     0
 71
     0
 10
0.0
 20
0.0
 30
0.0
  3
KOZU0001
  1

  0
LINE
  5
33
330
30
100
AcDbEntity
  8
SLD-0
  6
Continuous
 62
   179
100
AcDbLine
 10
0.0
 20
0.0
 30
0.0
 11
9.5405604
 21
-17.542449
 31
0.0
  0
LINE
  5
34
330
30
100
AcDbEntity
  8
SLD-0
  6
Continuous
 62
   179
100
AcDbLine
 10
0.0
 20
0.0
 30
0.0
 11
2.3117931
 21
-2.1576868
 31
0.0
  0
LINE
  5
35
330
30
100
AcDbEntity
  8
SLD-0
  6
Continuous
 62
   179
100
AcDbLine
 10
0.0
 20
0.0
 30
0.0
 11
0.55482237
 21
-3.1132253
 31
0.0
  0
LINE
  5
36
330
30
100
AcDbEntity
  8
SLD-0
  6
Continuous
 62
   179
100
AcDbLine
 10
0.0
 20
0.0
 30
0.0
 11
9.5405604
 21
-17.542449
 31
0.0
  0
LINE
  5
37
330
30
100
AcDbEntity
  8
SLD-0
  6
Continuous
 62
   179
100
AcDbLine
 10
9.5405604
 20
-17.542449
 30
0.0
 11
39.969128
 21
-17.54245
 31
0.0
  0
MTEXT
  5
39
330
30
100
AcDbEntity
  8
SLD-0
100
AcDbMText
 10
13.455126
 20
-14.0877304631
 30
0.0
 40
3.2
 41
0.0
 71
     1
 72
     1
  1
２ｘ２－Ｍ５
  7
SLDTEXTSTYLE0
 73
     1
 44
1.0
  0
MTEXT
  5
3B
330
30
100
AcDbEntity
  8
SLD-0
100
AcDbMText
 10
13.455126
 20
-19.7037304631
 30
0.0
 40
3.2
 41
0.0
 71
     1
 72
     1
  1
配管ネジ（両側）
  7
SLDTEXTSTYLE1
 73
     1
 44
1.0
  0
ENDBLK
  5
32
330
30
100
AcDbEntity
  8
0
100
AcDbBlockEnd
  0
BLOCK
  5
3D
330
3C
100
AcDbEntity
  8
0
100
AcDbBlockBegin
  2
KOZU0002
 70
     0
 71
     0
 10
0.0
 20
0.0
 30
0.0
  3
KOZU0002
  1

  0
LINE
  5
3F
330
3C
100
AcDbEntity
  8
SLD-0
  6
Continuous
 62
   179
100
AcDbLine
 10
0.0
 20
0.0
 30
0.0
 11
15.701821
 21
-32.07867
 31
0.0
  0
LINE
  5
40
330
3C
100
AcDbEntity
  8
SLD-0
  6
Continuous
 62
   179
100
AcDbLine
 10
0.0
 20
0.0
 30
0.0
 11
2.2170879
 21
-2.2548883
 31
0.0
  0
LINE
  5
41
330
3C
100
AcDbEntity
  8
SLD-0
  6
Continuous
 62
   179
100
AcDbLine
 10
0.0
 20
0.0
 30
0.0
 11
0.42073731
 21
-3.1341633
 31
0.0
  0
LINE
  5
42
330
3C
100
AcDbEntity
  8
SLD-0
  6
Continuous
 62
   179
100
AcDbLine
 10
0.0
 20
0.0
 30
0.0
 11
15.701821
 21
-32.07867
 31
0.0
  0
LINE
  5
43
330
3C
100
AcDbEntity
  8
SLD-0
  6
Continuous
 62
   179
100
AcDbLine
 10
15.701821
 20
-32.07867
 30
0.0
 11
51.997243
 21
-32.078673
 31
0.0
  0
MTEXT
  5
45
330
3C
100
AcDbEntity
  8
SLD-0
100
AcDbMText
 10
19.083255
 20
-28.6239534631
 30
0.0
 40
3.2
 41
0.0
 71
     1
 72
     1
  1
有接点オートスイッチ
  7
SLDTEXTSTYLE2
 73
     1
 44
1.0
  0
MTEXT
  5
47
330
3C
100
AcDbEntity
  8
SLD-0
100
AcDbMText
 10
19.083255
 20
-34.2399534631
 30
0.0
 40
3.2
 41
0.0
 71
     1
 72
     1
  1
（別売品）
  7
SLDTEXTSTYLE3
 73
     1
 44
1.0
  0
ENDBLK
  5
3E
330
3C
100
AcDbEntity
  8
0
100
AcDbBlockEnd
  0
BLOCK
  5
49
330
48
100
AcDbEntity
  8
0
100
AcDbBlockBegin
  2
KOZU0003
 70
     0
 71
     0
 10
0.0
 20
0.0
 30
0.0
  3
KOZU0003
  1

  0
LINE
  5
4B
330
48
100
AcDbEntity
  8
SLD-0
  6
Continuous
 62
   179
100
AcDbLine
 10
0.0
 20
0.0
 30
0.0
 11
20.902623
 21
44.955581
 31
0.0
  0
LINE
  5
4C
330
48
100
AcDbEntity
  8
SLD-0
  6
Continuous
 62
   179
100
AcDbLine
 10
0.0
 20
0.0
 30
0.0
 11
0.35807183
 21
3.1419396
 31
0.0
  0
LINE
  5
4D
330
48
100
AcDbEntity
  8
SLD-0
  6
Continuous
 62
   179
100
AcDbLine
 10
0.0
 20
0.0
 30
0.0
 11
2.1716212
 21
2.2987086
 31
0.0
  0
LINE
  5
4E
330
48
100
AcDbEntity
  8
SLD-0
  6
Continuous
 62
   179
100
AcDbLine
 10
0.0
 20
0.0
 30
0.0
 11
20.902623
 21
44.955581
 31
0.0
  0
LINE
  5
4F
330
48
100
AcDbEntity
  8
SLD-0
  6
Continuous
 62
   179
100
AcDbLine
 10
20.902617
 20
44.955571
 30
0.0
 11
37.949186
 21
44.955571
 31
0.0
  0
MTEXT
  5
51
330
48
100
AcDbEntity
  8
SLD-0
100
AcDbMText
 10
24.235196
 20
48.4102905369
 30
0.0
 40
3.2
 41
0.0
 71
     1
 72
     1
  1
２－Ｍ５
  7
SLDTEXTSTYLE4
 73
     1
 44
1.0
  0
MTEXT
  5
53
330
48
100
AcDbEntity
  8
SLD-0
100
AcDbMText
 10
24.235196
 20
42.7942895369
 30
0.0
 40
3.2
 41
0.0
 71
     1
 72
     1
  1
配管用
  7
SLDTEXTSTYLE5
 73
     1
 44
1.0
  0
ENDBLK
  5
4A
330
48
100
AcDbEntity
  8
0
100
AcDbBlockEnd
  0
BLOCK
  5
55
330
54
100
AcDbEntity
  8
0
100
AcDbBlockBegin
  2
KOZU0004
 70
     0
 71
     0
 10
0.0
 20
0.0
 30
0.0
  3
KOZU0004
  1

  0
LINE
  5
57
330
54
100
AcDbEntity
  8
SLD-0
  6
Continuous
 62
   179
100
AcDbLine
 10
0.0
 20
0.0
 30
0.0
 11
18.660653
 21
41.97688
 31
0.0
  0
LINE
  5
58
330
54
100
AcDbEntity
  8
SLD-0
  6
Continuous
 62
   179
100
AcDbLine
 10
0.0
 20
0.0
 30
0.0
 11
0.30487069
 21
3.1475472
 31
0.0
  0
LINE
  5
59
330
54
100
AcDbEntity
  8
SLD-0
  6
Continuous
 62
   179
100
AcDbLine
 10
0.0
 20
0.0
 30
0.0
 11
2.1324249
 21
2.3351154
 31
0.0
  0
LINE
  5
5A
330
54
100
AcDbEntity
  8
SLD-0
  6
Continuous
 62
   179
100
AcDbLine
 10
0.0
 20
0.0
 30
0.0
 11
18.660653
 21
41.97688
 31
0.0
  0
LINE
  5
5B
330
54
100
AcDbEntity
  8
SLD-0
  6
Continuous
 62
   179
100
AcDbLine
 10
18.660653
 20
41.97688
 30
0.0
 11
70.687348
 21
41.976882
 31
0.0
  0
MTEXT
  5
5C
330
54
100
AcDbEntity
  8
SLD-0
100
AcDbMText
 10
21.773346
 20
50.2315985369
 30
0.0
 40
3.2
 41
0.0
 71
     1
 72
     1
  1
裏ヨリ
  7
SLDTEXTSTYLE5
 73
     1
 44
1.0
  0
MTEXT
  5
5E
330
54
100
AcDbEntity
  8
SLD-0
100
AcDbMText
 10
21.773346
 20
45.4315985369
 30
0.0
 40
3.2
 41
0.0
 71
     1
 72
     1
  1
２－Ｍ８ネジ深１５（下穴貫通）
  7
SLDTEXTSTYLE6
 73
     1
 44
1.0
  0
INSERT
  5
66
330
54
100
AcDbEntity
  8
SLD-0
 62
     7
100
AcDbBlockReference
  2
SW_NOTE_0
 10
21.773346
 20
35.5253235537
 30
0.0
  0
ENDBLK
  5
56
330
54
100
AcDbEntity
  8
0
100
AcDbBlockEnd
  0
BLOCK
  5
60
330
5F
100
AcDbEntity
  8
0
100
AcDbBlockBegin
  2
SW_NOTE_0
 70
     0
 71
     0
 10
0.0
 20
0.0
 30
0.0
  3
SW_NOTE_0
  1

  0
MTEXT
  5
63
330
5F
100
AcDbEntity
  8
SLD-0
100
AcDbMText
 10
0.0
 20
4.2902749832
 30
0.0
 40
3.2
 41
0.0
 71
     1
 72
     1
  1
２－
  7
SLDTEXTSTYLE7
 73
     1
 44
1.0
  0
MTEXT
  5
64
330
5F
100
AcDbEntity
  8
SLD-0
100
AcDbMText
 10
10.6311105192
 20
4.2902749832
 30
0.0
 40
3.2
 41
0.0
 71
     1
 72
     1
  1
%%c
  7
SLDTEXTSTYLE7
 73
     1
 44
1.0
  0
MTEXT
  5
65
330
5F
100
AcDbEntity
  8
SLD-0
100
AcDbMText
 10
15.8159993589
 20
4.2902749832
 30
0.0
 40
3.2
 41
0.0
 71
     1
 72
     1
  1
１１ザグリ深６．５
  7
SLDTEXTSTYLE7
 73
     1
 44
1.0
  0
ENDBLK
  5
61
330
5F
100
AcDbEntity
  8
0
100
AcDbBlockEnd
  0
BLOCK
  5
68
330
67
100
AcDbEntity
  8
0
100
AcDbBlockBegin
  2
KOZU0005
 70
     0
 71
     0
 10
0.0
 20
0.0
 30
0.0
  3
KOZU0005
  1

  0
LINE
  5
6A
330
67
100
AcDbEntity
  8
SLD-0
  6
Continuous
 62
   179
100
AcDbLine
 10
0.0
 20
0.0
 30
0.0
 11
-6.2827062
 21
17.740811
 31
0.0
  0
LINE
  5
6B
330
67
100
AcDbEntity
  8
SLD-0
  6
Continuous
 62
   179
100
AcDbLine
 10
0.0
 20
0.0
 30
0.0
 11
-1.9441065
 21
2.4940829
 31
0.0
  0
LINE
  5
6C
330
67
100
AcDbEntity
  8
SLD-0
  6
Continuous
 62
   179
100
AcDbLine
 10
0.0
 20
0.0
 30
0.0
 11
-0.058835417
 21
3.1617302
 31
0.0
  0
LINE
  5
6D
330
67
100
AcDbEntity
  8
SLD-0
  6
Continuous
 62
   179
100
AcDbLine
 10
0.0
 20
0.0
 30
0.0
 11
-6.2827062
 21
17.740811
 31
0.0
  0
LINE
  5
6E
330
67
100
AcDbEntity
  8
SLD-0
  6
Continuous
 62
   179
100
AcDbLine
 10
-6.2827028
 20
17.740823
 30
0.0
 11
-24.797107
 21
17.740823
 31
0.0
  0
MTEXT
  5
6F
330
67
100
AcDbEntity
  8
SLD-0
100
AcDbMText
 10
-22.969116
 20
21.1955425369
 30
0.0
 40
3.2
 41
0.0
 71
     1
 72
     1
  1
２－Ｍ５
  7
SLDTEXTSTYLE4
 73
     1
 44
1.0
  0
MTEXT
  5
70
330
67
100
AcDbEntity
  8
SLD-0
100
AcDbMText
 10
-22.969116
 20
15.5795425369
 30
0.0
 40
3.2
 41
0.0
 71
     1
 72
     1
  1
取付用
  7
SLDTEXTSTYLE5
 73
     1
 44
1.0
  0
ENDBLK
  5
69
330
67
100
AcDbEntity
  8
0
100
AcDbBlockEnd
  0
BLOCK
  5
72
330
71
100
AcDbEntity
  8
0
100
AcDbBlockBegin
  2
KOZU0006
 70
     0
 71
     0
 10
0.0
 20
0.0
 30
0.0
  3
KOZU0006
  1

  0
LINE
  5
74
330
71
100
AcDbEntity
  8
SLD-0
  6
Continuous
 62
   179
100
AcDbLine
 10
0.0
 20
0.0
 30
0.0
 11
11.933099
 21
-18.8527
 31
0.0
  0
LINE
  5
75
330
71
100
AcDbEntity
  8
SLD-0
  6
Continuous
 62
   179
100
AcDbLine
 10
0.0
 20
0.0
 30
0.0
 11
2.4494495
 21
-2.0000493
 31
0.0
  0
LINE
  5
76
330
71
100
AcDbEntity
  8
SLD-0
  6
Continuous
 62
   179
100
AcDbLine
 10
0.0
 20
0.0
 30
0.0
 11
0.75953
 21
-3.0697091
 31
0.0
  0
LINE
  5
77
330
71
100
AcDbEntity
  8
SLD-0
  6
Continuous
 62
   179
100
AcDbLine
 10
0.0
 20
0.0
 30
0.0
 11
11.933099
 21
-18.8527
 31
0.0
  0
LINE
  5
78
330
71
100
AcDbEntity
  8
SLD-0
  6
Continuous
 62
   179
100
AcDbLine
 10
11.933112
 20
-18.852708
 30
0.0
 11
28.478584
 21
-18.852708
 31
0.0
  0
MTEXT
  5
79
330
71
100
AcDbEntity
  8
SLD-0
100
AcDbMText
 10
14.764593
 20
-15.3979884631
 30
0.0
 40
3.2
 41
0.0
 71
     1
 72
     1
  1
２－Ｍ５
  7
SLDTEXTSTYLE4
 73
     1
 44
1.0
  0
MTEXT
  5
7A
330
71
100
AcDbEntity
  8
SLD-0
100
AcDbMText
 10
14.764593
 20
-21.0139884631
 30
0.0
 40
3.2
 41
0.0
 71
     1
 72
     1
  1
取付用
  7
SLDTEXTSTYLE5
 73
     1
 44
1.0
  0
ENDBLK
  5
73
330
71
100
AcDbEntity
  8
0
100
AcDbBlockEnd
  0
ENDSEC
  0
SECTION
  2
ENTITIES
  0
LINE
  5
7B
330
1F
100
AcDbEntity
  8
SLD-0
  6
Continuous
 62
   179
100
AcDbLine
 10
289.11224
 20
206.9819
 30
0.0
 11
164.1122
 21
206.9819
 31
0.0
  0
LINE
  5
7C
330
1F
100
AcDbEntity
  8
SLD-0
  6
Continuous
 62
   179
100
AcDbLine
 10
164.6122
 20
99.981895
 30
0.0
 11
288.61221
 21
99.981895
 31
0.0
  0
LINE
  5
7D
330
1F
100
AcDbEntity
  8
SLD-0
  6
Continuous
 62
   179
100
AcDbLine
 10
164.6122
 20
74.981895
 30
0.0
 11
288.61221
 21
74.981895
 31
0.0
  0
LINE
  5
7E
330
1F
100
AcDbEntity
  8
SLD-0
  6
Continuous
 62
   179
100
AcDbLine
 10
164.1122
 20
99.481895
 30
0.0
 11
164.1122
 21
75.481895
 31
0.0
  0
LINE
  5
7F
330
1F
100
AcDbEntity
  8
SLD-0
  6
Continuous
 62
   179
100
AcDbLine
 10
289.11221
 20
99.481895
 30
0.0
 11
289.11221
 21
75.481895
 31
0.0
  0
LINE
  5
80
330
1F
100
AcDbEntity
  8
SLD-0
  6
CENTER
 62
   179
100
AcDbLine
 10
224.1122
 20
101.481895
 30
0.0
 11
224.1122
 21
73.481895
 31
0.0
  0
LINE
  5
81
330
1F
100
AcDbEntity
  8
SLD-0
  6
CENTER
 62
   179
100
AcDbLine
 10
174.1122
 20
101.481895
 30
0.0
 11
174.1122
 21
73.481895
 31
0.0
  0
LINE
  5
82
330
1F
100
AcDbEntity
  8
SLD-0
  6
HIDDEN
 62
   179
100
AcDbLine
 10
220.1122
 20
93.481895
 30
0.0
 11
220.1122
 21
74.981895
 31
0.0
  0
LINE
  5
83
330
1F
100
AcDbEntity
  8
SLD-0
  6
HIDDEN
 62
   179
100
AcDbLine
 10
220.66222
 20
93.481895
 30
0.0
 11
220.66222
 21
74.981895
 31
0.0
  0
LINE
  5
84
330
1F
100
AcDbEntity
  8
SLD-0
  6
HIDDEN
 62
   179
100
AcDbLine
 10
227.56221
 20
93.481895
 30
0.0
 11
227.56221
 21
74.981895
 31
0.0
  0
LINE
  5
85
330
1F
100
AcDbEntity
  8
SLD-0
  6
HIDDEN
 62
   179
100
AcDbLine
 10
228.1122
 20
93.481895
 30
0.0
 11
228.1122
 21
74.981895
 31
0.0
  0
LINE
  5
86
330
1F
100
AcDbEntity
  8
SLD-0
  6
HIDDEN
 62
   179
100
AcDbLine
 10
177.56221
 20
93.481895
 30
0.0
 11
177.56221
 21
74.981895
 31
0.0
  0
LINE
  5
87
330
1F
100
AcDbEntity
  8
SLD-0
  6
HIDDEN
 62
   179
100
AcDbLine
 10
178.1122
 20
93.481895
 30
0.0
 11
178.1122
 21
74.981895
 31
0.0
  0
LINE
  5
88
330
1F
100
AcDbEntity
  8
SLD-0
  6
HIDDEN
 62
   179
100
AcDbLine
 10
170.66219
 20
93.481895
 30
0.0
 11
170.66219
 21
74.981895
 31
0.0
  0
LINE
  5
89
330
1F
100
AcDbEntity
  8
SLD-0
  6
HIDDEN
 62
   179
100
AcDbLine
 10
170.1122
 20
93.481895
 30
0.0
 11
170.1122
 21
74.981895
 31
0.0
  0
LINE
  5
8A
330
1F
100
AcDbEntity
  8
SLD-0
  6
Continuous
 62
   179
100
AcDbLine
 10
164.1122
 20
99.481895
 30
0.0
 11
164.6122
 21
99.981895
 31
0.0
  0
LINE
  5
8B
330
1F
100
AcDbEntity
  8
SLD-0
  6
Continuous
 62
   179
100
AcDbLine
 10
288.61219
 20
99.981914
 30
0.0
 11
289.1122
 21
99.481903
 31
0.0
  0
LINE
  5
8C
330
1F
100
AcDbEntity
  8
SLD-0
  6
Continuous
 62
   179
100
AcDbLine
 10
288.61223
 20
74.981891
 30
0.0
 11
289.11223
 21
75.481891
 31
0.0
  0
LINE
  5
8D
330
1F
100
AcDbEntity
  8
SLD-0
  6
Continuous
 62
   179
100
AcDbLine
 10
164.11222
 20
75.481889
 30
0.0
 11
164.61223
 21
74.981877
 31
0.0
  0
LINE
  5
8E
330
1F
100
AcDbEntity
  8
SLD-0
  6
Continuous
 62
   179
100
AcDbLine
 10
156.1122
 20
98.481895
 30
0.0
 11
156.1122
 21
76.481895
 31
0.0
  0
LINE
  5
8F
330
1F
100
AcDbEntity
  8
SLD-0
  6
Continuous
 62
   179
100
AcDbLine
 10
144.11221
 20
98.481895
 30
0.0
 11
144.11221
 21
76.481895
 31
0.0
  0
LINE
  5
90
330
1F
100
AcDbEntity
  8
SLD-0
  6
Continuous
 62
   179
100
AcDbLine
 10
156.1122
 20
181.48187
 30
0.0
 11
161.1122
 21
181.48187
 31
0.0
  0
LINE
  5
91
330
1F
100
AcDbEntity
  8
SLD-0
  6
HIDDEN
 62
   179
100
AcDbLine
 10
144.11221
 20
84.981895
 30
0.0
 11
156.1122
 21
84.981895
 31
0.0
  0
LINE
  5
92
330
1F
100
AcDbEntity
  8
SLD-0
  6
HIDDEN
 62
   179
100
AcDbLine
 10
144.11221
 20
85.381889
 30
0.0
 11
156.1122
 21
85.381889
 31
0.0
  0
LINE
  5
93
330
1F
100
AcDbEntity
  8
SLD-0
  6
HIDDEN
 62
   179
100
AcDbLine
 10
148.01219
 20
98.481895
 30
0.0
 11
148.01219
 21
76.481895
 31
0.0
  0
LINE
  5
94
330
1F
100
AcDbEntity
  8
SLD-0
  6
HIDDEN
 62
   179
100
AcDbLine
 10
147.6122
 20
98.481895
 30
0.0
 11
147.6122
 21
76.481895
 31
0.0
  0
LINE
  5
95
330
1F
100
AcDbEntity
  8
SLD-0
  6
Continuous
 62
   179
100
AcDbLine
 10
349.465773
 20
158.48185
 30
0.0
 11
348.465772
 21
157.48185
 31
0.0
  0
LINE
  5
96
330
1F
100
AcDbEntity
  8
SLD-0
  6
Continuous
 62
   179
100
AcDbLine
 10
324.465767
 20
180.78188
 30
0.0
 11
324.465767
 21
179.68187
 31
0.0
  0
LINE
  5
97
330
1F
100
AcDbEntity
  8
SLD-0
  6
Continuous
 62
   179
100
AcDbLine
 10
324.665779
 20
205.48187
 30
0.0
 11
324.765755
 21
205.48187
 31
0.0
  0
LINE
  5
98
330
1F
100
AcDbEntity
  8
SLD-0
  6
Continuous
 62
   179
100
AcDbLine
 10
324.665779
 20
171.98187
 30
0.0
 11
324.765755
 21
171.98187
 31
0.0
  0
LINE
  5
99
330
1F
100
AcDbEntity
  8
SLD-0
  6
Continuous
 62
   179
100
AcDbLine
 10
324.665779
 20
176.48187
 30
0.0
 11
324.765755
 21
176.48187
 31
0.0
  0
LINE
  5
9A
330
1F
100
AcDbEntity
  8
SLD-0
  6
Continuous
 62
   179
100
AcDbLine
 10
324.465767
 20
177.78188
 30
0.0
 11
324.465767
 21
176.68187
 31
0.0
  0
LINE
  5
9B
330
1F
100
AcDbEntity
  8
SLD-0
  6
HIDDEN
 62
   179
100
AcDbLine
 10
330.965767
 20
196.48187
 30
0.0
 11
349.465767
 21
196.48187
 31
0.0
  0
LINE
  5
9C
330
1F
100
AcDbEntity
  8
SLD-0
  6
HIDDEN
 62
   179
100
AcDbLine
 10
324.465767
 20
186.98187
 30
0.0
 11
330.965767
 21
186.98187
 31
0.0
  0
LINE
  5
9D
330
1F
100
AcDbEntity
  8
SLD-0
  6
HIDDEN
 62
   179
100
AcDbLine
 10
330.965767
 20
195.93187
 30
0.0
 11
349.465767
 21
195.93187
 31
0.0
  0
LINE
  5
9E
330
1F
100
AcDbEntity
  8
SLD-0
  6
HIDDEN
 62
   179
100
AcDbLine
 10
330.965767
 20
188.48187
 30
0.0
 11
349.465767
 21
188.48187
 31
0.0
  0
LINE
  5
9F
330
1F
100
AcDbEntity
  8
SLD-0
  6
HIDDEN
 62
   179
100
AcDbLine
 10
324.465767
 20
197.98187
 30
0.0
 11
330.965767
 21
197.98187
 31
0.0
  0
LINE
  5
A0
330
1F
100
AcDbEntity
  8
SLD-0
  6
HIDDEN
 62
   179
100
AcDbLine
 10
330.965767
 20
189.03188
 30
0.0
 11
349.465767
 21
189.03188
 31
0.0
  0
LINE
  5
A1
330
1F
100
AcDbEntity
  8
SLD-0
  6
Continuous
 62
   179
100
AcDbLine
 10
324.965767
 20
176.28188
 30
0.0
 11
324.965767
 21
175.18187
 31
0.0
  0
LINE
  5
A2
330
1F
100
AcDbEntity
  8
SLD-0
  6
Continuous
 62
   179
100
AcDbLine
 10
324.665779
 20
206.98187
 30
0.0
 11
324.765755
 21
206.98187
 31
0.0
  0
LINE
  5
A3
330
1F
100
AcDbEntity
  8
SLD-0
  6
Continuous
 62
   179
100
AcDbLine
 10
324.665779
 20
203.98187
 30
0.0
 11
324.765755
 21
203.98187
 31
0.0
  0
LINE
  5
A4
330
1F
100
AcDbEntity
  8
SLD-0
  6
Continuous
 62
   179
100
AcDbLine
 10
349.465767
 20
166.43187
 30
0.0
 11
349.465767
 21
218.53188
 31
0.0
  0
LINE
  5
A5
330
1F
100
AcDbEntity
  8
SLD-0
  6
Continuous
 62
   179
100
AcDbLine
 10
324.665779
 20
209.98187
 30
0.0
 11
324.765755
 21
209.98187
 31
0.0
  0
LINE
  5
A6
330
1F
100
AcDbEntity
  8
SLD-0
  6
Continuous
 62
   179
100
AcDbLine
 10
324.665779
 20
179.48187
 30
0.0
 11
324.765755
 21
179.48187
 31
0.0
  0
LINE
  5
A7
330
1F
100
AcDbEntity
  8
SLD-0
  6
Continuous
 62
   179
100
AcDbLine
 10
324.665779
 20
182.48187
 30
0.0
 11
324.765755
 21
182.48187
 31
0.0
  0
LINE
  5
A8
330
1F
100
AcDbEntity
  8
SLD-0
  6
Continuous
 62
   179
100
AcDbLine
 10
346.965767
 20
167.23187
 30
0.0
 11
346.965767
 21
166.43187
 31
0.0
  0
LINE
  5
A9
330
1F
100
AcDbEntity
  8
SLD-0
  6
Continuous
 62
   179
100
AcDbLine
 10
324.665779
 20
202.48187
 30
0.0
 11
324.765755
 21
202.48187
 31
0.0
  0
LINE
  5
AA
330
1F
100
AcDbEntity
  8
SLD-0
  6
Continuous
 62
   179
100
AcDbLine
 10
331.465767
 20
157.48186
 30
0.0
 11
324.465759
 21
164.48187
 31
0.0
  0
LINE
  5
AB
330
1F
100
AcDbEntity
  8
SLD-0
  6
Continuous
 62
   179
100
AcDbLine
 10
324.665779
 20
180.98187
 30
0.0
 11
324.765755
 21
180.98187
 31
0.0
  0
LINE
  5
AC
330
1F
100
AcDbEntity
  8
SLD-0
  6
Continuous
 62
   179
100
AcDbLine
 10
324.665779
 20
174.98187
 30
0.0
 11
324.765755
 21
174.98187
 31
0.0
  0
LINE
  5
AD
330
1F
100
AcDbEntity
  8
SLD-0
  6
Continuous
 62
   179
100
AcDbLine
 10
324.465767
 20
207.18187
 30
0.0
 11
324.465767
 21
208.28188
 31
0.0
  0
LINE
  5
AE
330
1F
100
AcDbEntity
  8
SLD-0
  6
Continuous
 62
   179
100
AcDbLine
 10
324.465767
 20
174.78188
 30
0.0
 11
324.465767
 21
173.68187
 31
0.0
  0
LINE
  5
AF
330
1F
100
AcDbEntity
  8
SLD-0
  6
Continuous
 62
   179
100
AcDbLine
 10
324.965767
 20
182.28188
 30
0.0
 11
324.965767
 21
181.18187
 31
0.0
  0
LINE
  5
B0
330
1F
100
AcDbEntity
  8
SLD-0
  6
Continuous
 62
   179
100
AcDbLine
 10
340.465767
 20
161.13188
 30
0.0
 11
340.465767
 21
165.83186
 31
0.0
  0
LINE
  5
B1
330
1F
100
AcDbEntity
  8
SLD-0
  6
Continuous
 62
   179
100
AcDbLine
 10
340.765755
 20
224.13187
 30
0.0
 11
342.165779
 21
224.13187
 31
0.0
  0
LINE
  5
B2
330
1F
100
AcDbEntity
  8
SLD-0
  6
CENTER
 62
   179
100
AcDbLine
 10
336.965767
 20
154.98187
 30
0.0
 11
336.965767
 21
229.98187
 31
0.0
  0
LINE
  5
B3
330
1F
100
AcDbEntity
  8
SLD-0
  6
Continuous
 62
   179
100
AcDbLine
 10
324.665779
 20
208.48187
 30
0.0
 11
324.765755
 21
208.48187
 31
0.0
  0
LINE
  5
B4
330
1F
100
AcDbEntity
  8
SLD-0
  6
Continuous
 62
   179
100
AcDbLine
 10
324.665779
 20
212.98187
 30
0.0
 11
324.765755
 21
212.98187
 31
0.0
  0
LINE
  5
B5
330
1F
100
AcDbEntity
  8
SLD-0
  6
Continuous
 62
   179
100
AcDbLine
 10
324.465767
 20
182.68187
 30
0.0
 11
324.465767
 21
202.28188
 31
0.0
  0
LINE
  5
B6
330
1F
100
AcDbEntity
  8
SLD-0
  6
Continuous
 62
   179
100
AcDbLine
 10
324.965767
 20
202.68187
 30
0.0
 11
324.965767
 21
203.78188
 31
0.0
  0
LINE
  5
B7
330
1F
100
AcDbEntity
  8
SLD-0
  6
Continuous
 62
   179
100
AcDbLine
 10
324.965767
 20
208.68187
 30
0.0
 11
324.965767
 21
209.78188
 31
0.0
  0
LINE
  5
B8
330
1F
100
AcDbEntity
  8
SLD-0
  6
Continuous
 62
   179
100
AcDbLine
 10
324.465767
 20
210.18187
 30
0.0
 11
324.465767
 21
211.28188
 31
0.0
  0
LINE
  5
B9
330
1F
100
AcDbEntity
  8
SLD-0
  6
Continuous
 62
   179
100
AcDbLine
 10
340.765755
 20
166.13187
 30
0.0
 11
342.165779
 21
166.13187
 31
0.0
  0
LINE
  5
BA
330
1F
100
AcDbEntity
  8
SLD-0
  6
Continuous
 62
   179
100
AcDbLine
 10
342.465767
 20
160.53188
 30
0.0
 11
342.465767
 21
159.73187
 31
0.0
  0
LINE
  5
BB
330
1F
100
AcDbEntity
  8
SLD-0
  6
Continuous
 62
   179
100
AcDbLine
 10
340.765755
 20
160.83188
 30
0.0
 11
342.165779
 21
160.83188
 31
0.0
  0
LINE
  5
BC
330
1F
100
AcDbEntity
  8
SLD-0
  6
Continuous
 62
   179
100
AcDbLine
 10
340.765755
 20
218.83188
 30
0.0
 11
342.165779
 21
218.83188
 31
0.0
  0
LINE
  5
BD
330
1F
100
AcDbEntity
  8
SLD-0
  6
Continuous
 62
   179
100
AcDbLine
 10
342.465767
 20
224.43187
 30
0.0
 11
342.465767
 21
225.23187
 31
0.0
  0
LINE
  5
BE
330
1F
100
AcDbEntity
  8
SLD-0
  6
Continuous
 62
   179
100
AcDbLine
 10
324.465767
 20
171.78188
 30
0.0
 11
324.465767
 21
169.78188
 31
0.0
  0
LINE
  5
BF
330
1F
100
AcDbEntity
  8
SLD-0
  6
Continuous
 62
   179
100
AcDbLine
 10
324.665779
 20
177.98187
 30
0.0
 11
324.765755
 21
177.98187
 31
0.0
  0
LINE
  5
C0
330
1F
100
AcDbEntity
  8
SLD-0
  6
Continuous
 62
   179
100
AcDbLine
 10
340.465767
 20
219.13188
 30
0.0
 11
340.465767
 21
223.83186
 31
0.0
  0
LINE
  5
C1
330
1F
100
AcDbEntity
  8
SLD-0
  6
Continuous
 62
   179
100
AcDbLine
 10
324.665779
 20
211.48187
 30
0.0
 11
324.765755
 21
211.48187
 31
0.0
  0
LINE
  5
C2
330
1F
100
AcDbEntity
  8
SLD-0
  6
Continuous
 62
   179
100
AcDbLine
 10
346.665779
 20
167.53188
 30
0.0
 11
342.765755
 21
167.53188
 31
0.0
  0
LINE
  5
C3
330
1F
100
AcDbEntity
  8
SLD-0
  6
Continuous
 62
   179
100
AcDbLine
 10
346.665779
 20
159.43187
 30
0.0
 11
342.765755
 21
159.43187
 31
0.0
  0
LINE
  5
C4
330
1F
100
AcDbEntity
  8
SLD-0
  6
Continuous
 62
   179
100
AcDbLine
 10
346.965767
 20
160.53188
 30
0.0
 11
346.965767
 21
159.73187
 31
0.0
  0
LINE
  5
C5
330
1F
100
AcDbEntity
  8
SLD-0
  6
Continuous
 62
   179
100
AcDbLine
 10
324.465767
 20
220.48187
 30
0.0
 11
324.465767
 21
218.78188
 31
0.0
  0
LINE
  5
C6
330
1F
100
AcDbEntity
  8
SLD-0
  6
Continuous
 62
   179
100
AcDbLine
 10
324.765755
 20
215.48187
 30
0.0
 11
325.454979
 21
215.48187
 31
0.0
  0
LINE
  5
C7
330
1F
100
AcDbEntity
  8
SLD-0
  6
CENTER
 62
   179
100
AcDbLine
 10
322.965767
 20
216.98187
 30
0.0
 11
330.565773
 21
216.98187
 31
0.0
  0
LINE
  5
C8
330
1F
100
AcDbEntity
  8
SLD-0
  6
CENTER
 62
   179
100
AcDbLine
 10
326.965767
 20
212.72803
 30
0.0
 11
326.965767
 21
220.58188
 31
0.0
  0
LINE
  5
C9
330
1F
100
AcDbEntity
  8
SLD-0
  6
Continuous
 62
   179
100
AcDbLine
 10
324.765755
 20
218.48187
 30
0.0
 11
325.454979
 21
218.48187
 31
0.0
  0
LINE
  5
CA
330
1F
100
AcDbEntity
  8
SLD-0
  6
Continuous
 62
   179
100
AcDbLine
 10
342.465767
 20
217.73187
 30
0.0
 11
342.465767
 21
218.53188
 31
0.0
  0
LINE
  5
CB
330
1F
100
AcDbEntity
  8
SLD-0
  6
Continuous
 62
   179
100
AcDbLine
 10
342.765755
 20
225.53188
 30
0.0
 11
346.665779
 21
225.53188
 31
0.0
  0
LINE
  5
CC
330
1F
100
AcDbEntity
  8
SLD-0
  6
Continuous
 62
   179
100
AcDbLine
 10
347.265755
 20
224.13187
 30
0.0
 11
349.165779
 21
224.13187
 31
0.0
  0
LINE
  5
CD
330
1F
100
AcDbEntity
  8
SLD-0
  6
CENTER
 62
   179
100
AcDbLine
 10
349.465767
 20
177.48187
 30
0.0
 11
324.465767
 21
177.48187
 31
0.0
  0
LINE
  5
CE
330
1F
100
AcDbEntity
  8
SLD-0
  6
CENTER
 62
   179
100
AcDbLine
 10
349.465767
 20
207.48187
 30
0.0
 11
324.465767
 21
207.48187
 31
0.0
  0
LINE
  5
CF
330
1F
100
AcDbEntity
  8
SLD-0
  6
CENTER
 62
   179
100
AcDbLine
 10
350.465767
 20
221.48187
 30
0.0
 11
338.965767
 21
221.48187
 31
0.0
  0
LINE
  5
D0
330
1F
100
AcDbEntity
  8
SLD-0
  6
Continuous
 62
   179
100
AcDbLine
 10
347.265755
 20
218.83188
 30
0.0
 11
349.165779
 21
218.83188
 31
0.0
  0
LINE
  5
D1
330
1F
100
AcDbEntity
  8
SLD-0
  6
Continuous
 62
   179
100
AcDbLine
 10
86.49556
 20
157.48188
 30
0.0
 11
87.49556
 21
158.48188
 31
0.0
  0
LINE
  5
D2
330
1F
100
AcDbEntity
  8
SLD-0
  6
Continuous
 62
   179
100
AcDbLine
 10
342.465767
 20
167.23187
 30
0.0
 11
342.465767
 21
166.43187
 31
0.0
  0
LINE
  5
D3
330
1F
100
AcDbEntity
  8
SLD-0
  6
CENTER
 62
   179
100
AcDbLine
 10
61.82944
 20
87.481895
 30
0.0
 11
296.61221
 21
87.481895
 31
0.0
  0
LINE
  5
D4
330
1F
100
AcDbEntity
  8
SLD-0
  6
Continuous
 62
   179
100
AcDbLine
 10
349.465767
 20
224.43187
 30
0.0
 11
349.465767
 21
226.48187
 31
0.0
  0
LINE
  5
D5
330
1F
100
AcDbEntity
  8
SLD-0
  6
Continuous
 62
   179
100
AcDbLine
 10
331.465767
 20
227.48187
 30
0.0
 11
348.465767
 21
227.48187
 31
0.0
  0
LINE
  5
D6
330
1F
100
AcDbEntity
  8
SLD-0
  6
Continuous
 62
   179
100
AcDbLine
 10
346.665779
 20
217.43187
 30
0.0
 11
342.765755
 21
217.43187
 31
0.0
  0
LINE
  5
D7
330
1F
100
AcDbEntity
  8
SLD-0
  6
Continuous
 62
   179
100
AcDbLine
 10
346.965767
 20
224.43187
 30
0.0
 11
346.965767
 21
225.23187
 31
0.0
  0
LINE
  5
D8
330
1F
100
AcDbEntity
  8
SLD-0
  6
Continuous
 62
   179
100
AcDbLine
 10
346.965767
 20
217.73187
 30
0.0
 11
346.965767
 21
218.53188
 31
0.0
  0
LINE
  5
D9
330
1F
100
AcDbEntity
  8
SLD-0
  6
CENTER
 62
   179
100
AcDbLine
 10
338.965767
 20
163.48187
 30
0.0
 11
350.465767
 21
163.48187
 31
0.0
  0
LINE
  5
DA
330
1F
100
AcDbEntity
  8
SLD-0
  6
CENTER
 62
   179
100
AcDbLine
 10
322.965767
 20
167.98187
 30
0.0
 11
330.565773
 21
167.98187
 31
0.0
  0
LINE
  5
DB
330
1F
100
AcDbEntity
  8
SLD-0
  6
Continuous
 62
   179
100
AcDbLine
 10
324.465767
 20
204.18187
 30
0.0
 11
324.465767
 21
205.28188
 31
0.0
  0
LINE
  5
DC
330
1F
100
AcDbEntity
  8
SLD-0
  6
Continuous
 62
   179
100
AcDbLine
 10
347.265755
 20
166.13187
 30
0.0
 11
349.165779
 21
166.13187
 31
0.0
  0
LINE
  5
DD
330
1F
100
AcDbEntity
  8
SLD-0
  6
Continuous
 62
   179
100
AcDbLine
 10
347.265755
 20
160.83188
 30
0.0
 11
349.165779
 21
160.83188
 31
0.0
  0
LINE
  5
DE
330
1F
100
AcDbEntity
  8
SLD-0
  6
Continuous
 62
   179
100
AcDbLine
 10
331.465767
 20
157.48186
 30
0.0
 11
348.465767
 21
157.48187
 31
0.0
  0
LINE
  5
DF
330
1F
100
AcDbEntity
  8
SLD-0
  6
CENTER
 62
   179
100
AcDbLine
 10
326.965767
 20
172.58188
 30
0.0
 11
326.965767
 21
164.11844
 31
0.0
  0
LINE
  5
E0
330
1F
100
AcDbEntity
  8
SLD-0
  6
Continuous
 62
   179
100
AcDbLine
 10
324.765755
 20
169.48187
 30
0.0
 11
325.454979
 21
169.48187
 31
0.0
  0
LINE
  5
E1
330
1F
100
AcDbEntity
  8
SLD-0
  6
Continuous
 62
   179
100
AcDbLine
 10
324.665779
 20
173.48187
 30
0.0
 11
324.765755
 21
173.48187
 31
0.0
  0
LINE
  5
E2
330
1F
100
AcDbEntity
  8
SLD-0
  6
Continuous
 62
   179
100
AcDbLine
 10
324.765755
 20
166.48187
 30
0.0
 11
325.454979
 21
166.48187
 31
0.0
  0
LINE
  5
E3
330
1F
100
AcDbEntity
  8
SLD-0
  6
Continuous
 62
   179
100
AcDbLine
 10
349.465767
 20
158.48187
 30
0.0
 11
349.465767
 21
160.53188
 31
0.0
  0
LINE
  5
E4
330
1F
100
AcDbEntity
  8
SLD-0
  6
Continuous
 62
   179
100
AcDbLine
 10
324.965767
 20
205.68187
 30
0.0
 11
324.965767
 21
206.78188
 31
0.0
  0
LINE
  5
E5
330
1F
100
AcDbEntity
  8
SLD-0
  6
Continuous
 62
   179
100
AcDbLine
 10
324.465767
 20
213.18187
 30
0.0
 11
324.465767
 21
215.18187
 31
0.0
  0
LINE
  5
E6
330
1F
100
AcDbEntity
  8
SLD-0
  6
Continuous
 62
   179
100
AcDbLine
 10
324.965767
 20
179.28188
 30
0.0
 11
324.965767
 21
178.18187
 31
0.0
  0
LINE
  5
E7
330
1F
100
AcDbEntity
  8
SLD-0
  6
Continuous
 62
   179
100
AcDbLine
 10
324.965767
 20
211.68187
 30
0.0
 11
324.965767
 21
212.78188
 31
0.0
  0
LINE
  5
E8
330
1F
100
AcDbEntity
  8
SLD-0
  6
Continuous
 62
   179
100
AcDbLine
 10
324.965767
 20
173.28188
 30
0.0
 11
324.965767
 21
172.18187
 31
0.0
  0
LINE
  5
E9
330
1F
100
AcDbEntity
  8
SLD-0
  6
Continuous
 62
   179
100
AcDbLine
 10
324.465767
 20
166.18187
 30
0.0
 11
324.465759
 21
164.48187
 31
0.0
  0
LINE
  5
EA
330
1F
100
AcDbEntity
  8
SLD-0
  6
Continuous
 62
   179
100
AcDbLine
 10
144.11221
 20
76.481895
 30
0.0
 11
156.1122
 21
76.481895
 31
0.0
  0
LINE
  5
EB
330
1F
100
AcDbEntity
  8
SLD-0
  6
Continuous
 62
   179
100
AcDbLine
 10
289.11224
 20
171.9819
 30
0.0
 11
164.1122
 21
171.9819
 31
0.0
  0
LINE
  5
EC
330
1F
100
AcDbEntity
  8
SLD-0
  6
Continuous
 62
   179
100
AcDbLine
 10
289.11224
 20
179.4819
 30
0.0
 11
164.1122
 21
179.4819
 31
0.0
  0
LINE
  5
ED
330
1F
100
AcDbEntity
  8
SLD-0
  6
HIDDEN
 62
   179
100
AcDbLine
 10
152.2122
 20
98.481895
 30
0.0
 11
152.2122
 21
76.481895
 31
0.0
  0
LINE
  5
EE
330
1F
100
AcDbEntity
  8
SLD-0
  6
HIDDEN
 62
   179
100
AcDbLine
 10
152.6122
 20
98.481895
 30
0.0
 11
152.6122
 21
76.481895
 31
0.0
  0
LINE
  5
EF
330
1F
100
AcDbEntity
  8
SLD-0
  6
CENTER
 62
   179
100
AcDbLine
 10
150.1122
 20
101.481895
 30
0.0
 11
150.1122
 21
73.481895
 31
0.0
  0
LINE
  5
F0
330
1F
100
AcDbEntity
  8
SLD-0
  6
HIDDEN
 62
   179
100
AcDbLine
 10
144.11221
 20
89.981895
 30
0.0
 11
156.1122
 21
89.981895
 31
0.0
  0
LINE
  5
F1
330
1F
100
AcDbEntity
  8
SLD-0
  6
HIDDEN
 62
   179
100
AcDbLine
 10
144.11221
 20
89.581886
 30
0.0
 11
156.1122
 21
89.581886
 31
0.0
  0
LINE
  5
F2
330
1F
100
AcDbEntity
  8
SLD-0
  6
Continuous
 62
   179
100
AcDbLine
 10
349.465779
 20
226.4819
 30
0.0
 11
348.4658
 21
227.48188
 31
0.0
  0
LINE
  5
F3
330
1F
100
AcDbEntity
  8
SLD-0
  6
CENTER
 62
   179
100
AcDbLine
 10
320.465767
 20
192.48187
 30
0.0
 11
353.465767
 21
192.48187
 31
0.0
  0
LINE
  5
F4
330
1F
100
AcDbEntity
  8
SLD-0
  6
Continuous
 62
   179
100
AcDbLine
 10
164.1122
 20
220.4819
 30
0.0
 11
289.11224
 21
220.4819
 31
0.0
  0
LINE
  5
F5
330
1F
100
AcDbEntity
  8
SLD-0
  6
Continuous
 62
   179
100
AcDbLine
 10
144.11221
 20
98.481895
 30
0.0
 11
156.1122
 21
98.481895
 31
0.0
  0
LINE
  5
F6
330
1F
100
AcDbEntity
  8
SLD-0
  6
HIDDEN
 62
   179
100
AcDbLine
 10
218.6122
 20
99.981895
 30
0.0
 11
218.6122
 21
93.481895
 31
0.0
  0
LINE
  5
F7
330
1F
100
AcDbEntity
  8
SLD-0
  6
HIDDEN
 62
   179
100
AcDbLine
 10
229.6122
 20
99.981895
 30
0.0
 11
229.6122
 21
93.481895
 31
0.0
  0
LINE
  5
F8
330
1F
100
AcDbEntity
  8
SLD-0
  6
HIDDEN
 62
   179
100
AcDbLine
 10
218.6122
 20
93.481895
 30
0.0
 11
229.6122
 21
93.481895
 31
0.0
  0
LINE
  5
F9
330
1F
100
AcDbEntity
  8
SLD-0
  6
HIDDEN
 62
   179
100
AcDbLine
 10
168.6122
 20
99.981895
 30
0.0
 11
168.6122
 21
93.481895
 31
0.0
  0
LINE
  5
FA
330
1F
100
AcDbEntity
  8
SLD-0
  6
HIDDEN
 62
   179
100
AcDbLine
 10
179.6122
 20
99.981895
 30
0.0
 11
179.6122
 21
93.481895
 31
0.0
  0
LINE
  5
FB
330
1F
100
AcDbEntity
  8
SLD-0
  6
HIDDEN
 62
   179
100
AcDbLine
 10
168.6122
 20
93.481895
 30
0.0
 11
179.6122
 21
93.481895
 31
0.0
  0
LINE
  5
FC
330
1F
100
AcDbEntity
  8
SLD-0
  6
Continuous
 62
   179
100
AcDbLine
 10
288.81225
 20
157.4819
 30
0.0
 11
289.11224
 21
157.78189
 31
0.0
  0
LINE
  5
FD
330
1F
100
AcDbEntity
  8
SLD-0
  6
Continuous
 62
   179
100
AcDbLine
 10
289.11224
 20
212.9819
 30
0.0
 11
164.1122
 21
212.9819
 31
0.0
  0
LINE
  5
FE
330
1F
100
AcDbEntity
  8
SLD-0
  6
Continuous
 62
   179
100
AcDbLine
 10
156.1122
 20
82.481895
 30
0.0
 11
164.1122
 21
82.481895
 31
0.0
  0
LINE
  5
FF
330
1F
100
AcDbEntity
  8
SLD-0
  6
Continuous
 62
   179
100
AcDbLine
 10
156.1122
 20
92.481895
 30
0.0
 11
164.1122
 21
92.481895
 31
0.0
  0
LINE
  5
100
330
1F
100
AcDbEntity
  8
SLD-0
  6
CENTER
 62
   179
100
AcDbLine
 10
142.61221
 20
207.48187
 30
0.0
 11
290.61221
 21
207.48187
 31
0.0
  0
LINE
  5
101
330
1F
100
AcDbEntity
  8
SLD-0
  6
Continuous
 62
   179
100
AcDbLine
 10
289.11224
 20
180.9819
 30
0.0
 11
164.1122
 21
180.9819
 31
0.0
  0
LINE
  5
102
330
1F
100
AcDbEntity
  8
SLD-0
  6
CENTER
 62
   179
100
AcDbLine
 10
134.61221
 20
192.48187
 30
0.0
 11
290.61221
 21
192.48187
 31
0.0
  0
LINE
  5
103
330
1F
100
AcDbEntity
  8
SLD-0
  6
CENTER
 62
   179
100
AcDbLine
 10
142.61221
 20
177.48187
 30
0.0
 11
290.61221
 21
177.48187
 31
0.0
  0
LINE
  5
104
330
1F
100
AcDbEntity
  8
SLD-0
  6
Continuous
 62
   179
100
AcDbLine
 10
289.11224
 20
173.4819
 30
0.0
 11
164.1122
 21
173.4819
 31
0.0
  0
LINE
  5
105
330
1F
100
AcDbEntity
  8
SLD-0
  6
CENTER
 62
   179
100
AcDbLine
 10
279.11221
 20
91.481895
 30
0.0
 11
279.11221
 21
83.481895
 31
0.0
  0
LINE
  5
106
330
1F
100
AcDbEntity
  8
SLD-0
  6
CENTER
 62
   179
100
AcDbLine
 10
185.1122
 20
91.481895
 30
0.0
 11
185.1122
 21
83.481895
 31
0.0
  0
LINE
  5
107
330
1F
100
AcDbEntity
  8
SLD-0
  6
CENTER
 62
   179
100
AcDbLine
 10
279.11221
 20
197.4819
 30
0.0
 11
279.11221
 21
187.4819
 31
0.0
  0
LINE
  5
108
330
1F
100
AcDbEntity
  8
SLD-0
  6
Continuous
 62
   179
100
AcDbLine
 10
162.84425
 20
172.48187
 30
0.0
 11
164.1122
 21
172.48187
 31
0.0
  0
LINE
  5
109
330
1F
100
AcDbEntity
  8
SLD-0
  6
HIDDEN
 62
   179
100
AcDbLine
 10
330.965767
 20
186.98187
 30
0.0
 11
330.965767
 21
197.98187
 31
0.0
  0
LINE
  5
10A
330
1F
100
AcDbEntity
  8
SLD-0
  6
Continuous
 62
   179
100
AcDbLine
 10
156.11221
 20
90.481901
 30
0.0
 11
161.1122
 21
84.481907
 31
0.0
  0
LINE
  5
10B
330
1F
100
AcDbEntity
  8
SLD-0
  6
Continuous
 62
   179
100
AcDbLine
 10
161.1122
 20
84.481895
 30
0.0
 11
161.1122
 21
90.481895
 31
0.0
  0
LINE
  5
10C
330
1F
100
AcDbEntity
  8
SLD-0
  6
Continuous
 62
   179
100
AcDbLine
 10
161.11222
 20
181.48185
 30
0.0
 11
162.84427
 21
182.48185
 31
0.0
  0
LINE
  5
10D
330
1F
100
AcDbEntity
  8
SLD-0
  6
Continuous
 62
   179
100
AcDbLine
 10
156.11218
 20
84.481932
 30
0.0
 11
161.11219
 21
90.481938
 31
0.0
  0
LINE
  5
10E
330
1F
100
AcDbEntity
  8
SLD-0
  6
Continuous
 62
   179
100
AcDbLine
 10
161.1122
 20
84.481895
 30
0.0
 11
156.1122
 21
84.481895
 31
0.0
  0
LINE
  5
10F
330
1F
100
AcDbEntity
  8
SLD-0
  6
Continuous
 62
   179
100
AcDbLine
 10
161.1122
 20
90.481895
 30
0.0
 11
156.1122
 21
90.481895
 31
0.0
  0
LINE
  5
110
330
1F
100
AcDbEntity
  8
SLD-0
  6
Continuous
 62
   179
100
AcDbLine
 10
162.84425
 20
182.48187
 30
0.0
 11
164.1122
 21
182.48187
 31
0.0
  0
LINE
  5
111
330
1F
100
AcDbEntity
  8
SLD-0
  6
Continuous
 62
   179
100
AcDbLine
 10
161.11221
 20
173.48188
 30
0.0
 11
162.84426
 21
172.48188
 31
0.0
  0
LINE
  5
112
330
1F
100
AcDbEntity
  8
SLD-0
  6
Continuous
 62
   179
100
AcDbLine
 10
156.1122
 20
173.48187
 30
0.0
 11
161.1122
 21
173.48187
 31
0.0
  0
LINE
  5
113
330
1F
100
AcDbEntity
  8
SLD-0
  6
Continuous
 62
   179
100
AcDbLine
 10
93.49557
 20
204.18188
 30
0.0
 11
93.49557
 21
205.28189
 31
0.0
  0
LINE
  5
114
330
1F
100
AcDbEntity
  8
SLD-0
  6
Continuous
 62
   179
100
AcDbLine
 10
93.29556
 20
179.48187
 30
0.0
 11
93.19559
 21
179.48187
 31
0.0
  0
LINE
  5
115
330
1F
100
AcDbEntity
  8
SLD-0
  6
Continuous
 62
   179
100
AcDbLine
 10
93.49557
 20
207.18188
 30
0.0
 11
93.49557
 21
208.28189
 31
0.0
  0
LINE
  5
116
330
1F
100
AcDbEntity
  8
SLD-0
  6
Continuous
 62
   179
100
AcDbLine
 10
93.29556
 20
212.98187
 30
0.0
 11
93.19559
 21
212.98187
 31
0.0
  0
LINE
  5
117
330
1F
100
AcDbEntity
  8
SLD-0
  6
Continuous
 62
   179
100
AcDbLine
 10
93.29556
 20
208.48187
 30
0.0
 11
93.19559
 21
208.48187
 31
0.0
  0
LINE
  5
118
330
1F
100
AcDbEntity
  8
SLD-0
  6
Continuous
 62
   179
100
AcDbLine
 10
92.99557
 20
208.68188
 30
0.0
 11
92.99557
 21
209.78189
 31
0.0
  0
LINE
  5
119
330
1F
100
AcDbEntity
  8
SLD-0
  6
Continuous
 62
   179
100
AcDbLine
 10
93.29556
 20
177.98187
 30
0.0
 11
93.19559
 21
177.98187
 31
0.0
  0
LINE
  5
11A
330
1F
100
AcDbEntity
  8
SLD-0
  6
Continuous
 62
   179
100
AcDbLine
 10
93.29556
 20
180.98187
 30
0.0
 11
93.19559
 21
180.98187
 31
0.0
  0
LINE
  5
11B
330
1F
100
AcDbEntity
  8
SLD-0
  6
Continuous
 62
   179
100
AcDbLine
 10
68.49557
 20
218.53189
 30
0.0
 11
68.49557
 21
166.43188
 31
0.0
  0
LINE
  5
11C
330
1F
100
AcDbEntity
  8
SLD-0
  6
Continuous
 62
   179
100
AcDbLine
 10
93.29556
 20
174.98187
 30
0.0
 11
93.19559
 21
174.98187
 31
0.0
  0
LINE
  5
11D
330
1F
100
AcDbEntity
  8
SLD-0
  6
Continuous
 62
   179
100
AcDbLine
 10
93.29556
 20
205.48187
 30
0.0
 11
93.19559
 21
205.48187
 31
0.0
  0
LINE
  5
11E
330
1F
100
AcDbEntity
  8
SLD-0
  6
Continuous
 62
   179
100
AcDbLine
 10
93.29556
 20
202.48187
 30
0.0
 11
93.19559
 21
202.48187
 31
0.0
  0
LINE
  5
11F
330
1F
100
AcDbEntity
  8
SLD-0
  6
Continuous
 62
   179
100
AcDbLine
 10
288.81222
 20
227.48189
 30
0.0
 11
289.11221
 21
227.1819
 31
0.0
  0
LINE
  5
120
330
1F
100
AcDbEntity
  8
SLD-0
  6
Continuous
 62
   179
100
AcDbLine
 10
93.29556
 20
182.48187
 30
0.0
 11
93.19559
 21
182.48187
 31
0.0
  0
LINE
  5
121
330
1F
100
AcDbEntity
  8
SLD-0
  6
Continuous
 62
   179
100
AcDbLine
 10
93.29556
 20
203.98187
 30
0.0
 11
93.19559
 21
203.98187
 31
0.0
  0
LINE
  5
122
330
1F
100
AcDbEntity
  8
SLD-0
  6
Continuous
 62
   179
100
AcDbLine
 10
93.29556
 20
209.98187
 30
0.0
 11
93.19559
 21
209.98187
 31
0.0
  0
LINE
  5
123
330
1F
100
AcDbEntity
  8
SLD-0
  6
Continuous
 62
   179
100
AcDbLine
 10
93.49557
 20
177.78189
 30
0.0
 11
93.49557
 21
176.68188
 31
0.0
  0
LINE
  5
124
330
1F
100
AcDbEntity
  8
SLD-0
  6
Continuous
 62
   179
100
AcDbLine
 10
93.49557
 20
210.18188
 30
0.0
 11
93.49557
 21
211.28189
 31
0.0
  0
LINE
  5
125
330
1F
100
AcDbEntity
  8
SLD-0
  6
Continuous
 62
   179
100
AcDbLine
 10
92.99557
 20
202.68188
 30
0.0
 11
92.99557
 21
203.78189
 31
0.0
  0
LINE
  5
126
330
1F
100
AcDbEntity
  8
SLD-0
  6
Continuous
 62
   179
100
AcDbLine
 10
93.29556
 20
176.48187
 30
0.0
 11
93.19559
 21
176.48187
 31
0.0
  0
LINE
  5
127
330
1F
100
AcDbEntity
  8
SLD-0
  6
Continuous
 62
   179
100
AcDbLine
 10
93.29556
 20
171.98187
 30
0.0
 11
93.19559
 21
171.98187
 31
0.0
  0
LINE
  5
128
330
1F
100
AcDbEntity
  8
SLD-0
  6
Continuous
 62
   179
100
AcDbLine
 10
93.49557
 20
202.28189
 30
0.0
 11
93.49557
 21
182.68188
 31
0.0
  0
LINE
  5
129
330
1F
100
AcDbEntity
  8
SLD-0
  6
Continuous
 62
   179
100
AcDbLine
 10
92.99557
 20
182.28189
 30
0.0
 11
92.99557
 21
181.18188
 31
0.0
  0
LINE
  5
12A
330
1F
100
AcDbEntity
  8
SLD-0
  6
Continuous
 62
   179
100
AcDbLine
 10
92.99557
 20
176.28189
 30
0.0
 11
92.99557
 21
175.18188
 31
0.0
  0
LINE
  5
12B
330
1F
100
AcDbEntity
  8
SLD-0
  6
Continuous
 62
   179
100
AcDbLine
 10
93.49557
 20
174.78189
 30
0.0
 11
93.49557
 21
173.68188
 31
0.0
  0
LINE
  5
12C
330
1F
100
AcDbEntity
  8
SLD-0
  6
Continuous
 62
   179
100
AcDbLine
 10
289.11224
 20
203.9819
 30
0.0
 11
164.1122
 21
203.9819
 31
0.0
  0
LINE
  5
12D
330
1F
100
AcDbEntity
  8
SLD-0
  6
Continuous
 62
   179
100
AcDbLine
 10
289.11224
 20
174.9819
 30
0.0
 11
164.1122
 21
174.9819
 31
0.0
  0
LINE
  5
12E
330
1F
100
AcDbEntity
  8
SLD-0
  6
Continuous
 62
   179
100
AcDbLine
 10
93.49557
 20
213.18188
 30
0.0
 11
93.49557
 21
215.18188
 31
0.0
  0
LINE
  5
12F
330
1F
100
AcDbEntity
  8
SLD-0
  6
Continuous
 62
   179
100
AcDbLine
 10
93.29556
 20
206.98187
 30
0.0
 11
93.19559
 21
206.98187
 31
0.0
  0
LINE
  5
130
330
1F
100
AcDbEntity
  8
SLD-0
  6
CENTER
 62
   179
100
AcDbLine
 10
224.1122
 20
199.9819
 30
0.0
 11
224.1122
 21
184.9819
 31
0.0
  0
LINE
  5
131
330
1F
100
AcDbEntity
  8
SLD-0
  6
Continuous
 62
   179
100
AcDbLine
 10
93.29556
 20
173.48187
 30
0.0
 11
93.19559
 21
173.48187
 31
0.0
  0
LINE
  5
132
330
1F
100
AcDbEntity
  8
SLD-0
  6
Continuous
 62
   179
100
AcDbLine
 10
164.1122
 20
215.4819
 30
0.0
 11
289.11224
 21
215.4819
 31
0.0
  0
LINE
  5
133
330
1F
100
AcDbEntity
  8
SLD-0
  6
Continuous
 62
   179
100
AcDbLine
 10
93.49557
 20
164.48187
 30
0.0
 11
93.49557
 21
166.18188
 31
0.0
  0
LINE
  5
134
330
1F
100
AcDbEntity
  8
SLD-0
  6
Continuous
 62
   179
100
AcDbLine
 10
93.19553
 20
169.48187
 30
0.0
 11
92.58298
 21
169.48187
 31
0.0
  0
LINE
  5
135
330
1F
100
AcDbEntity
  8
SLD-0
  6
Continuous
 62
   179
100
AcDbLine
 10
93.19553
 20
166.48187
 30
0.0
 11
92.58298
 21
166.48187
 31
0.0
  0
LINE
  5
136
330
1F
100
AcDbEntity
  8
SLD-0
  6
Continuous
 62
   179
100
AcDbLine
 10
289.11224
 20
208.4819
 30
0.0
 11
164.1122
 21
208.4819
 31
0.0
  0
LINE
  5
137
330
1F
100
AcDbEntity
  8
SLD-0
  6
Continuous
 62
   179
100
AcDbLine
 10
289.11224
 20
209.9819
 30
0.0
 11
164.1122
 21
209.9819
 31
0.0
  0
LINE
  5
138
330
1F
100
AcDbEntity
  8
SLD-0
  6
Continuous
 62
   179
100
AcDbLine
 10
69.99557
 20
160.83188
 30
0.0
 11
68.79556
 21
160.83188
 31
0.0
  0
LINE
  5
139
330
1F
100
AcDbEntity
  8
SLD-0
  6
Continuous
 62
   179
100
AcDbLine
 10
289.11224
 20
157.78189
 30
0.0
 11
289.11224
 21
227.18188
 31
0.0
  0
LINE
  5
13A
330
1F
100
AcDbEntity
  8
SLD-0
  6
Continuous
 62
   179
100
AcDbLine
 10
69.99557
 20
166.13187
 30
0.0
 11
68.79556
 21
166.13187
 31
0.0
  0
LINE
  5
13B
330
1F
100
AcDbEntity
  8
SLD-0
  6
Continuous
 62
   179
100
AcDbLine
 10
68.49557
 20
160.53189
 30
0.0
 11
68.49557
 21
157.78189
 31
0.0
  0
LINE
  5
13C
330
1F
100
AcDbEntity
  8
SLD-0
  6
Continuous
 62
   179
100
AcDbLine
 10
86.49557
 20
157.4819
 30
0.0
 11
68.79556
 21
157.4819
 31
0.0
  0
LINE
  5
13D
330
1F
100
AcDbEntity
  8
SLD-0
  6
Continuous
 62
   179
100
AcDbLine
 10
164.1122
 20
166.4819
 30
0.0
 11
289.11224
 21
166.4819
 31
0.0
  0
LINE
  5
13E
330
1F
100
AcDbEntity
  8
SLD-0
  6
CENTER
 62
   179
100
AcDbLine
 10
162.6122
 20
216.9819
 30
0.0
 11
290.61224
 21
216.9819
 31
0.0
  0
LINE
  5
13F
330
1F
100
AcDbEntity
  8
SLD-0
  6
Continuous
 62
   179
100
AcDbLine
 10
164.1122
 20
157.78189
 30
0.0
 11
164.1122
 21
227.18188
 31
0.0
  0
LINE
  5
140
330
1F
100
AcDbEntity
  8
SLD-0
  6
Continuous
 62
   179
100
AcDbLine
 10
93.49557
 20
180.78189
 30
0.0
 11
93.49557
 21
179.68188
 31
0.0
  0
LINE
  5
141
330
1F
100
AcDbEntity
  8
SLD-0
  6
Continuous
 62
   179
100
AcDbLine
 10
69.99557
 20
218.83188
 30
0.0
 11
68.79556
 21
218.83188
 31
0.0
  0
LINE
  5
142
330
1F
100
AcDbEntity
  8
SLD-0
  6
Continuous
 62
   179
100
AcDbLine
 10
69.99557
 20
224.13187
 30
0.0
 11
68.79556
 21
224.13187
 31
0.0
  0
LINE
  5
143
330
1F
100
AcDbEntity
  8
SLD-0
  6
Continuous
 62
   179
100
AcDbLine
 10
86.49557
 20
227.48187
 30
0.0
 11
68.79556
 21
227.48187
 31
0.0
  0
LINE
  5
144
330
1F
100
AcDbEntity
  8
SLD-0
  6
Continuous
 62
   179
100
AcDbLine
 10
289.11224
 20
211.4819
 30
0.0
 11
164.1122
 21
211.4819
 31
0.0
  0
LINE
  5
145
330
1F
100
AcDbEntity
  8
SLD-0
  6
Continuous
 62
   179
100
AcDbLine
 10
93.19553
 20
215.48187
 30
0.0
 11
92.58298
 21
215.48187
 31
0.0
  0
LINE
  5
146
330
1F
100
AcDbEntity
  8
SLD-0
  6
Continuous
 62
   179
100
AcDbLine
 10
93.29556
 20
211.48187
 30
0.0
 11
93.19559
 21
211.48187
 31
0.0
  0
LINE
  5
147
330
1F
100
AcDbEntity
  8
SLD-0
  6
Continuous
 62
   179
100
AcDbLine
 10
93.19553
 20
218.48187
 30
0.0
 11
92.58298
 21
218.48187
 31
0.0
  0
LINE
  5
148
330
1F
100
AcDbEntity
  8
SLD-0
  6
Continuous
 62
   179
100
AcDbLine
 10
68.49557
 20
227.18188
 30
0.0
 11
68.49557
 21
224.43188
 31
0.0
  0
LINE
  5
149
330
1F
100
AcDbEntity
  8
SLD-0
  6
Continuous
 62
   179
100
AcDbLine
 10
92.99557
 20
179.28189
 30
0.0
 11
92.99557
 21
178.18188
 31
0.0
  0
LINE
  5
14A
330
1F
100
AcDbEntity
  8
SLD-0
  6
Continuous
 62
   179
100
AcDbLine
 10
93.49557
 20
171.78189
 30
0.0
 11
93.49557
 21
169.78189
 31
0.0
  0
LINE
  5
14B
330
1F
100
AcDbEntity
  8
SLD-0
  6
Continuous
 62
   179
100
AcDbLine
 10
92.99557
 20
205.68188
 30
0.0
 11
92.99557
 21
206.78189
 31
0.0
  0
LINE
  5
14C
330
1F
100
AcDbEntity
  8
SLD-0
  6
Continuous
 62
   179
100
AcDbLine
 10
92.99557
 20
173.28189
 30
0.0
 11
92.99557
 21
172.18188
 31
0.0
  0
LINE
  5
14D
330
1F
100
AcDbEntity
  8
SLD-0
  6
Continuous
 62
   179
100
AcDbLine
 10
92.99557
 20
211.68188
 30
0.0
 11
92.99557
 21
212.78189
 31
0.0
  0
LINE
  5
14E
330
1F
100
AcDbEntity
  8
SLD-0
  6
Continuous
 62
   179
100
AcDbLine
 10
93.49557
 20
218.78189
 30
0.0
 11
93.49557
 21
220.48187
 31
0.0
  0
LINE
  5
14F
330
1F
100
AcDbEntity
  8
SLD-0
  6
Continuous
 62
   179
100
AcDbLine
 10
164.1122
 20
164.4819
 30
0.0
 11
289.11224
 21
164.4819
 31
0.0
  0
LINE
  5
150
330
1F
100
AcDbEntity
  8
SLD-0
  6
CENTER
 62
   179
100
AcDbLine
 10
162.6122
 20
167.9819
 30
0.0
 11
290.61224
 21
167.9819
 31
0.0
  0
LINE
  5
151
330
1F
100
AcDbEntity
  8
SLD-0
  6
Continuous
 62
   179
100
AcDbLine
 10
164.1122
 20
218.4819
 30
0.0
 11
289.11224
 21
218.4819
 31
0.0
  0
LINE
  5
152
330
1F
100
AcDbEntity
  8
SLD-0
  6
Continuous
 62
   179
100
AcDbLine
 10
164.11222
 20
227.18192
 30
0.0
 11
164.41221
 21
227.48191
 31
0.0
  0
LINE
  5
153
330
1F
100
AcDbEntity
  8
SLD-0
  6
Continuous
 62
   179
100
AcDbLine
 10
289.11224
 20
177.9819
 30
0.0
 11
164.1122
 21
177.9819
 31
0.0
  0
LINE
  5
154
330
1F
100
AcDbEntity
  8
SLD-0
  6
Continuous
 62
   179
100
AcDbLine
 10
164.1122
 20
169.4819
 30
0.0
 11
289.11224
 21
169.4819
 31
0.0
  0
LINE
  5
155
330
1F
100
AcDbEntity
  8
SLD-0
  6
Continuous
 62
   179
100
AcDbLine
 10
164.41219
 20
227.48187
 30
0.0
 11
288.81225
 21
227.48187
 31
0.0
  0
LINE
  5
156
330
1F
100
AcDbEntity
  8
SLD-0
  6
Continuous
 62
   179
100
AcDbLine
 10
164.41219
 20
157.4819
 30
0.0
 11
288.81225
 21
157.4819
 31
0.0
  0
LINE
  5
157
330
1F
100
AcDbEntity
  8
SLD-0
  6
Continuous
 62
   179
100
AcDbLine
 10
289.11224
 20
176.4819
 30
0.0
 11
164.1122
 21
176.4819
 31
0.0
  0
LINE
  5
158
330
1F
100
AcDbEntity
  8
SLD-0
  6
HIDDEN
 62
   179
100
AcDbLine
 10
91.99557
 20
165.38187
 30
0.0
 11
69.99557
 21
165.38187
 31
0.0
  0
LINE
  5
159
330
1F
100
AcDbEntity
  8
SLD-0
  6
HIDDEN
 62
   179
100
AcDbLine
 10
91.99557
 20
164.98187
 30
0.0
 11
69.99557
 21
164.98187
 31
0.0
  0
LINE
  5
15A
330
1F
100
AcDbEntity
  8
SLD-0
  6
HIDDEN
 62
   179
100
AcDbLine
 10
91.99557
 20
169.98187
 30
0.0
 11
69.99557
 21
169.98187
 31
0.0
  0
LINE
  5
15B
330
1F
100
AcDbEntity
  8
SLD-0
  6
HIDDEN
 62
   179
100
AcDbLine
 10
91.99557
 20
219.98187
 30
0.0
 11
69.99557
 21
219.98187
 31
0.0
  0
LINE
  5
15C
330
1F
100
AcDbEntity
  8
SLD-0
  6
HIDDEN
 62
   179
100
AcDbLine
 10
91.99557
 20
214.98187
 30
0.0
 11
69.99557
 21
214.98187
 31
0.0
  0
LINE
  5
15D
330
1F
100
AcDbEntity
  8
SLD-0
  6
HIDDEN
 62
   179
100
AcDbLine
 10
91.99557
 20
219.58188
 30
0.0
 11
69.99557
 21
219.58188
 31
0.0
  0
LINE
  5
15E
330
1F
100
AcDbEntity
  8
SLD-0
  6
HIDDEN
 62
   179
100
AcDbLine
 10
91.99557
 20
215.38187
 30
0.0
 11
69.99557
 21
215.38187
 31
0.0
  0
LINE
  5
15F
330
1F
100
AcDbEntity
  8
SLD-0
  6
Continuous
 62
   179
100
AcDbLine
 10
89.9956
 20
158.48184
 30
0.0
 11
91.9956
 21
160.48184
 31
0.0
  0
LINE
  5
160
330
1F
100
AcDbEntity
  8
SLD-0
  6
CENTER
 62
   179
100
AcDbLine
 10
96.99557
 20
217.48187
 30
0.0
 11
64.99557
 21
217.48187
 31
0.0
  0
LINE
  5
161
330
1F
100
AcDbEntity
  8
SLD-0
  6
CENTER
 62
   179
100
AcDbLine
 10
80.99557
 20
212.44189
 30
0.0
 11
80.99557
 21
222.52188
 31
0.0
  0
LINE
  5
162
330
1F
100
AcDbEntity
  8
SLD-0
  6
HIDDEN
 62
   179
100
AcDbLine
 10
91.99557
 20
169.58188
 30
0.0
 11
69.99557
 21
169.58188
 31
0.0
  0
LINE
  5
163
330
1F
100
AcDbEntity
  8
SLD-0
  6
Continuous
 62
   179
100
AcDbLine
 10
91.99556
 20
224.48187
 30
0.0
 11
89.99555
 21
226.48187
 31
0.0
  0
LINE
  5
164
330
1F
100
AcDbEntity
  8
SLD-0
  6
Continuous
 62
   179
100
AcDbLine
 10
71.99561
 20
158.48184
 30
0.0
 11
69.99561
 21
160.48184
 31
0.0
  0
LINE
  5
165
330
1F
100
AcDbEntity
  8
SLD-0
  6
CENTER
 62
   179
100
AcDbLine
 10
80.99557
 20
162.44189
 30
0.0
 11
80.99557
 21
172.52188
 31
0.0
  0
LINE
  5
166
330
1F
100
AcDbEntity
  8
SLD-0
  6
CENTER
 62
   179
100
AcDbLine
 10
73.70554
 20
177.48187
 30
0.0
 11
88.28555
 21
177.48187
 31
0.0
  0
LINE
  5
167
330
1F
100
AcDbEntity
  8
SLD-0
  6
CENTER
 62
   179
100
AcDbLine
 10
96.99557
 20
167.48187
 30
0.0
 11
64.99557
 21
167.48187
 31
0.0
  0
LINE
  5
168
330
1F
100
AcDbEntity
  8
SLD-0
  6
CENTER
 62
   179
100
AcDbLine
 10
80.99557
 20
200.19189
 30
0.0
 11
80.99557
 21
214.77188
 31
0.0
  0
LINE
  5
169
330
1F
100
AcDbEntity
  8
SLD-0
  6
CENTER
 62
   179
100
AcDbLine
 10
73.70554
 20
207.48187
 30
0.0
 11
88.28555
 21
207.48187
 31
0.0
  0
LINE
  5
16A
330
1F
100
AcDbEntity
  8
SLD-0
  6
CENTER
 62
   179
100
AcDbLine
 10
80.99557
 20
170.19189
 30
0.0
 11
80.99557
 21
184.77188
 31
0.0
  0
LINE
  5
16B
330
1F
100
AcDbEntity
  8
SLD-0
  6
Continuous
 62
   179
100
AcDbLine
 10
69.99557
 20
224.48187
 30
0.0
 11
69.99557
 21
160.4819
 31
0.0
  0
LINE
  5
16C
330
1F
100
AcDbEntity
  8
SLD-0
  6
Continuous
 62
   179
100
AcDbLine
 10
91.99557
 20
224.98187
 30
0.0
 11
91.99557
 21
160.9819
 31
0.0
  0
LINE
  5
16D
330
1F
100
AcDbEntity
  8
SLD-0
  6
Continuous
 62
   179
100
AcDbLine
 10
71.99557
 20
226.48186
 30
0.0
 11
69.99558
 21
224.48187
 31
0.0
  0
LINE
  5
16E
330
1F
100
AcDbEntity
  8
SLD-0
  6
Continuous
 62
   179
100
AcDbLine
 10
89.99557
 20
158.4819
 30
0.0
 11
71.99557
 21
158.4819
 31
0.0
  0
LINE
  5
16F
330
1F
100
AcDbEntity
  8
SLD-0
  6
Continuous
 62
   179
100
AcDbLine
 10
89.99557
 20
226.48187
 30
0.0
 11
71.99557
 21
226.48186
 31
0.0
  0
LINE
  5
170
330
1F
100
AcDbEntity
  8
SLD-0
  6
Continuous
 62
   179
100
AcDbLine
 10
91.99555
 20
221.98188
 30
0.0
 11
93.49557
 21
220.48187
 31
0.0
  0
LINE
  5
171
330
1F
100
AcDbEntity
  8
SLD-0
  6
Continuous
 62
   179
100
AcDbLine
 10
289.11224
 20
205.4819
 30
0.0
 11
164.1122
 21
205.4819
 31
0.0
  0
LINE
  5
172
330
1F
100
AcDbEntity
  8
SLD-0
  6
CENTER
 62
   179
100
AcDbLine
 10
174.1122
 20
199.9819
 30
0.0
 11
174.1122
 21
184.9819
 31
0.0
  0
LINE
  5
173
330
1F
100
AcDbEntity
  8
SLD-0
  6
CENTER
 62
   179
100
AcDbLine
 10
186.1122
 20
197.4819
 30
0.0
 11
186.1122
 21
187.4819
 31
0.0
  0
LINE
  5
174
330
1F
100
AcDbEntity
  8
SLD-0
  6
Continuous
 62
   179
100
AcDbLine
 10
164.11222
 20
157.78187
 30
0.0
 11
164.41222
 21
157.48188
 31
0.0
  0
LINE
  5
175
330
1F
100
AcDbEntity
  8
SLD-0
  6
CENTER
 62
   179
100
AcDbLine
 10
86.49557
 20
188.29187
 30
0.0
 11
86.49557
 21
196.67188
 31
0.0
  0
LINE
  5
176
330
1F
100
AcDbEntity
  8
SLD-0
  6
CENTER
 62
   179
100
AcDbLine
 10
90.68558
 20
192.48187
 30
0.0
 11
80.30557
 21
192.48187
 31
0.0
  0
LINE
  5
177
330
1F
100
AcDbEntity
  8
SLD-0
  6
Continuous
 62
   179
100
AcDbLine
 10
164.1122
 20
92.981895
 30
0.0
 11
289.11221
 21
92.981895
 31
0.0
  0
LINE
  5
178
330
1F
100
AcDbEntity
  8
SLD-0
  6
Continuous
 62
   179
100
AcDbLine
 10
324.465767
 20
220.48187
 30
0.0
 11
331.465767
 21
227.48187
 31
0.0
  0
LINE
  5
179
330
1F
100
AcDbEntity
  8
SLD-0
  6
Continuous
 62
   179
100
AcDbLine
 10
91.99556
 20
162.98188
 30
0.0
 11
93.49557
 21
164.48187
 31
0.0
  0
LINE
  5
17A
330
1F
100
AcDbEntity
  8
SLD-0
  6
Continuous
 62
   179
100
AcDbLine
 10
86.49558
 20
227.48185
 30
0.0
 11
87.49556
 21
226.48188
 31
0.0
  0
LINE
  5
17B
330
1F
100
AcDbEntity
  8
SLD-0
  6
Continuous
 62
   179
100
AcDbLine
 10
156.1122
 20
211.48187
 30
0.0
 11
161.1122
 21
211.48187
 31
0.0
  0
LINE
  5
17C
330
1F
100
AcDbEntity
  8
SLD-0
  6
Continuous
 62
   179
100
AcDbLine
 10
162.84425
 20
202.48187
 30
0.0
 11
164.1122
 21
202.48187
 31
0.0
  0
LINE
  5
17D
330
1F
100
AcDbEntity
  8
SLD-0
  6
Continuous
 62
   179
100
AcDbLine
 10
161.11223
 20
211.48184
 30
0.0
 11
162.84428
 21
212.48184
 31
0.0
  0
LINE
  5
17E
330
1F
100
AcDbEntity
  8
SLD-0
  6
Continuous
 62
   179
100
AcDbLine
 10
162.84425
 20
212.48187
 30
0.0
 11
164.1122
 21
212.48187
 31
0.0
  0
LINE
  5
17F
330
1F
100
AcDbEntity
  8
SLD-0
  6
Continuous
 62
   179
100
AcDbLine
 10
161.11221
 20
203.48188
 30
0.0
 11
162.84426
 21
202.48188
 31
0.0
  0
LINE
  5
180
330
1F
100
AcDbEntity
  8
SLD-0
  6
Continuous
 62
   179
100
AcDbLine
 10
156.1122
 20
203.48187
 30
0.0
 11
161.1122
 21
203.48187
 31
0.0
  0
LINE
  5
181
330
1F
100
AcDbEntity
  8
SLD-0
  6
PHANTOM
 62
   179
100
AcDbLine
 10
64.11221
 20
98.481895
 30
0.0
 11
64.11221
 21
76.481895
 31
0.0
  0
LINE
  5
182
330
1F
100
AcDbEntity
  8
SLD-0
  6
PHANTOM
 62
   179
100
AcDbLine
 10
76.11221
 20
98.481895
 30
0.0
 11
76.11221
 21
76.481895
 31
0.0
  0
LINE
  5
183
330
1F
100
AcDbEntity
  8
SLD-0
  6
PHANTOM
 62
   179
100
AcDbLine
 10
64.11221
 20
98.481895
 30
0.0
 11
76.11221
 21
98.481895
 31
0.0
  0
LINE
  5
184
330
1F
100
AcDbEntity
  8
SLD-0
  6
PHANTOM
 62
   179
100
AcDbLine
 10
64.11221
 20
76.481895
 30
0.0
 11
76.11221
 21
76.481895
 31
0.0
  0
LINE
  5
185
330
1F
100
AcDbEntity
  8
SLD-0
  6
PHANTOM
 62
   179
100
AcDbLine
 10
76.11221
 20
92.481895
 30
0.0
 11
122.35263
 21
92.481895
 31
0.0
  0
LINE
  5
186
330
1F
100
AcDbEntity
  8
SLD-0
  6
PHANTOM
 62
   179
100
AcDbLine
 10
76.11221
 20
82.481895
 30
0.0
 11
122.35263
 21
82.481895
 31
0.0
  0
LINE
  5
187
330
1F
100
AcDbEntity
  8
SLD-0
  6
Continuous
 62
   179
100
AcDbLine
 10
342.395123
 20
172.71424
 30
0.0
 11
343.182077
 21
169.77728
 31
0.0
  0
LINE
  5
188
330
1F
100
AcDbEntity
  8
SLD-0
  6
Continuous
 62
   179
100
AcDbLine
 10
344.3269790501
 20
175.2318714962
 30
0.0
 11
347.2218610501
 21
175.2318714962
 31
0.0
  0
LINE
  5
189
330
1F
100
AcDbEntity
  8
SLD-0
  6
Continuous
 62
   179
100
AcDbLine
 10
344.326981
 20
179.73187
 30
0.0
 11
347.221863
 21
179.73187
 31
0.0
  0
LINE
  5
18A
330
1F
100
AcDbEntity
  8
SLD-0
  6
Continuous
 62
   179
100
AcDbLine
 10
342.395126
 20
182.24953
 30
0.0
 11
343.182088
 21
185.18651
 31
0.0
  0
LINE
  5
18B
330
1F
100
AcDbEntity
  8
SLD-0
  6
Continuous
 62
   179
100
AcDbLine
 10
342.395124
 20
202.71423
 30
0.0
 11
343.182079
 21
199.77728
 31
0.0
  0
LINE
  5
18C
330
1F
100
AcDbEntity
  8
SLD-0
  6
Continuous
 62
   179
100
AcDbLine
 10
344.3269782667
 20
205.2318720974
 30
0.0
 11
347.2218602667
 21
205.2318720974
 31
0.0
  0
LINE
  5
18D
330
1F
100
AcDbEntity
  8
SLD-0
  6
Continuous
 62
   179
100
AcDbLine
 10
344.326981
 20
209.73187
 30
0.0
 11
347.221863
 21
209.73187
 31
0.0
  0
LINE
  5
18E
330
1F
100
AcDbEntity
  8
SLD-0
  6
Continuous
 62
   179
100
AcDbLine
 10
342.395123
 20
212.24952
 30
0.0
 11
343.182085
 21
215.1865
 31
0.0
  0
LINE
  5
18F
330
1F
100
AcDbEntity
  8
SLD-0
  6
Continuous
 62
   179
100
AcDbLine
 10
144.11221
 20
226.48187
 30
0.0
 11
144.11221
 21
158.48187
 31
0.0
  0
LINE
  5
190
330
1F
100
AcDbEntity
  8
SLD-0
  6
Continuous
 62
   179
100
AcDbLine
 10
156.1122
 20
226.48187
 30
0.0
 11
156.1122
 21
158.48187
 31
0.0
  0
LINE
  5
191
330
1F
100
AcDbEntity
  8
SLD-0
  6
CENTER
 62
   179
100
AcDbLine
 10
141.11221
 20
217.48187
 30
0.0
 11
159.1122
 21
217.48187
 31
0.0
  0
LINE
  5
192
330
1F
100
AcDbEntity
  8
SLD-0
  6
Continuous
 62
   179
100
AcDbLine
 10
144.11221
 20
158.48187
 30
0.0
 11
156.1122
 21
158.48187
 31
0.0
  0
LINE
  5
193
330
1F
100
AcDbEntity
  8
SLD-0
  6
Continuous
 62
   179
100
AcDbLine
 10
144.11221
 20
226.48187
 30
0.0
 11
156.1122
 21
226.48187
 31
0.0
  0
LINE
  5
194
330
1F
100
AcDbEntity
  8
SLD-0
  6
CENTER
 62
   179
100
AcDbLine
 10
141.11221
 20
167.48187
 30
0.0
 11
159.1122
 21
167.48187
 31
0.0
  0
LINE
  5
195
330
1F
100
AcDbEntity
  8
SLD-0
  6
CENTER
 62
   179
100
AcDbLine
 10
150.1122
 20
172.48187
 30
0.0
 11
150.1122
 21
162.48187
 31
0.0
  0
LINE
  5
196
330
1F
100
AcDbEntity
  8
SLD-0
  6
CENTER
 62
   179
100
AcDbLine
 10
145.0722
 20
217.48187
 30
0.0
 11
155.15221
 21
217.48187
 31
0.0
  0
LINE
  5
197
330
1F
100
AcDbEntity
  8
SLD-0
  6
CENTER
 62
   179
100
AcDbLine
 10
150.1122
 20
222.52188
 30
0.0
 11
150.1122
 21
212.44188
 31
0.0
  0
LINE
  5
198
330
1F
100
AcDbEntity
  8
SLD-0
  6
CENTER
 62
   179
100
AcDbLine
 10
145.0722
 20
217.48187
 30
0.0
 11
155.15221
 21
217.48187
 31
0.0
  0
LINE
  5
199
330
1F
100
AcDbEntity
  8
SLD-0
  6
HIDDEN
 62
   179
100
AcDbLine
 10
144.11221
 20
219.98187
 30
0.0
 11
156.1122
 21
219.98187
 31
0.0
  0
LINE
  5
19A
330
1F
100
AcDbEntity
  8
SLD-0
  6
HIDDEN
 62
   179
100
AcDbLine
 10
144.11221
 20
219.58188
 30
0.0
 11
156.1122
 21
219.58188
 31
0.0
  0
LINE
  5
19B
330
1F
100
AcDbEntity
  8
SLD-0
  6
HIDDEN
 62
   179
100
AcDbLine
 10
144.11221
 20
215.38188
 30
0.0
 11
156.1122
 21
215.38188
 31
0.0
  0
LINE
  5
19C
330
1F
100
AcDbEntity
  8
SLD-0
  6
HIDDEN
 62
   179
100
AcDbLine
 10
144.11221
 20
214.98187
 30
0.0
 11
156.1122
 21
214.98187
 31
0.0
  0
LINE
  5
19D
330
1F
100
AcDbEntity
  8
SLD-0
  6
HIDDEN
 62
   179
100
AcDbLine
 10
144.11221
 20
169.98187
 30
0.0
 11
156.1122
 21
169.98187
 31
0.0
  0
LINE
  5
19E
330
1F
100
AcDbEntity
  8
SLD-0
  6
HIDDEN
 62
   179
100
AcDbLine
 10
144.11221
 20
169.58188
 30
0.0
 11
156.1122
 21
169.58188
 31
0.0
  0
LINE
  5
19F
330
1F
100
AcDbEntity
  8
SLD-0
  6
HIDDEN
 62
   179
100
AcDbLine
 10
144.11221
 20
165.38188
 30
0.0
 11
156.1122
 21
165.38188
 31
0.0
  0
LINE
  5
1A0
330
1F
100
AcDbEntity
  8
SLD-0
  6
HIDDEN
 62
   179
100
AcDbLine
 10
144.11221
 20
164.98187
 30
0.0
 11
156.1122
 21
164.98187
 31
0.0
  0
LINE
  5
1A1
330
1F
100
AcDbEntity
  8
SLD-0
  6
Continuous
 62
   179
100
AcDbLine
 10
78.99556
 20
178.63658
 30
0.0
 11
80.99556
 21
179.79128
 31
0.0
  0
LINE
  5
1A2
330
1F
100
AcDbEntity
  8
SLD-0
  6
Continuous
 62
   179
100
AcDbLine
 10
80.99556
 20
175.17248
 30
0.0
 11
82.99556
 21
176.32718
 31
0.0
  0
LINE
  5
1A3
330
1F
100
AcDbEntity
  8
SLD-0
  6
Continuous
 62
   179
100
AcDbLine
 10
80.99554
 20
179.79129
 30
0.0
 11
82.99556
 21
178.63658
 31
0.0
  0
LINE
  5
1A4
330
1F
100
AcDbEntity
  8
SLD-0
  6
Continuous
 62
   179
100
AcDbLine
 10
78.99554
 20
176.32719
 30
0.0
 11
80.99555
 21
175.17248
 31
0.0
  0
LINE
  5
1A5
330
1F
100
AcDbEntity
  8
SLD-0
  6
Continuous
 62
   179
100
AcDbLine
 10
82.99556
 20
178.63658
 30
0.0
 11
82.99556
 21
176.32718
 31
0.0
  0
LINE
  5
1A6
330
1F
100
AcDbEntity
  8
SLD-0
  6
Continuous
 62
   179
100
AcDbLine
 10
78.99556
 20
178.63658
 30
0.0
 11
78.99557
 21
176.32718
 31
0.0
  0
LINE
  5
1A7
330
1F
100
AcDbEntity
  8
SLD-0
  6
Continuous
 62
   179
100
AcDbLine
 10
78.99557
 20
208.63656
 30
0.0
 11
80.99557
 21
209.79126
 31
0.0
  0
LINE
  5
1A8
330
1F
100
AcDbEntity
  8
SLD-0
  6
Continuous
 62
   179
100
AcDbLine
 10
80.99557
 20
205.17246
 30
0.0
 11
82.99557
 21
206.32716
 31
0.0
  0
LINE
  5
1A9
330
1F
100
AcDbEntity
  8
SLD-0
  6
Continuous
 62
   179
100
AcDbLine
 10
80.99554
 20
209.79129
 30
0.0
 11
82.99555
 21
208.63658
 31
0.0
  0
LINE
  5
1AA
330
1F
100
AcDbEntity
  8
SLD-0
  6
Continuous
 62
   179
100
AcDbLine
 10
78.99554
 20
206.32719
 30
0.0
 11
80.99555
 21
205.17248
 31
0.0
  0
LINE
  5
1AB
330
1F
100
AcDbEntity
  8
SLD-0
  6
Continuous
 62
   179
100
AcDbLine
 10
82.99557
 20
208.63658
 30
0.0
 11
82.99557
 21
206.32718
 31
0.0
  0
LINE
  5
1AC
330
1F
100
AcDbEntity
  8
SLD-0
  6
Continuous
 62
   179
100
AcDbLine
 10
78.99557
 20
208.63658
 30
0.0
 11
78.99557
 21
206.32718
 31
0.0
  0
LINE
  5
1AD
330
1F
100
AcDbEntity
  8
SLD-0
  6
Continuous
 62
   179
100
AcDbLine
 10
193.51222
 20
169.3819
 30
0.0
 11
210.1122
 21
169.3819
 31
0.0
  0
LINE
  5
1AE
330
1F
100
AcDbEntity
  8
SLD-0
  6
Continuous
 62
   179
100
AcDbLine
 10
193.51222
 20
166.58191
 30
0.0
 11
210.1122
 21
166.58191
 31
0.0
  0
LINE
  5
1AF
330
1F
100
AcDbEntity
  8
SLD-0
  6
Continuous
 62
   179
100
AcDbLine
 10
188.1122
 20
169.9819
 30
0.0
 11
210.1122
 21
169.9819
 31
0.0
  0
LINE
  5
1B0
330
1F
100
AcDbEntity
  8
SLD-0
  6
Continuous
 62
   179
100
AcDbLine
 10
188.1122
 20
165.9819
 30
0.0
 11
210.1122
 21
165.9819
 31
0.0
  0
LINE
  5
1B1
330
1F
100
AcDbEntity
  8
SLD-0
  6
Continuous
 62
   179
100
AcDbLine
 10
188.1122
 20
169.9819
 30
0.0
 11
188.1122
 21
165.9819
 31
0.0
  0
LINE
  5
1B2
330
1F
100
AcDbEntity
  8
SLD-0
  6
Continuous
 62
   179
100
AcDbLine
 10
210.1122
 20
169.9819
 30
0.0
 11
210.1122
 21
165.9819
 31
0.0
  0
LINE
  5
1B3
330
1F
100
AcDbEntity
  8
SLD-0
  6
Continuous
 62
   179
100
AcDbLine
 10
196.8622
 20
167.2319
 30
0.0
 11
195.3622
 21
167.2319
 31
0.0
  0
LINE
  5
1B4
330
1F
100
AcDbEntity
  8
SLD-0
  6
Continuous
 62
   179
100
AcDbLine
 10
196.8622
 20
168.7319
 30
0.0
 11
195.3622
 21
168.7319
 31
0.0
  0
LINE
  5
1B5
330
1F
100
AcDbEntity
  8
SLD-0
  6
Continuous
 62
   179
100
AcDbLine
 10
189.46631
 20
169.05209
 30
0.0
 11
191.1824
 21
167.33601
 31
0.0
  0
LINE
  5
1B6
330
1F
100
AcDbEntity
  8
SLD-0
  6
Continuous
 62
   179
100
AcDbLine
 10
189.04205
 20
168.62784
 30
0.0
 11
190.75814
 21
166.91175
 31
0.0
  0
LINE
  5
1B7
330
1F
100
AcDbEntity
  8
SLD-0
  6
CENTER
 62
   179
100
AcDbLine
 10
190.1122
 20
170.7319
 30
0.0
 11
190.1122
 21
165.2319
 31
0.0
  0
LINE
  5
1B8
330
1F
100
AcDbEntity
  8
SLD-0
  6
Continuous
 62
   179
100
AcDbLine
 10
210.1122
 20
169.33191
 30
0.0
 11
219.8622
 21
169.33191
 31
0.0
  0
LINE
  5
1B9
330
1F
100
AcDbEntity
  8
SLD-0
  6
Continuous
 62
   179
100
AcDbLine
 10
210.1122
 20
166.6319
 30
0.0
 11
219.8622
 21
166.6319
 31
0.0
  0
LINE
  5
1BA
330
1F
100
AcDbEntity
  8
SLD-0
  6
Continuous
 62
   179
100
AcDbLine
 10
271.51222
 20
215.58191
 30
0.0
 11
288.11221
 21
215.58191
 31
0.0
  0
LINE
  5
1BB
330
1F
100
AcDbEntity
  8
SLD-0
  6
Continuous
 62
   179
100
AcDbLine
 10
271.51222
 20
218.3819
 30
0.0
 11
288.11221
 21
218.3819
 31
0.0
  0
LINE
  5
1BC
330
1F
100
AcDbEntity
  8
SLD-0
  6
Continuous
 62
   179
100
AcDbLine
 10
266.1122
 20
214.9819
 30
0.0
 11
288.11221
 21
214.9819
 31
0.0
  0
LINE
  5
1BD
330
1F
100
AcDbEntity
  8
SLD-0
  6
Continuous
 62
   179
100
AcDbLine
 10
266.1122
 20
218.9819
 30
0.0
 11
288.11221
 21
218.9819
 31
0.0
  0
LINE
  5
1BE
330
1F
100
AcDbEntity
  8
SLD-0
  6
Continuous
 62
   179
100
AcDbLine
 10
266.1122
 20
214.9819
 30
0.0
 11
266.1122
 21
218.9819
 31
0.0
  0
LINE
  5
1BF
330
1F
100
AcDbEntity
  8
SLD-0
  6
Continuous
 62
   179
100
AcDbLine
 10
288.11221
 20
214.9819
 30
0.0
 11
288.11221
 21
218.9819
 31
0.0
  0
LINE
  5
1C0
330
1F
100
AcDbEntity
  8
SLD-0
  6
Continuous
 62
   179
100
AcDbLine
 10
274.86221
 20
217.7319
 30
0.0
 11
273.3622
 21
217.7319
 31
0.0
  0
LINE
  5
1C1
330
1F
100
AcDbEntity
  8
SLD-0
  6
Continuous
 62
   179
100
AcDbLine
 10
274.86221
 20
216.2319
 30
0.0
 11
273.3622
 21
216.2319
 31
0.0
  0
LINE
  5
1C2
330
1F
100
AcDbEntity
  8
SLD-0
  6
Continuous
 62
   179
100
AcDbLine
 10
267.46631
 20
215.91173
 30
0.0
 11
269.18239
 21
217.62781
 31
0.0
  0
LINE
  5
1C3
330
1F
100
AcDbEntity
  8
SLD-0
  6
Continuous
 62
   179
100
AcDbLine
 10
267.04205
 20
216.33599
 30
0.0
 11
268.75814
 21
218.05207
 31
0.0
  0
LINE
  5
1C4
330
1F
100
AcDbEntity
  8
SLD-0
  6
CENTER
 62
   179
100
AcDbLine
 10
268.1122
 20
214.2319
 30
0.0
 11
268.1122
 21
219.7319
 31
0.0
  0
LINE
  5
1C5
330
1F
100
AcDbEntity
  8
SLD-0
  6
Continuous
 62
   179
100
AcDbLine
 10
288.11221
 20
215.6319
 30
0.0
 11
297.86221
 21
215.6319
 31
0.0
  0
LINE
  5
1C6
330
1F
100
AcDbEntity
  8
SLD-0
  6
Continuous
 62
   179
100
AcDbLine
 10
288.11221
 20
218.33191
 30
0.0
 11
297.86221
 21
218.33191
 31
0.0
  0
LINE
  5
1C7
330
1F
100
AcDbEntity
  8
SLD-0
  6
HIDDEN
 62
   179
100
AcDbLine
 10
334.465763
 20
227.18188
 30
0.0
 11
334.165769
 21
227.48188
 31
0.0
  0
LINE
  5
1C8
330
1F
100
AcDbEntity
  8
SLD-0
  6
HIDDEN
 62
   179
100
AcDbLine
 10
339.465767
 20
221.48187
 30
0.0
 11
334.465767
 21
221.48187
 31
0.0
  0
LINE
  5
1C9
330
1F
100
AcDbEntity
  8
SLD-0
  6
HIDDEN
 62
   179
100
AcDbLine
 10
339.465759
 20
227.18188
 30
0.0
 11
339.765759
 21
227.48188
 31
0.0
  0
LINE
  5
1CA
330
1F
100
AcDbEntity
  8
SLD-0
  6
HIDDEN
 62
   179
100
AcDbLine
 10
334.815765
 20
218.98187
 30
0.0
 11
334.815765
 21
227.18187
 31
0.0
  0
LINE
  5
1CB
330
1F
100
AcDbEntity
  8
SLD-0
  6
HIDDEN
 62
   179
100
AcDbLine
 10
336.215767
 20
217.45372
 30
0.0
 11
336.215767
 21
218.98187
 31
0.0
  0
LINE
  5
1CC
330
1F
100
AcDbEntity
  8
SLD-0
  6
HIDDEN
 62
   179
100
AcDbLine
 10
339.115768
 20
218.98187
 30
0.0
 11
334.815765
 21
218.98187
 31
0.0
  0
LINE
  5
1CD
330
1F
100
AcDbEntity
  8
SLD-0
  6
HIDDEN
 62
   179
100
AcDbLine
 10
337.715767
 20
217.45372
 30
0.0
 11
337.715767
 21
218.98187
 31
0.0
  0
LINE
  5
1CE
330
1F
100
AcDbEntity
  8
SLD-0
  6
HIDDEN
 62
   179
100
AcDbLine
 10
339.465767
 20
221.48187
 30
0.0
 11
339.115768
 21
220.87566
 31
0.0
  0
LINE
  5
1CF
330
1F
100
AcDbEntity
  8
SLD-0
  6
HIDDEN
 62
   179
100
AcDbLine
 10
339.465767
 20
227.18187
 30
0.0
 11
334.465767
 21
227.18187
 31
0.0
  0
LINE
  5
1D0
330
1F
100
AcDbEntity
  8
SLD-0
  6
HIDDEN
 62
   179
100
AcDbLine
 10
334.815761
 20
220.87566
 30
0.0
 11
334.465767
 21
221.48187
 31
0.0
  0
LINE
  5
1D1
330
1F
100
AcDbEntity
  8
SLD-0
  6
HIDDEN
 62
   179
100
AcDbLine
 10
339.115768
 20
218.98187
 30
0.0
 11
339.115768
 21
227.18187
 31
0.0
  0
LINE
  5
1D2
330
1F
100
AcDbEntity
  8
SLD-0
  6
HIDDEN
 62
   179
100
AcDbLine
 10
334.465767
 20
221.48187
 30
0.0
 11
334.465767
 21
227.18187
 31
0.0
  0
LINE
  5
1D3
330
1F
100
AcDbEntity
  8
SLD-0
  6
HIDDEN
 62
   179
100
AcDbLine
 10
339.465767
 20
221.48187
 30
0.0
 11
339.465767
 21
227.18187
 31
0.0
  0
LINE
  5
1D4
330
1F
100
AcDbEntity
  8
SLD-0
  6
HIDDEN
 62
   179
100
AcDbLine
 10
334.465767
 20
157.78188
 30
0.0
 11
334.165773
 21
157.48188
 31
0.0
  0
LINE
  5
1D5
330
1F
100
AcDbEntity
  8
SLD-0
  6
HIDDEN
 62
   179
100
AcDbLine
 10
339.465767
 20
163.48189
 30
0.0
 11
334.465767
 21
163.48189
 31
0.0
  0
LINE
  5
1D6
330
1F
100
AcDbEntity
  8
SLD-0
  6
HIDDEN
 62
   179
100
AcDbLine
 10
339.465766
 20
157.78188
 30
0.0
 11
339.76576
 21
157.48188
 31
0.0
  0
LINE
  5
1D7
330
1F
100
AcDbEntity
  8
SLD-0
  6
HIDDEN
 62
   179
100
AcDbLine
 10
334.815765
 20
165.98189
 30
0.0
 11
334.815765
 21
157.78189
 31
0.0
  0
LINE
  5
1D8
330
1F
100
AcDbEntity
  8
SLD-0
  6
HIDDEN
 62
   179
100
AcDbLine
 10
336.215767
 20
167.51004
 30
0.0
 11
336.215767
 21
165.98189
 31
0.0
  0
LINE
  5
1D9
330
1F
100
AcDbEntity
  8
SLD-0
  6
HIDDEN
 62
   179
100
AcDbLine
 10
339.115768
 20
165.98189
 30
0.0
 11
334.815765
 21
165.98189
 31
0.0
  0
LINE
  5
1DA
330
1F
100
AcDbEntity
  8
SLD-0
  6
HIDDEN
 62
   179
100
AcDbLine
 10
337.715767
 20
167.51004
 30
0.0
 11
337.715767
 21
165.98189
 31
0.0
  0
LINE
  5
1DB
330
1F
100
AcDbEntity
  8
SLD-0
  6
HIDDEN
 62
   179
100
AcDbLine
 10
339.465767
 20
163.48188
 30
0.0
 11
339.115769
 21
164.08809
 31
0.0
  0
LINE
  5
1DC
330
1F
100
AcDbEntity
  8
SLD-0
  6
HIDDEN
 62
   179
100
AcDbLine
 10
339.465766
 20
157.78188
 30
0.0
 11
334.465767
 21
157.78188
 31
0.0
  0
LINE
  5
1DD
330
1F
100
AcDbEntity
  8
SLD-0
  6
HIDDEN
 62
   179
100
AcDbLine
 10
334.815769
 20
164.08809
 30
0.0
 11
334.46577
 21
163.48188
 31
0.0
  0
LINE
  5
1DE
330
1F
100
AcDbEntity
  8
SLD-0
  6
HIDDEN
 62
   179
100
AcDbLine
 10
339.115768
 20
165.98189
 30
0.0
 11
339.115768
 21
157.78189
 31
0.0
  0
LINE
  5
1DF
330
1F
100
AcDbEntity
  8
SLD-0
  6
HIDDEN
 62
   179
100
AcDbLine
 10
334.465767
 20
163.48189
 30
0.0
 11
334.465767
 21
157.78188
 31
0.0
  0
LINE
  5
1E0
330
1F
100
AcDbEntity
  8
SLD-0
  6
HIDDEN
 62
   179
100
AcDbLine
 10
339.465767
 20
163.48189
 30
0.0
 11
339.465766
 21
157.78188
 31
0.0
  0
LINE
  5
1E1
330
1F
100
AcDbEntity
  8
SLD-0
  6
HIDDEN
 62
   179
100
AcDbLine
 10
188.26221
 20
93.375674
 30
0.0
 11
188.61221
 21
93.981889
 31
0.0
  0
LINE
  5
1E2
330
1F
100
AcDbEntity
  8
SLD-0
  6
HIDDEN
 62
   179
100
AcDbLine
 10
186.1122
 20
84.240584
 30
0.0
 11
183.9622
 21
85.481886
 31
0.0
  0
LINE
  5
1E3
330
1F
100
AcDbEntity
  8
SLD-0
  6
HIDDEN
 62
   179
100
AcDbLine
 10
186.1122
 20
84.240584
 30
0.0
 11
188.2622
 21
85.481892
 31
0.0
  0
LINE
  5
1E4
330
1F
100
AcDbEntity
  8
SLD-0
  6
HIDDEN
 62
   179
100
AcDbLine
 10
188.2622
 20
85.481892
 30
0.0
 11
183.9622
 21
85.481886
 31
0.0
  0
LINE
  5
1E5
330
1F
100
AcDbEntity
  8
SLD-0
  6
HIDDEN
 62
   179
100
AcDbLine
 10
188.6122
 20
93.981888
 30
0.0
 11
183.6122
 21
93.981888
 31
0.0
  0
LINE
  5
1E6
330
1F
100
AcDbEntity
  8
SLD-0
  6
HIDDEN
 62
   179
100
AcDbLine
 10
183.9622
 20
85.481886
 30
0.0
 11
183.9622
 21
99.981895
 31
0.0
  0
LINE
  5
1E7
330
1F
100
AcDbEntity
  8
SLD-0
  6
HIDDEN
 62
   179
100
AcDbLine
 10
188.2622
 20
85.481892
 30
0.0
 11
188.26221
 21
99.981895
 31
0.0
  0
LINE
  5
1E8
330
1F
100
AcDbEntity
  8
SLD-0
  6
HIDDEN
 62
   179
100
AcDbLine
 10
183.6122
 20
93.981888
 30
0.0
 11
183.6122
 21
99.981895
 31
0.0
  0
LINE
  5
1E9
330
1F
100
AcDbEntity
  8
SLD-0
  6
HIDDEN
 62
   179
100
AcDbLine
 10
188.6122
 20
93.981888
 30
0.0
 11
188.6122
 21
99.981895
 31
0.0
  0
LINE
  5
1EA
330
1F
100
AcDbEntity
  8
SLD-0
  6
HIDDEN
 62
   179
100
AcDbLine
 10
183.9622
 20
93.375683
 30
0.0
 11
183.6122
 21
93.981899
 31
0.0
  0
LINE
  5
1EB
330
1F
100
AcDbEntity
  8
SLD-0
  6
CENTER
 62
   179
100
AcDbLine
 10
186.1122
 20
82.854668
 30
0.0
 11
186.1122
 21
101.529274
 31
0.0
  0
LINE
  5
1EC
330
1F
100
AcDbEntity
  8
SLD-0
  6
HIDDEN
 62
   179
100
AcDbLine
 10
281.26221
 20
93.375674
 30
0.0
 11
281.6122
 21
93.981889
 31
0.0
  0
LINE
  5
1ED
330
1F
100
AcDbEntity
  8
SLD-0
  6
HIDDEN
 62
   179
100
AcDbLine
 10
279.1122
 20
84.240586
 30
0.0
 11
276.9622
 21
85.481889
 31
0.0
  0
LINE
  5
1EE
330
1F
100
AcDbEntity
  8
SLD-0
  6
HIDDEN
 62
   179
100
AcDbLine
 10
279.1122
 20
84.240586
 30
0.0
 11
281.2622
 21
85.481888
 31
0.0
  0
LINE
  5
1EF
330
1F
100
AcDbEntity
  8
SLD-0
  6
HIDDEN
 62
   179
100
AcDbLine
 10
281.2622
 20
85.481888
 30
0.0
 11
276.9622
 21
85.481889
 31
0.0
  0
LINE
  5
1F0
330
1F
100
AcDbEntity
  8
SLD-0
  6
HIDDEN
 62
   179
100
AcDbLine
 10
281.6122
 20
93.981889
 30
0.0
 11
276.61221
 21
93.981888
 31
0.0
  0
LINE
  5
1F1
330
1F
100
AcDbEntity
  8
SLD-0
  6
HIDDEN
 62
   179
100
AcDbLine
 10
276.9622
 20
85.481889
 30
0.0
 11
276.9622
 21
99.981895
 31
0.0
  0
LINE
  5
1F2
330
1F
100
AcDbEntity
  8
SLD-0
  6
HIDDEN
 62
   179
100
AcDbLine
 10
281.2622
 20
85.481888
 30
0.0
 11
281.26221
 21
99.981895
 31
0.0
  0
LINE
  5
1F3
330
1F
100
AcDbEntity
  8
SLD-0
  6
HIDDEN
 62
   179
100
AcDbLine
 10
276.61221
 20
93.981888
 30
0.0
 11
276.61221
 21
99.981895
 31
0.0
  0
LINE
  5
1F4
330
1F
100
AcDbEntity
  8
SLD-0
  6
HIDDEN
 62
   179
100
AcDbLine
 10
281.6122
 20
93.981889
 30
0.0
 11
281.61221
 21
99.981895
 31
0.0
  0
LINE
  5
1F5
330
1F
100
AcDbEntity
  8
SLD-0
  6
HIDDEN
 62
   179
100
AcDbLine
 10
276.9622
 20
93.375683
 30
0.0
 11
276.6122
 21
93.981898
 31
0.0
  0
LINE
  5
1F6
330
1F
100
AcDbEntity
  8
SLD-0
  6
CENTER
 62
   179
100
AcDbLine
 10
279.11221
 20
82.854668
 30
0.0
 11
279.11221
 21
101.529274
 31
0.0
  0
LINE
  5
1F7
330
1F
100
AcDbEntity
  8
SLD-0
  6
Continuous
 62
   179
100
AcDbLine
 10
402.75
 20
285.0
 30
0.0
 11
402.75
 21
12.0
 31
0.0
  0
LINE
  5
1F8
330
1F
100
AcDbEntity
  8
SLD-0
  6
Continuous
 62
   179
100
AcDbLine
 10
17.25
 20
12.0
 30
0.0
 11
402.75
 21
12.0
 31
0.0
  0
LINE
  5
1F9
330
1F
100
AcDbEntity
  8
SLD-0
  6
Continuous
 62
   179
100
AcDbLine
 10
17.25
 20
285.0
 30
0.0
 11
17.25
 21
12.0
 31
0.0
  0
LINE
  5
1FA
330
1F
100
AcDbEntity
  8
SLD-0
  6
Continuous
 62
   179
100
AcDbLine
 10
17.25
 20
285.0
 30
0.0
 11
402.75
 21
285.0
 31
0.0
  0
LINE
  5
1FB
330
1F
100
AcDbEntity
  8
SLD-0
  6
Continuous
 62
   179
100
AcDbLine
 10
334.25
 20
50.700001
 30
0.0
 11
334.25
 21
12.0
 31
0.0
  0
LINE
  5
1FC
330
1F
100
AcDbEntity
  8
SLD-0
  6
Continuous
 62
   179
100
AcDbLine
 10
334.25
 20
24.7
 30
0.0
 11
402.75
 21
24.7
 31
0.0
  0
LINE
  5
1FD
330
1F
100
AcDbEntity
  8
SLD-0
  6
Continuous
 62
   179
100
AcDbLine
 10
334.25
 20
37.200001
 30
0.0
 11
402.75
 21
37.200001
 31
0.0
  0
LINE
  5
1FE
330
1F
100
AcDbEntity
  8
SLD-0
  6
Continuous
 62
   179
100
AcDbLine
 10
334.25
 20
50.700001
 30
0.0
 11
402.75
 21
50.700001
 31
0.0
  0
LINE
  5
1FF
330
1F
100
AcDbEntity
  8
SLD-0
  6
Continuous
 62
   179
100
AcDbLine
 10
219.85345
 20
167.99648
 30
0.0
 11
219.76922
 21
168.13716
 31
0.0
  0
LINE
  5
200
330
1F
100
AcDbEntity
  8
SLD-0
  6
Continuous
 62
   179
100
AcDbLine
 10
297.85345
 20
216.96735
 30
0.0
 11
297.76922
 21
216.82666
 31
0.0
  0
LINE
  5
201
330
1F
100
AcDbEntity
  8
SLD-0
  6
Continuous
 62
   179
100
AcDbLine
 10
366.009888
 20
221.48187
 30
0.0
 11
366.009888
 21
163.48187
 31
0.0
  0
LINE
  5
202
330
1F
100
AcDbEntity
  8
SLD-0
  6
Continuous
 62
   179
100
AcDbLine
 10
366.009888
 20
221.48187
 30
0.0
 11
367.009888
 21
218.48187
 31
0.0
  0
LINE
  5
203
330
1F
100
AcDbEntity
  8
SLD-0
  6
Continuous
 62
   179
100
AcDbLine
 10
366.009888
 20
221.48187
 30
0.0
 11
365.009888
 21
218.48187
 31
0.0
  0
LINE
  5
204
330
1F
100
AcDbEntity
  8
SLD-0
  6
Continuous
 62
   179
100
AcDbLine
 10
366.009888
 20
163.48187
 30
0.0
 11
365.009888
 21
166.48187
 31
0.0
  0
LINE
  5
205
330
1F
100
AcDbEntity
  8
SLD-0
  6
Continuous
 62
   179
100
AcDbLine
 10
366.009888
 20
163.48187
 30
0.0
 11
367.009888
 21
166.48187
 31
0.0
  0
LINE
  5
206
330
1F
100
AcDbEntity
  8
SLD-0
  6
Continuous
 62
   179
100
AcDbLine
 10
351.965767
 20
221.48187
 30
0.0
 11
368.295887
 21
221.48187
 31
0.0
  0
LINE
  5
207
330
1F
100
AcDbEntity
  8
SLD-0
  6
Continuous
 62
   179
100
AcDbLine
 10
351.965767
 20
163.48187
 30
0.0
 11
368.295887
 21
163.48187
 31
0.0
  0
CIRCLE
  5
208
330
1F
100
AcDbEntity
  8
SLD-0
  6
Continuous
 62
   179
100
AcDbCircle
 10
185.1122
 20
87.481895
 30
0.0
 40
2.1500001
  0
CIRCLE
  5
209
330
1F
100
AcDbEntity
  8
SLD-0
  6
Continuous
 62
   179
100
AcDbCircle
 10
279.11221
 20
87.481895
 30
0.0
 40
2.1500001
  0
CIRCLE
  5
20A
330
1F
100
AcDbEntity
  8
SLD-0
  6
Continuous
 62
   179
100
AcDbCircle
 10
279.11221
 20
87.481895
 30
0.0
 40
2.5
  0
CIRCLE
  5
20B
330
1F
100
AcDbEntity
  8
SLD-0
  6
Continuous
 62
   179
100
AcDbCircle
 10
185.1122
 20
87.481895
 30
0.0
 40
2.5
  0
CIRCLE
  5
20C
330
1F
100
AcDbEntity
  8
SLD-0
  6
Continuous
 62
   179
100
AcDbCircle
 10
279.11221
 20
87.481895
 30
0.0
 40
1.25
  0
CIRCLE
  5
20D
330
1F
100
AcDbEntity
  8
SLD-0
  6
Continuous
 62
   179
100
AcDbCircle
 10
185.1122
 20
87.481895
 30
0.0
 40
1.25
  0
CIRCLE
  5
20E
330
1F
100
AcDbEntity
  8
SLD-0
  6
Continuous
 62
   179
100
AcDbCircle
 10
336.965767
 20
207.48187
 30
0.0
 40
10.5
  0
CIRCLE
  5
20F
330
1F
100
AcDbEntity
  8
SLD-0
  6
Continuous
 62
   179
100
AcDbCircle
 10
336.965767
 20
177.48187
 30
0.0
 40
10.5
  0
ARC
  5
210
330
1F
100
AcDbEntity
  8
SLD-0
  6
Continuous
 62
   179
100
AcDbCircle
 10
324.765755
 20
205.68187
 30
0.0
 40
0.2000000000000171
100
AcDbArc
 50
270.0
 51
0.0
  0
ARC
  5
211
330
1F
100
AcDbEntity
  8
SLD-0
  6
Continuous
 62
   179
100
AcDbCircle
 10
324.665779
 20
174.78188
 30
0.0
 40
0.2000000000000176
100
AcDbArc
 50
89.999996
 51
180.0
  0
ARC
  5
212
330
1F
100
AcDbEntity
  8
SLD-0
  6
Continuous
 62
   179
100
AcDbCircle
 10
324.765755
 20
202.68187
 30
0.0
 40
0.2000000000000171
100
AcDbArc
 50
270.0
 51
0.0
  0
ARC
  5
213
330
1F
100
AcDbEntity
  8
SLD-0
  6
Continuous
 62
   179
100
AcDbCircle
 10
324.765755
 20
179.281875
 30
0.0
 40
0.1999949999999728
100
AcDbArc
 50
360.0
 51
90.0
  0
ARC
  5
214
330
1F
100
AcDbEntity
  8
SLD-0
  6
Continuous
 62
   179
100
AcDbCircle
 10
324.765755
 20
173.28188
 30
0.0
 40
0.2000000000000173
100
AcDbArc
 50
360.0
 51
90.000003
  0
ARC
  5
215
330
1F
100
AcDbEntity
  8
SLD-0
  6
Continuous
 62
   179
100
AcDbCircle
 10
324.765755
 20
181.18187
 30
0.0
 40
0.2000000000000171
100
AcDbArc
 50
270.0
 51
0.0
  0
ARC
  5
216
330
1F
100
AcDbEntity
  8
SLD-0
  6
Continuous
 62
   179
100
AcDbCircle
 10
324.665779
 20
173.68187
 30
0.0
 40
0.2000000000000171
100
AcDbArc
 50
180.0
 51
270.0
  0
ARC
  5
217
330
1F
100
AcDbEntity
  8
SLD-0
  6
Continuous
 62
   179
100
AcDbCircle
 10
325.454979
 20
218.781875005
 30
0.0
 40
0.3000050050000311
100
AcDbArc
 50
270.0
 51
310.00776
  0
ARC
  5
218
330
1F
100
AcDbEntity
  8
SLD-0
  6
Continuous
 62
   179
100
AcDbCircle
 10
324.665779
 20
205.28188
 30
0.0
 40
0.2000000000000176
100
AcDbArc
 50
89.999996
 51
180.0
  0
ARC
  5
219
330
1F
100
AcDbEntity
  8
SLD-0
  6
Continuous
 62
   179
100
AcDbCircle
 10
324.765755
 20
203.78188
 30
0.0
 40
0.2000000000000173
100
AcDbArc
 50
360.0
 51
90.000003
  0
ARC
  5
21A
330
1F
100
AcDbEntity
  8
SLD-0
  6
Continuous
 62
   179
100
AcDbCircle
 10
324.765755
 20
182.281875
 30
0.0
 40
0.1999949999999728
100
AcDbArc
 50
360.0
 51
90.0
  0
ARC
  5
21B
330
1F
100
AcDbEntity
  8
SLD-0
  6
Continuous
 62
   179
100
AcDbCircle
 10
324.665779
 20
208.281875
 30
0.0
 40
0.1999949999999728
100
AcDbArc
 50
90.0
 51
180.0
  0
ARC
  5
21C
330
1F
100
AcDbEntity
  8
SLD-0
  6
Continuous
 62
   179
100
AcDbCircle
 10
324.765755
 20
178.18187
 30
0.0
 40
0.2000000000000455
100
AcDbArc
 50
270.0
 51
0.0
  0
ARC
  5
21D
330
1F
100
AcDbEntity
  8
SLD-0
  6
Continuous
 62
   179
100
AcDbCircle
 10
324.765755
 20
206.78188
 30
0.0
 40
0.2000000000000173
100
AcDbArc
 50
360.0
 51
90.000003
  0
ARC
  5
21E
330
1F
100
AcDbEntity
  8
SLD-0
  6
Continuous
 62
   179
100
AcDbCircle
 10
324.665779
 20
180.781875
 30
0.0
 40
0.1999949999999728
100
AcDbArc
 50
90.0
 51
180.0
  0
ARC
  5
21F
330
1F
100
AcDbEntity
  8
SLD-0
  6
Continuous
 62
   179
100
AcDbCircle
 10
324.665779
 20
171.78188
 30
0.0
 40
0.1999999999999917
100
AcDbArc
 50
89.999996
 51
180.0
  0
ARC
  5
220
330
1F
100
AcDbEntity
  8
SLD-0
  6
Continuous
 62
   179
100
AcDbCircle
 10
324.765755
 20
176.281875
 30
0.0
 40
0.1999949999999728
100
AcDbArc
 50
360.0
 51
90.0
  0
ARC
  5
221
330
1F
100
AcDbEntity
  8
SLD-0
  6
Continuous
 62
   179
100
AcDbCircle
 10
342.165779
 20
166.431870005
 30
0.0
 40
0.3000000050000153
100
AcDbArc
 50
270.0
 51
0.0
  0
ARC
  5
222
330
1F
100
AcDbEntity
  8
SLD-0
  6
Continuous
 62
   179
100
AcDbCircle
 10
340.765755
 20
165.831864995
 30
0.0
 40
0.3000050050000311
100
AcDbArc
 50
90.0
 51
180.0
  0
ARC
  5
223
330
1F
100
AcDbEntity
  8
SLD-0
  6
Continuous
 62
   179
100
AcDbCircle
 10
340.765755
 20
219.131880005
 30
0.0
 40
0.3000000050000199
100
AcDbArc
 50
180.0
 51
270.0
  0
ARC
  5
224
330
1F
100
AcDbEntity
  8
SLD-0
  6
Continuous
 62
   179
100
AcDbCircle
 10
342.165779
 20
218.531879995
 30
0.0
 40
0.3000000050000199
100
AcDbArc
 50
360.0
 51
90.0
  0
ARC
  5
225
330
1F
100
AcDbEntity
  8
SLD-0
  6
Continuous
 62
   179
100
AcDbCircle
 10
342.165779
 20
224.431870005
 30
0.0
 40
0.3000000050000153
100
AcDbArc
 50
270.0
 51
0.0
  0
ARC
  5
226
330
1F
100
AcDbEntity
  8
SLD-0
  6
Continuous
 62
   179
100
AcDbCircle
 10
324.665779
 20
182.68187
 30
0.0
 40
0.2000000000000171
100
AcDbArc
 50
180.0
 51
270.0
  0
ARC
  5
227
330
1F
100
AcDbEntity
  8
SLD-0
  6
Continuous
 62
   179
100
AcDbCircle
 10
324.665779
 20
210.18187
 30
0.0
 40
0.2000000000000455
100
AcDbArc
 50
180.0
 51
270.0
  0
ARC
  5
228
330
1F
100
AcDbEntity
  8
SLD-0
  6
Continuous
 62
   179
100
AcDbCircle
 10
324.665779
 20
202.28188
 30
0.0
 40
0.1999999999999917
100
AcDbArc
 50
89.999996
 51
180.0
  0
CIRCLE
  5
229
330
1F
100
AcDbEntity
  8
SLD-0
  6
Continuous
 62
   179
100
AcDbCircle
 10
186.1122
 20
192.4819
 30
0.0
 40
2.5
  0
CIRCLE
  5
22A
330
1F
100
AcDbEntity
  8
SLD-0
  6
HIDDEN
 62
   179
100
AcDbCircle
 10
336.965767
 20
207.48187
 30
0.0
 40
10.0
  0
CIRCLE
  5
22B
330
1F
100
AcDbEntity
  8
SLD-0
  6
HIDDEN
 62
   179
100
AcDbCircle
 10
336.965767
 20
177.48187
 30
0.0
 40
10.0
  0
ARC
  5
22C
330
1F
100
AcDbEntity
  8
SLD-0
  6
Continuous
 62
   179
100
AcDbCircle
 10
324.665779
 20
204.18187
 30
0.0
 40
0.2000000000000171
100
AcDbArc
 50
180.0
 51
270.0
  0
ARC
  5
22D
330
1F
100
AcDbEntity
  8
SLD-0
  6
Continuous
 62
   179
100
AcDbCircle
 10
324.765755
 20
208.68187
 30
0.0
 40
0.2000000000000455
100
AcDbArc
 50
270.0
 51
0.0
  0
ARC
  5
22E
330
1F
100
AcDbEntity
  8
SLD-0
  6
Continuous
 62
   179
100
AcDbCircle
 10
342.165779
 20
160.531879995
 30
0.0
 40
0.3000000050000199
100
AcDbArc
 50
360.0
 51
90.0
  0
ARC
  5
22F
330
1F
100
AcDbEntity
  8
SLD-0
  6
Continuous
 62
   179
100
AcDbCircle
 10
340.765755
 20
161.131880005
 30
0.0
 40
0.3000000050000199
100
AcDbArc
 50
180.0
 51
270.0
  0
ARC
  5
230
330
1F
100
AcDbEntity
  8
SLD-0
  6
Continuous
 62
   179
100
AcDbCircle
 10
340.765755
 20
223.831864995
 30
0.0
 40
0.3000050050000073
100
AcDbArc
 50
90.0
 51
180.0
  0
ARC
  5
231
330
1F
100
AcDbEntity
  8
SLD-0
  6
Continuous
 62
   179
100
AcDbCircle
 10
325.454979
 20
215.181869995
 30
0.0
 40
0.3000000050000153
100
AcDbArc
 50
49.992245
 51
90.0
  0
ARC
  5
232
330
1F
100
AcDbEntity
  8
SLD-0
  6
Continuous
 62
   179
100
AcDbCircle
 10
324.665779
 20
213.18187
 30
0.0
 40
0.2000000000000171
100
AcDbArc
 50
180.0
 51
270.0
  0
ARC
  5
233
330
1F
100
AcDbEntity
  8
SLD-0
  6
Continuous
 62
   179
100
AcDbCircle
 10
324.765755
 20
211.68187
 30
0.0
 40
0.2000000000000171
100
AcDbArc
 50
270.0
 51
0.0
  0
ARC
  5
234
330
1F
100
AcDbEntity
  8
SLD-0
  6
Continuous
 62
   179
100
AcDbCircle
 10
324.765755
 20
209.781875
 30
0.0
 40
0.1999949999999728
100
AcDbArc
 50
360.0
 51
90.0
  0
ARC
  5
235
330
1F
100
AcDbEntity
  8
SLD-0
  6
Continuous
 62
   179
100
AcDbCircle
 10
349.165779
 20
166.431870005
 30
0.0
 40
0.3000000050000722
100
AcDbArc
 50
270.0
 51
0.0
  0
ARC
  5
236
330
1F
100
AcDbEntity
  8
SLD-0
  6
Continuous
 62
   179
100
AcDbCircle
 10
347.265755
 20
166.431870005
 30
0.0
 40
0.3000000050000199
100
AcDbArc
 50
180.0
 51
270.0
  0
ARC
  5
237
330
1F
100
AcDbEntity
  8
SLD-0
  6
Continuous
 62
   179
100
AcDbCircle
 10
346.665779
 20
167.231874995
 30
0.0
 40
0.3000050050000311
100
AcDbArc
 50
360.0
 51
90.0
  0
ARC
  5
238
330
1F
100
AcDbEntity
  8
SLD-0
  6
Continuous
 62
   179
100
AcDbCircle
 10
342.765755
 20
167.231874995
 30
0.0
 40
0.3000050050000311
100
AcDbArc
 50
90.0
 51
180.0
  0
ARC
  5
239
330
1F
100
AcDbEntity
  8
SLD-0
  6
Continuous
 62
   179
100
AcDbCircle
 10
342.765755
 20
159.731870005
 30
0.0
 40
0.3000000050000199
100
AcDbArc
 50
180.0
 51
270.0
  0
ARC
  5
23A
330
1F
100
AcDbEntity
  8
SLD-0
  6
Continuous
 62
   179
100
AcDbCircle
 10
346.665779
 20
159.731870005
 30
0.0
 40
0.3000000050000722
100
AcDbArc
 50
270.0
 51
0.0
  0
ARC
  5
23B
330
1F
100
AcDbEntity
  8
SLD-0
  6
Continuous
 62
   179
100
AcDbCircle
 10
347.265755
 20
160.531879995
 30
0.0
 40
0.3000000050000199
100
AcDbArc
 50
90.0
 51
180.0
  0
ARC
  5
23C
330
1F
100
AcDbEntity
  8
SLD-0
  6
Continuous
 62
   179
100
AcDbCircle
 10
349.165779
 20
160.531879995
 30
0.0
 40
0.3000000050000768
100
AcDbArc
 50
360.0
 51
90.0
  0
ARC
  5
23D
330
1F
100
AcDbEntity
  8
SLD-0
  6
Continuous
 62
   179
100
AcDbCircle
 10
349.165779
 20
218.531879995
 30
0.0
 40
0.3000000050000768
100
AcDbArc
 50
360.0
 51
90.0
  0
ARC
  5
23E
330
1F
100
AcDbEntity
  8
SLD-0
  6
Continuous
 62
   179
100
AcDbCircle
 10
347.265755
 20
218.531879995
 30
0.0
 40
0.3000000050000199
100
AcDbArc
 50
90.0
 51
180.0
  0
ARC
  5
23F
330
1F
100
AcDbEntity
  8
SLD-0
  6
Continuous
 62
   179
100
AcDbCircle
 10
346.665779
 20
217.731870005
 30
0.0
 40
0.3000000050000722
100
AcDbArc
 50
270.0
 51
0.0
  0
ARC
  5
240
330
1F
100
AcDbEntity
  8
SLD-0
  6
Continuous
 62
   179
100
AcDbCircle
 10
342.765755
 20
217.731870005
 30
0.0
 40
0.3000000050000199
100
AcDbArc
 50
180.0
 51
270.0
  0
ARC
  5
241
330
1F
100
AcDbEntity
  8
SLD-0
  6
Continuous
 62
   179
100
AcDbCircle
 10
342.765755
 20
225.231874995
 30
0.0
 40
0.3000050050000311
100
AcDbArc
 50
90.0
 51
180.0
  0
ARC
  5
242
330
1F
100
AcDbEntity
  8
SLD-0
  6
Continuous
 62
   179
100
AcDbCircle
 10
347.265755
 20
224.431870005
 30
0.0
 40
0.3000000050000199
100
AcDbArc
 50
180.0
 51
270.0
  0
ARC
  5
243
330
1F
100
AcDbEntity
  8
SLD-0
  6
Continuous
 62
   179
100
AcDbCircle
 10
346.665779
 20
225.231874995
 30
0.0
 40
0.3000050050000311
100
AcDbArc
 50
360.0
 51
90.0
  0
ARC
  5
244
330
1F
100
AcDbEntity
  8
SLD-0
  6
Continuous
 62
   179
100
AcDbCircle
 10
349.165779
 20
224.431870005
 30
0.0
 40
0.3000000050000722
100
AcDbArc
 50
270.0
 51
0.0
  0
ARC
  5
245
330
1F
100
AcDbEntity
  8
SLD-0
  6
Continuous
 62
   179
100
AcDbCircle
 10
326.9657683418
 20
167.9818736858
 30
0.0
 40
2.050000000000019
100
AcDbArc
 50
229.99224
 51
130.00776
  0
ARC
  5
246
330
1F
100
AcDbEntity
  8
SLD-0
  6
Continuous
 62
   179
100
AcDbCircle
 10
326.9657683418
 20
216.9818715937
 30
0.0
 40
2.049997907864906
100
AcDbArc
 50
229.9923852465
 51
130.00776
  0
ARC
  5
247
330
1F
100
AcDbEntity
  8
SLD-0
  6
Continuous
 62
   179
100
AcDbCircle
 10
324.765755
 20
215.181869995
 30
0.0
 40
0.3000000050000768
100
AcDbArc
 50
90.0
 51
180.0
  0
ARC
  5
248
330
1F
100
AcDbEntity
  8
SLD-0
  6
Continuous
 62
   179
100
AcDbCircle
 10
324.665779
 20
211.281875
 30
0.0
 40
0.1999949999999728
100
AcDbArc
 50
90.0
 51
180.0
  0
ARC
  5
249
330
1F
100
AcDbEntity
  8
SLD-0
  6
Continuous
 62
   179
100
AcDbCircle
 10
324.765755
 20
218.781875005
 30
0.0
 40
0.3000050050000311
100
AcDbArc
 50
180.0
 51
270.0
  0
ARC
  5
24A
330
1F
100
AcDbEntity
  8
SLD-0
  6
Continuous
 62
   179
100
AcDbCircle
 10
324.765755
 20
169.781875005
 30
0.0
 40
0.3000050050000073
100
AcDbArc
 50
180.0
 51
270.0
  0
ARC
  5
24B
330
1F
100
AcDbEntity
  8
SLD-0
  6
Continuous
 62
   179
100
AcDbCircle
 10
324.765755
 20
166.181869995
 30
0.0
 40
0.3000000050000199
100
AcDbArc
 50
90.0
 51
180.0
  0
ARC
  5
24C
330
1F
100
AcDbEntity
  8
SLD-0
  6
Continuous
 62
   179
100
AcDbCircle
 10
325.454979
 20
166.1818720871
 30
0.0
 40
0.2999979128843506
100
AcDbArc
 50
49.9932375298
 51
90.0
  0
ARC
  5
24D
330
1F
100
AcDbEntity
  8
SLD-0
  6
Continuous
 62
   179
100
AcDbCircle
 10
324.765755
 20
212.781875
 30
0.0
 40
0.1999949999999728
100
AcDbArc
 50
360.0
 51
90.0
  0
ARC
  5
24E
330
1F
100
AcDbEntity
  8
SLD-0
  6
Continuous
 62
   179
100
AcDbCircle
 10
324.665779
 20
176.68187
 30
0.0
 40
0.2000000000000455
100
AcDbArc
 50
180.0
 51
270.0
  0
ARC
  5
24F
330
1F
100
AcDbEntity
  8
SLD-0
  6
Continuous
 62
   179
100
AcDbCircle
 10
324.665779
 20
179.68187
 30
0.0
 40
0.2000000000000171
100
AcDbArc
 50
180.0
 51
270.0
  0
ARC
  5
250
330
1F
100
AcDbEntity
  8
SLD-0
  6
Continuous
 62
   179
100
AcDbCircle
 10
324.665779
 20
177.781875
 30
0.0
 40
0.1999949999999728
100
AcDbArc
 50
90.0
 51
180.0
  0
CIRCLE
  5
251
330
1F
100
AcDbEntity
  8
SLD-0
  6
Continuous
 62
   179
100
AcDbCircle
 10
224.1122
 20
192.4819
 30
0.0
 40
4.0
  0
CIRCLE
  5
252
330
1F
100
AcDbEntity
  8
SLD-0
  6
Continuous
 62
   179
100
AcDbCircle
 10
174.1122
 20
192.4819
 30
0.0
 40
4.0
  0
CIRCLE
  5
253
330
1F
100
AcDbEntity
  8
SLD-0
  6
Continuous
 62
   179
100
AcDbCircle
 10
224.1122
 20
192.4819
 30
0.0
 40
3.450000000000017
  0
CIRCLE
  5
254
330
1F
100
AcDbEntity
  8
SLD-0
  6
Continuous
 62
   179
100
AcDbCircle
 10
186.1122
 20
192.4819
 30
0.0
 40
2.0999999
  0
ARC
  5
255
330
1F
100
AcDbEntity
  8
SLD-0
  6
Continuous
 62
   179
100
AcDbCircle
 10
324.765755
 20
175.18187
 30
0.0
 40
0.2000000000000171
100
AcDbArc
 50
270.0
 51
0.0
  0
CIRCLE
  5
256
330
1F
100
AcDbEntity
  8
SLD-0
  6
Continuous
 62
   179
100
AcDbCircle
 10
279.11221
 20
192.4819
 30
0.0
 40
2.5
  0
ARC
  5
257
330
1F
100
AcDbEntity
  8
SLD-0
  6
Continuous
 62
   179
100
AcDbCircle
 10
324.765755
 20
172.18187
 30
0.0
 40
0.2000000000000171
100
AcDbArc
 50
270.0
 51
0.0
  0
ARC
  5
258
330
1F
100
AcDbEntity
  8
SLD-0
  6
Continuous
 62
   179
100
AcDbCircle
 10
324.665779
 20
207.18187
 30
0.0
 40
0.2000000000000455
100
AcDbArc
 50
180.0
 51
270.0
  0
CIRCLE
  5
259
330
1F
100
AcDbEntity
  8
SLD-0
  6
Continuous
 62
   179
100
AcDbCircle
 10
279.11221
 20
192.4819
 30
0.0
 40
2.0999999
  0
ARC
  5
25A
330
1F
100
AcDbEntity
  8
SLD-0
  6
Continuous
 62
   179
100
AcDbCircle
 10
157.1122
 20
87.481895
 30
0.0
 40
5.0
100
AcDbArc
 50
323.1301023542
 51
36.8698976458
  0
CIRCLE
  5
25B
330
1F
100
AcDbEntity
  8
SLD-0
  6
Continuous
 62
   179
100
AcDbCircle
 10
174.1122
 20
192.4819
 30
0.0
 40
3.449999999999989
  0
CIRCLE
  5
25C
330
1F
100
AcDbEntity
  8
SLD-0
  6
Continuous
 62
   179
100
AcDbCircle
 10
224.1122
 20
192.4819
 30
0.0
 40
5.500000000000028
  0
ARC
  5
25D
330
1F
100
AcDbEntity
  8
SLD-0
  6
Continuous
 62
   179
100
AcDbCircle
 10
93.19559
 20
179.28189
 30
0.0
 40
0.1999999999999923
100
AcDbArc
 50
89.999989
 51
180.0
  0
ARC
  5
25E
330
1F
100
AcDbEntity
  8
SLD-0
  6
Continuous
 62
   179
100
AcDbCircle
 10
90.99557
 20
167.98187
 30
0.0
 40
2.099999900000012
100
AcDbArc
 50
48.590386
 51
61.563111
  0
ARC
  5
25F
330
1F
100
AcDbEntity
  8
SLD-0
  6
Continuous
 62
   179
100
AcDbCircle
 10
93.295565
 20
210.18188
 30
0.0
 40
0.2000049999999902
100
AcDbArc
 50
270.0
 51
0.0
  0
ARC
  5
260
330
1F
100
AcDbEntity
  8
SLD-0
  6
Continuous
 62
   179
100
AcDbCircle
 10
93.19559
 20
182.28189
 30
0.0
 40
0.2000000000000207
100
AcDbArc
 50
89.999989
 51
180.0
  0
ARC
  5
261
330
1F
100
AcDbEntity
  8
SLD-0
  6
Continuous
 62
   179
100
AcDbCircle
 10
93.19559
 20
205.68188
 30
0.0
 40
0.1999999999999917
100
AcDbArc
 50
180.0
 51
270.0
  0
ARC
  5
262
330
1F
100
AcDbEntity
  8
SLD-0
  6
Continuous
 62
   179
100
AcDbCircle
 10
93.19559
 20
211.68188
 30
0.0
 40
0.1999999999999917
100
AcDbArc
 50
180.0
 51
270.0
  0
ARC
  5
263
330
1F
100
AcDbEntity
  8
SLD-0
  6
Continuous
 62
   179
100
AcDbCircle
 10
93.19559
 20
203.78189
 30
0.0
 40
0.1999999999999917
100
AcDbArc
 50
89.999989
 51
180.0
  0
ARC
  5
264
330
1F
100
AcDbEntity
  8
SLD-0
  6
Continuous
 62
   179
100
AcDbCircle
 10
93.295565
 20
211.28189
 30
0.0
 40
0.2000049999999902
100
AcDbArc
 50
0.0
 51
90.000003
  0
ARC
  5
265
330
1F
100
AcDbEntity
  8
SLD-0
  6
Continuous
 62
   179
100
AcDbCircle
 10
90.99557
 20
216.98187
 30
0.0
 40
2.099999900000012
100
AcDbArc
 50
48.590386
 51
61.563111
  0
ARC
  5
266
330
1F
100
AcDbEntity
  8
SLD-0
  6
Continuous
 62
   179
100
AcDbCircle
 10
93.295565
 20
179.68188
 30
0.0
 40
0.2000049999999902
100
AcDbArc
 50
270.0
 51
0.0
  0
ARC
  5
267
330
1F
100
AcDbEntity
  8
SLD-0
  6
Continuous
 62
   179
100
AcDbCircle
 10
93.19559
 20
181.18188
 30
0.0
 40
0.1999999999999917
100
AcDbArc
 50
180.0
 51
270.0
  0
ARC
  5
268
330
1F
100
AcDbEntity
  8
SLD-0
  6
Continuous
 62
   179
100
AcDbCircle
 10
93.19559
 20
202.68188
 30
0.0
 40
0.1999999999999917
100
AcDbArc
 50
180.0
 51
270.0
  0
ARC
  5
269
330
1F
100
AcDbEntity
  8
SLD-0
  6
Continuous
 62
   179
100
AcDbCircle
 10
93.295565
 20
176.68188
 30
0.0
 40
0.200004999999976
100
AcDbArc
 50
270.0
 51
0.0
  0
ARC
  5
26A
330
1F
100
AcDbEntity
  8
SLD-0
  6
Continuous
 62
   179
100
AcDbCircle
 10
93.19559
 20
206.78189
 30
0.0
 40
0.1999999999999923
100
AcDbArc
 50
89.999989
 51
180.0
  0
ARC
  5
26B
330
1F
100
AcDbEntity
  8
SLD-0
  6
Continuous
 62
   179
100
AcDbCircle
 10
93.19559
 20
178.18188
 30
0.0
 40
0.1999999999999917
100
AcDbArc
 50
180.0
 51
270.0
  0
ARC
  5
26C
330
1F
100
AcDbEntity
  8
SLD-0
  6
Continuous
 62
   179
100
AcDbCircle
 10
93.295565
 20
204.18188
 30
0.0
 40
0.200004999999976
100
AcDbArc
 50
270.0
 51
0.0
  0
ARC
  5
26D
330
1F
100
AcDbEntity
  8
SLD-0
  6
Continuous
 62
   179
100
AcDbCircle
 10
93.295565
 20
213.18188
 30
0.0
 40
0.2000049999999902
100
AcDbArc
 50
270.0
 51
0.0
  0
ARC
  5
26E
330
1F
100
AcDbEntity
  8
SLD-0
  6
Continuous
 62
   179
100
AcDbCircle
 10
93.19559
 20
208.68188
 30
0.0
 40
0.1999999999999917
100
AcDbArc
 50
180.0
 51
270.0
  0
CIRCLE
  5
26F
330
1F
100
AcDbEntity
  8
SLD-0
  6
Continuous
 62
   179
100
AcDbCircle
 10
174.1122
 20
192.4819
 30
0.0
 40
5.5
  0
ARC
  5
270
330
1F
100
AcDbEntity
  8
SLD-0
  6
Continuous
 62
   179
100
AcDbCircle
 10
93.295565
 20
202.28189
 30
0.0
 40
0.2000049999999763
100
AcDbArc
 50
0.0
 51
90.000003
  0
ARC
  5
271
330
1F
100
AcDbEntity
  8
SLD-0
  6
Continuous
 62
   179
100
AcDbCircle
 10
93.295565
 20
174.78189
 30
0.0
 40
0.2000049999999902
100
AcDbArc
 50
0.0
 51
90.000003
  0
ARC
  5
272
330
1F
100
AcDbEntity
  8
SLD-0
  6
Continuous
 62
   179
100
AcDbCircle
 10
93.295565
 20
182.68188
 30
0.0
 40
0.2000049999999902
100
AcDbArc
 50
270.0
 51
0.0
  0
ARC
  5
273
330
1F
100
AcDbEntity
  8
SLD-0
  6
Continuous
 62
   179
100
AcDbCircle
 10
93.295565
 20
180.78189
 30
0.0
 40
0.2000049999999902
100
AcDbArc
 50
0.0
 51
90.000003
  0
ARC
  5
274
330
1F
100
AcDbEntity
  8
SLD-0
  6
Continuous
 62
   179
100
AcDbCircle
 10
93.19559
 20
176.28189
 30
0.0
 40
0.1999999999999923
100
AcDbArc
 50
89.999989
 51
180.0
  0
ARC
  5
275
330
1F
100
AcDbEntity
  8
SLD-0
  6
Continuous
 62
   179
100
AcDbCircle
 10
92.58304
 20
166.18188
 30
0.0
 40
0.3000000100000274
100
AcDbArc
 50
89.999989
 51
131.40962
  0
ARC
  5
276
330
1F
100
AcDbEntity
  8
SLD-0
  6
Continuous
 62
   179
100
AcDbCircle
 10
93.295565
 20
171.78189
 30
0.0
 40
0.2000049999999763
100
AcDbArc
 50
0.0
 51
90.000003
  0
ARC
  5
277
330
1F
100
AcDbEntity
  8
SLD-0
  6
Continuous
 62
   179
100
AcDbCircle
 10
93.19559
 20
173.28189
 30
0.0
 40
0.1999999999999923
100
AcDbArc
 50
89.999989
 51
180.0
  0
ARC
  5
278
330
1F
100
AcDbEntity
  8
SLD-0
  6
Continuous
 62
   179
100
AcDbCircle
 10
93.19559
 20
175.18188
 30
0.0
 40
0.1999999999999917
100
AcDbArc
 50
180.0
 51
270.0
  0
ARC
  5
279
330
1F
100
AcDbEntity
  8
SLD-0
  6
Continuous
 62
   179
100
AcDbCircle
 10
68.79556
 20
218.53189
 30
0.0
 40
0.3000000100000239
100
AcDbArc
 50
89.999989
 51
180.0
  0
ARC
  5
27A
330
1F
100
AcDbEntity
  8
SLD-0
  6
Continuous
 62
   179
100
AcDbCircle
 10
68.79556
 20
224.431875005
 30
0.0
 40
0.3000050050000215
100
AcDbArc
 50
180.0
 51
270.0
  0
ARC
  5
27B
330
1F
100
AcDbEntity
  8
SLD-0
  6
Continuous
 62
   179
100
AcDbCircle
 10
68.79556
 20
227.18188
 30
0.0
 40
0.3000000100000239
100
AcDbArc
 50
89.999989
 51
180.0
  0
ARC
  5
27C
330
1F
100
AcDbEntity
  8
SLD-0
  6
Continuous
 62
   179
100
AcDbCircle
 10
68.79556
 20
166.431875005
 30
0.0
 40
0.3000050050000215
100
AcDbArc
 50
180.0
 51
270.0
  0
ARC
  5
27D
330
1F
100
AcDbEntity
  8
SLD-0
  6
Continuous
 62
   179
100
AcDbCircle
 10
68.79556
 20
160.53189
 30
0.0
 40
0.3000000100000239
100
AcDbArc
 50
89.999989
 51
180.0
  0
ARC
  5
27E
330
1F
100
AcDbEntity
  8
SLD-0
  6
Continuous
 62
   179
100
AcDbCircle
 10
68.79556
 20
157.78189
 30
0.0
 40
0.3000000100000239
100
AcDbArc
 50
180.0
 51
270.0
  0
ARC
  5
27F
330
1F
100
AcDbEntity
  8
SLD-0
  6
Continuous
 62
   179
100
AcDbCircle
 10
92.58304
 20
215.18188
 30
0.0
 40
0.3000000100000274
100
AcDbArc
 50
89.999989
 51
131.40962
  0
ARC
  5
280
330
1F
100
AcDbEntity
  8
SLD-0
  6
Continuous
 62
   179
100
AcDbCircle
 10
90.99557
 20
167.98187
 30
0.0
 40
2.099999900000021
100
AcDbArc
 50
298.43689
 51
311.40962
  0
ARC
  5
281
330
1F
100
AcDbEntity
  8
SLD-0
  6
Continuous
 62
   179
100
AcDbCircle
 10
92.58304
 20
169.78189
 30
0.0
 40
0.3000000100000487
100
AcDbArc
 50
228.59038
 51
270.0
  0
ARC
  5
282
330
1F
100
AcDbEntity
  8
SLD-0
  6
Continuous
 62
   179
100
AcDbCircle
 10
93.19559
 20
169.78189
 30
0.0
 40
0.3000000100000196
100
AcDbArc
 50
270.0
 51
0.0
  0
ARC
  5
283
330
1F
100
AcDbEntity
  8
SLD-0
  6
Continuous
 62
   179
100
AcDbCircle
 10
93.295565
 20
173.68188
 30
0.0
 40
0.200004999999976
100
AcDbArc
 50
270.0
 51
0.0
  0
ARC
  5
284
330
1F
100
AcDbEntity
  8
SLD-0
  6
Continuous
 62
   179
100
AcDbCircle
 10
93.19559
 20
166.18188
 30
0.0
 40
0.3000000100000196
100
AcDbArc
 50
0.0
 51
90.000003
  0
ARC
  5
285
330
1F
100
AcDbEntity
  8
SLD-0
  6
Continuous
 62
   179
100
AcDbCircle
 10
93.19559
 20
215.18188
 30
0.0
 40
0.3000000100000197
100
AcDbArc
 50
0.0
 51
90.000003
  0
ARC
  5
286
330
1F
100
AcDbEntity
  8
SLD-0
  6
Continuous
 62
   179
100
AcDbCircle
 10
93.19559
 20
218.78189
 30
0.0
 40
0.3000000100000196
100
AcDbArc
 50
270.0
 51
0.0
  0
ARC
  5
287
330
1F
100
AcDbEntity
  8
SLD-0
  6
Continuous
 62
   179
100
AcDbCircle
 10
92.58304
 20
218.78189
 30
0.0
 40
0.3000000100000274
100
AcDbArc
 50
228.59038
 51
270.0
  0
ARC
  5
288
330
1F
100
AcDbEntity
  8
SLD-0
  6
Continuous
 62
   179
100
AcDbCircle
 10
93.19559
 20
172.18188
 30
0.0
 40
0.1999999999999917
100
AcDbArc
 50
180.0
 51
270.0
  0
ARC
  5
289
330
1F
100
AcDbEntity
  8
SLD-0
  6
Continuous
 62
   179
100
AcDbCircle
 10
93.295565
 20
208.28189
 30
0.0
 40
0.2000049999999902
100
AcDbArc
 50
0.0
 51
90.000003
  0
ARC
  5
28A
330
1F
100
AcDbEntity
  8
SLD-0
  6
Continuous
 62
   179
100
AcDbCircle
 10
93.295565
 20
205.28189
 30
0.0
 40
0.2000049999999902
100
AcDbArc
 50
0.0
 51
90.000003
  0
ARC
  5
28B
330
1F
100
AcDbEntity
  8
SLD-0
  6
Continuous
 62
   179
100
AcDbCircle
 10
93.295565
 20
207.18188
 30
0.0
 40
0.200004999999976
100
AcDbArc
 50
270.0
 51
0.0
  0
ARC
  5
28C
330
1F
100
AcDbEntity
  8
SLD-0
  6
Continuous
 62
   179
100
AcDbCircle
 10
93.19559
 20
212.78189
 30
0.0
 40
0.2000000000000207
100
AcDbArc
 50
89.999989
 51
180.0
  0
ARC
  5
28D
330
1F
100
AcDbEntity
  8
SLD-0
  6
Continuous
 62
   179
100
AcDbCircle
 10
93.19559
 20
209.78189
 30
0.0
 40
0.1999999999999923
100
AcDbArc
 50
89.999989
 51
180.0
  0
ARC
  5
28E
330
1F
100
AcDbEntity
  8
SLD-0
  6
Continuous
 62
   179
100
AcDbCircle
 10
93.295565
 20
177.78189
 30
0.0
 40
0.2000049999999902
100
AcDbArc
 50
0.0
 51
90.000003
  0
CIRCLE
  5
28F
330
1F
100
AcDbEntity
  8
SLD-0
  6
Continuous
 62
   179
100
AcDbCircle
 10
80.99557
 20
217.48187
 30
0.0
 40
2.0999999
  0
CIRCLE
  5
290
330
1F
100
AcDbEntity
  8
SLD-0
  6
Continuous
 62
   179
100
AcDbCircle
 10
80.99557
 20
167.48187
 30
0.0
 40
2.0999999
  0
CIRCLE
  5
291
330
1F
100
AcDbEntity
  8
SLD-0
  6
Continuous
 62
   179
100
AcDbCircle
 10
80.99557
 20
207.48187
 30
0.0
 40
4.75
  0
CIRCLE
  5
292
330
1F
100
AcDbEntity
  8
SLD-0
  6
Continuous
 62
   179
100
AcDbCircle
 10
80.99557
 20
177.48187
 30
0.0
 40
4.75
  0
CIRCLE
  5
293
330
1F
100
AcDbEntity
  8
SLD-0
  6
Continuous
 62
   179
100
AcDbCircle
 10
80.99557
 20
217.48187
 30
0.0
 40
2.5
  0
CIRCLE
  5
294
330
1F
100
AcDbEntity
  8
SLD-0
  6
Continuous
 62
   179
100
AcDbCircle
 10
80.99557
 20
167.48187
 30
0.0
 40
2.5
  0
ARC
  5
295
330
1F
100
AcDbEntity
  8
SLD-0
  6
Continuous
 62
   179
100
AcDbCircle
 10
90.99557
 20
216.98187
 30
0.0
 40
2.099999900000021
100
AcDbArc
 50
298.43689
 51
311.40962
  0
CIRCLE
  5
296
330
1F
100
AcDbEntity
  8
SLD-0
  6
Continuous
 62
   179
100
AcDbCircle
 10
86.49557
 20
192.48187
 30
0.0
 40
2.0
  0
CIRCLE
  5
297
330
1F
100
AcDbEntity
  8
SLD-0
  6
Continuous
 62
   179
100
AcDbCircle
 10
86.49557
 20
192.48187
 30
0.0
 40
1.649999999999992
  0
ARC
  5
298
330
1F
100
AcDbEntity
  8
SLD-0
  6
Continuous
 62
   179
100
AcDbCircle
 10
325.454979
 20
169.781875005
 30
0.0
 40
0.3000050049999743
100
AcDbArc
 50
270.0
 51
310.00776
  0
CIRCLE
  5
299
330
1F
100
AcDbEntity
  8
SLD-0
  6
HIDDEN
 62
   179
100
AcDbCircle
 10
336.965767
 20
177.48187
 30
0.0
 40
11.0
  0
ARC
  5
29A
330
1F
100
AcDbEntity
  8
SLD-0
  6
Continuous
 62
   179
100
AcDbCircle
 10
344.3269790501
 20
173.2318694775
 30
0.0
 40
2.000002018630957
100
AcDbArc
 50
90.0
 51
194.9997290668
  0
CIRCLE
  5
29B
330
1F
100
AcDbEntity
  8
SLD-0
  6
Continuous
 62
   179
100
AcDbCircle
 10
344.3269790501
 20
173.2318694775
 30
0.0
 40
0.9999999999999704
  0
ARC
  5
29C
330
1F
100
AcDbEntity
  8
SLD-0
  6
Continuous
 62
   179
100
AcDbCircle
 10
344.326981
 20
181.73187
 30
0.0
 40
2.0
100
AcDbArc
 50
164.99999
 51
270.0
  0
CIRCLE
  5
29D
330
1F
100
AcDbEntity
  8
SLD-0
  6
Continuous
 62
   179
100
AcDbCircle
 10
344.326981
 20
181.73187
 30
0.0
 40
1.0
  0
ARC
  5
29E
330
1F
100
AcDbEntity
  8
SLD-0
  6
Continuous
 62
   179
100
AcDbCircle
 10
337.840767
 20
177.48187
 30
0.0
 40
9.374999999999993
100
AcDbArc
 50
55.267842
 51
304.73214
  0
CIRCLE
  5
29F
330
1F
100
AcDbEntity
  8
SLD-0
  6
HIDDEN
 62
   179
100
AcDbCircle
 10
336.965767
 20
207.48187
 30
0.0
 40
11.0
  0
ARC
  5
2A0
330
1F
100
AcDbEntity
  8
SLD-0
  6
Continuous
 62
   179
100
AcDbCircle
 10
344.3269782667
 20
203.2318692676
 30
0.0
 40
2.000002829752127
100
AcDbArc
 50
90.0
 51
195.0000131982
  0
CIRCLE
  5
2A1
330
1F
100
AcDbEntity
  8
SLD-0
  6
Continuous
 62
   179
100
AcDbCircle
 10
344.3269782667
 20
203.2318692676
 30
0.0
 40
0.9999999999999704
  0
ARC
  5
2A2
330
1F
100
AcDbEntity
  8
SLD-0
  6
Continuous
 62
   179
100
AcDbCircle
 10
344.326981
 20
211.73187
 30
0.0
 40
2.0
100
AcDbArc
 50
164.99999
 51
270.0
  0
CIRCLE
  5
2A3
330
1F
100
AcDbEntity
  8
SLD-0
  6
Continuous
 62
   179
100
AcDbCircle
 10
344.326981
 20
211.73187
 30
0.0
 40
1.0
  0
ARC
  5
2A4
330
1F
100
AcDbEntity
  8
SLD-0
  6
Continuous
 62
   179
100
AcDbCircle
 10
337.840767
 20
207.48187
 30
0.0
 40
9.374999999999993
100
AcDbArc
 50
55.267842
 51
304.73214
  0
CIRCLE
  5
2A5
330
1F
100
AcDbEntity
  8
SLD-0
  6
Continuous
 62
   179
100
AcDbCircle
 10
150.1122
 20
217.48187
 30
0.0
 40
2.5
  0
CIRCLE
  5
2A6
330
1F
100
AcDbEntity
  8
SLD-0
  6
Continuous
 62
   179
100
AcDbCircle
 10
150.1122
 20
167.48187
 30
0.0
 40
2.5
  0
CIRCLE
  5
2A7
330
1F
100
AcDbEntity
  8
SLD-0
  6
Continuous
 62
   179
100
AcDbCircle
 10
150.1122
 20
217.48187
 30
0.0
 40
2.0999999
  0
CIRCLE
  5
2A8
330
1F
100
AcDbEntity
  8
SLD-0
  6
Continuous
 62
   179
100
AcDbCircle
 10
150.1122
 20
167.48187
 30
0.0
 40
2.0999999
  0
CIRCLE
  5
2A9
330
1F
100
AcDbEntity
  8
SLD-0
  6
Continuous
 62
   179
100
AcDbCircle
 10
80.99557
 20
177.48187
 30
0.0
 40
3.730384599999994
  0
CIRCLE
  5
2AA
330
1F
100
AcDbEntity
  8
SLD-0
  6
Continuous
 62
   179
100
AcDbCircle
 10
80.99557
 20
177.48187
 30
0.0
 40
4.25
  0
CIRCLE
  5
2AB
330
1F
100
AcDbEntity
  8
SLD-0
  6
Continuous
 62
   179
100
AcDbCircle
 10
80.99557
 20
207.48187
 30
0.0
 40
3.730384599999994
  0
CIRCLE
  5
2AC
330
1F
100
AcDbEntity
  8
SLD-0
  6
Continuous
 62
   179
100
AcDbCircle
 10
80.99557
 20
207.48187
 30
0.0
 40
4.25
  0
ARC
  5
2AD
330
1F
100
AcDbEntity
  8
SLD-0
  6
Continuous
 62
   179
100
AcDbCircle
 10
196.8622
 20
167.9819
 30
0.0
 40
0.75
100
AcDbArc
 50
270.0
 51
90.0
  0
CIRCLE
  5
2AE
330
1F
100
AcDbEntity
  8
SLD-0
  6
Continuous
 62
   179
100
AcDbCircle
 10
190.1122
 20
167.9819
 30
0.0
 40
1.25
  0
ARC
  5
2AF
330
1F
100
AcDbEntity
  8
SLD-0
  6
Continuous
 62
   179
100
AcDbCircle
 10
193.51222
 20
167.9819
 30
0.0
 40
1.400000000000006
100
AcDbArc
 50
90.0
 51
270.0
  0
ARC
  5
2B0
330
1F
100
AcDbEntity
  8
SLD-0
  6
Continuous
 62
   179
100
AcDbCircle
 10
195.3622
 20
167.9819
 30
0.0
 40
0.75
100
AcDbArc
 50
90.0
 51
270.0
  0
ARC
  5
2B1
330
1F
100
AcDbEntity
  8
SLD-0
  6
Continuous
 62
   179
100
AcDbCircle
 10
274.86221
 20
216.9819
 30
0.0
 40
0.75
100
AcDbArc
 50
270.0
 51
90.0
  0
CIRCLE
  5
2B2
330
1F
100
AcDbEntity
  8
SLD-0
  6
Continuous
 62
   179
100
AcDbCircle
 10
268.1122
 20
216.9819
 30
0.0
 40
1.249999999999943
  0
ARC
  5
2B3
330
1F
100
AcDbEntity
  8
SLD-0
  6
Continuous
 62
   179
100
AcDbCircle
 10
271.51222
 20
216.9819
 30
0.0
 40
1.400000000000034
100
AcDbArc
 50
90.0
 51
270.0
  0
ARC
  5
2B4
330
1F
100
AcDbEntity
  8
SLD-0
  6
Continuous
 62
   179
100
AcDbCircle
 10
273.3622
 20
216.9819
 30
0.0
 40
0.75
100
AcDbArc
 50
90.0
 51
270.0
  0
ARC
  5
2B5
330
1F
100
AcDbEntity
  8
SLD-0
  6
Continuous
 62
   179
100
AcDbCircle
 10
218.7757166083
 20
167.4509332118
 30
0.0
 40
1.360610731380632
100
AcDbArc
 50
322.9895996171
 51
329.8940459796
  0
ARC
  5
2B6
330
1F
100
AcDbEntity
  8
SLD-0
  6
Continuous
 62
   179
100
AcDbCircle
 10
218.725415168
 20
167.4817065076
 30
0.0
 40
1.419563058278054
100
AcDbArc
 50
329.837914256
 51
336.4737196375
  0
ARC
  5
2B7
330
1F
100
AcDbEntity
  8
SLD-0
  6
Continuous
 62
   179
100
AcDbCircle
 10
218.9998527218
 20
167.3633482803
 30
0.0
 40
1.120693012332237
100
AcDbArc
 50
336.421203709
 51
344.8214711753
  0
ARC
  5
2B8
330
1F
100
AcDbEntity
  8
SLD-0
  6
Continuous
 62
   179
100
AcDbCircle
 10
219.2121285605
 20
167.3062052382
 30
0.0
 40
0.9008609654438088
100
AcDbArc
 50
344.7941182882
 51
355.2380938021
  0
ARC
  5
2B9
330
1F
100
AcDbEntity
  8
SLD-0
  6
Continuous
 62
   179
100
AcDbCircle
 10
219.3651278466
 20
167.2921142015
 30
0.0
 40
0.7472212230312313
100
AcDbArc
 50
355.3409287013
 51
7.9042048524
  0
ARC
  5
2BA
330
1F
100
AcDbEntity
  8
SLD-0
  6
Continuous
 62
   179
100
AcDbCircle
 10
219.1450794208
 20
167.2596456347
 30
0.0
 40
0.969645899314885
100
AcDbArc
 50
8.0164536832
 51
17.7279108627
  0
ARC
  5
2BB
330
1F
100
AcDbEntity
  8
SLD-0
  6
Continuous
 62
   179
100
AcDbCircle
 10
218.7722286675
 20
167.1414690428
 30
0.0
 40
1.360775960179935
100
AcDbArc
 50
17.6871865841
 51
24.5975022627
  0
ARC
  5
2BC
330
1F
100
AcDbEntity
  8
SLD-0
  6
Continuous
 62
   179
100
AcDbCircle
 10
218.0312539043
 20
166.8027782354
 30
0.0
 40
2.175487520053599
100
AcDbArc
 50
24.5851730454
 51
28.910137748
  0
ARC
  5
2BD
330
1F
100
AcDbEntity
  8
SLD-0
  6
Continuous
 62
   179
100
AcDbCircle
 10
216.4110911691
 20
165.9093583367
 30
0.0
 40
4.025656612073965
100
AcDbArc
 50
28.893541869
 51
31.2286706452
  0
ARC
  5
2BE
330
1F
100
AcDbEntity
  8
SLD-0
  6
Continuous
 62
   179
100
AcDbCircle
 10
221.1200793873
 20
168.9262140306
 30
0.0
 40
1.56442556471282
100
AcDbArc
 50
204.2851506458
 51
210.2897401955
  0
ARC
  5
2BF
330
1F
100
AcDbEntity
  8
SLD-0
  6
Continuous
 62
   179
100
AcDbCircle
 10
220.5933871502
 20
168.6884326799
 30
0.0
 40
0.9865461142069403
100
AcDbArc
 50
194.7906088515
 51
204.2780040719
  0
ARC
  5
2C0
330
1F
100
AcDbEntity
  8
SLD-0
  6
Continuous
 62
   179
100
AcDbCircle
 10
220.4758904392
 20
168.6514729526
 30
0.0
 40
0.8635263547663064
100
AcDbArc
 50
183.5595587693
 51
194.4097742956
  0
ARC
  5
2C1
330
1F
100
AcDbEntity
  8
SLD-0
  6
Continuous
 62
   179
100
AcDbCircle
 10
220.6041803327
 20
168.6576870532
 30
0.0
 40
0.9919561269048834
100
AcDbArc
 50
173.884103616
 51
183.4577327824
  0
ARC
  5
2C2
330
1F
100
AcDbEntity
  8
SLD-0
  6
Continuous
 62
   179
100
AcDbCircle
 10
221.5784035086
 20
168.5526196009
 30
0.0
 40
1.971828432998359
100
AcDbArc
 50
169.0722829066
 51
173.8644675397
  0
ARC
  5
2C3
330
1F
100
AcDbEntity
  8
SLD-0
  6
Continuous
 62
   179
100
AcDbCircle
 10
220.6406960616
 20
168.7593250427
 30
0.0
 40
1.012252694596921
100
AcDbArc
 50
161.2418111525
 51
170.4985610439
  0
ARC
  5
2C4
330
1F
100
AcDbEntity
  8
SLD-0
  6
Continuous
 62
   179
100
AcDbCircle
 10
220.3882353715
 20
168.8339864049
 30
0.0
 40
0.7492658749737392
100
AcDbArc
 50
147.902277158
 51
160.4396737917
  0
ARC
  5
2C5
330
1F
100
AcDbEntity
  8
SLD-0
  6
Continuous
 62
   179
100
AcDbCircle
 10
219.9141613531
 20
169.1588639341
 30
0.0
 40
0.1765744080381313
100
AcDbArc
 50
102.8005185211
 51
155.4886412701
  0
ARC
  5
2C6
330
1F
100
AcDbEntity
  8
SLD-0
  6
Continuous
 62
   179
100
AcDbCircle
 10
219.792292637
 20
169.1441045962
 30
0.0
 40
0.2044399914063485
100
AcDbArc
 50
20.496711701
 51
66.1244534464
  0
ARC
  5
2C7
330
1F
100
AcDbEntity
  8
SLD-0
  6
Continuous
 62
   179
100
AcDbCircle
 10
219.0426192754
 20
168.7402601259
 30
0.0
 40
1.054436294019813
100
AcDbArc
 50
17.8424449866
 51
26.8005010837
  0
ARC
  5
2C8
330
1F
100
AcDbEntity
  8
SLD-0
  6
Continuous
 62
   179
100
AcDbCircle
 10
218.8829166349
 20
168.6977810113
 30
0.0
 40
1.219502890818078
100
AcDbArc
 50
9.740312307
 51
17.4432282454
  0
ARC
  5
2C9
330
1F
100
AcDbEntity
  8
SLD-0
  6
Continuous
 62
   179
100
AcDbCircle
 10
218.330259427
 20
168.5761037427
 30
0.0
 40
1.784974658640287
100
AcDbArc
 50
5.3321440903
 51
10.5884973338
  0
ARC
  5
2CA
330
1F
100
AcDbEntity
  8
SLD-0
  6
Continuous
 62
   179
100
AcDbCircle
 10
219.0110430117
 20
168.6388226567
 30
0.0
 40
1.101308900295249
100
AcDbArc
 50
356.8142803701
 51
5.3746569001
  0
ARC
  5
2CB
330
1F
100
AcDbEntity
  8
SLD-0
  6
Continuous
 62
   179
100
AcDbCircle
 10
219.2306088038
 20
168.6272937509
 30
0.0
 40
0.8814419938443887
100
AcDbArc
 50
346.0975447008
 51
356.7693791062
  0
ARC
  5
2CC
330
1F
100
AcDbEntity
  8
SLD-0
  6
Continuous
 62
   179
100
AcDbCircle
 10
219.1620188278
 20
168.6515689093
 30
0.0
 40
0.9538815961334584
100
AcDbArc
 50
335.8361566794
 51
345.6720363308
  0
ARC
  5
2CD
330
1F
100
AcDbEntity
  8
SLD-0
  6
Continuous
 62
   179
100
AcDbCircle
 10
218.8466505531
 20
168.7902259638
 30
0.0
 40
1.298378343531192
100
AcDbArc
 50
328.7049784729
 51
335.9503370801
  0
ARC
  5
2CE
330
1F
100
AcDbEntity
  8
SLD-0
  6
Continuous
 62
   179
100
AcDbCircle
 10
218.9126006294
 20
168.7485717138
 30
0.0
 40
1.22038738694314
100
AcDbArc
 50
321.1606917706
 51
328.7677159207
  0
ARC
  5
2CF
330
1F
100
AcDbEntity
  8
SLD-0
  6
Continuous
 62
   179
100
AcDbCircle
 10
296.7757747316
 20
217.5129949069
 30
0.0
 40
1.360501202495966
100
AcDbArc
 50
30.1028784659
 51
37.0076481413
  0
ARC
  5
2D0
330
1F
100
AcDbEntity
  8
SLD-0
  6
Continuous
 62
   179
100
AcDbCircle
 10
296.7260241631
 20
217.4823344379
 30
0.0
 40
1.418920482456989
100
AcDbArc
 50
23.528286483
 51
30.1663785683
  0
ARC
  5
2D1
330
1F
100
AcDbEntity
  8
SLD-0
  6
Continuous
 62
   179
100
AcDbCircle
 10
296.9995769338
 20
217.6004545758
 30
0.0
 40
1.120956636090125
100
AcDbArc
 50
15.1763108292
 51
23.5744291552
  0
ARC
  5
2D2
330
1F
100
AcDbEntity
  8
SLD-0
  6
Continuous
 62
   179
100
AcDbCircle
 10
297.2117953439
 20
217.6575724972
 30
0.0
 40
0.9011865751063706
100
AcDbArc
 50
4.7628781
 51
15.2036983631
  0
ARC
  5
2D3
330
1F
100
AcDbEntity
  8
SLD-0
  6
Continuous
 62
   179
100
AcDbCircle
 10
297.3654917203
 20
217.671688922
 30
0.0
 40
0.7468499569662809
100
AcDbArc
 50
352.0923733688
 51
4.6626914991
  0
ARC
  5
2D4
330
1F
100
AcDbEntity
  8
SLD-0
  6
Continuous
 62
   179
100
AcDbCircle
 10
297.1448265558
 20
217.704238319
 30
0.0
 40
0.9698967053306608
100
AcDbArc
 50
342.2728591667
 51
351.9812210614
  0
ARC
  5
2D5
330
1F
100
AcDbEntity
  8
SLD-0
  6
Continuous
 62
   179
100
AcDbCircle
 10
296.7718343609
 20
217.8224995752
 30
0.0
 40
1.36118725378719
100
AcDbArc
 50
335.4035430076
 51
342.3117681455
  0
ARC
  5
2D6
330
1F
100
AcDbEntity
  8
SLD-0
  6
Continuous
 62
   179
100
AcDbCircle
 10
296.0323481229
 20
218.1603554303
 30
0.0
 40
2.174197865596751
100
AcDbArc
 50
331.0917548073
 51
335.4191674591
  0
ARC
  5
2D7
330
1F
100
AcDbEntity
  8
SLD-0
  6
Continuous
 62
   179
100
AcDbCircle
 10
294.4113576986
 20
219.0544543931
 30
0.0
 40
4.0254197493813
100
AcDbArc
 50
328.7695727187
 51
331.1047157028
  0
ARC
  5
2D8
330
1F
100
AcDbEntity
  8
SLD-0
  6
Continuous
 62
   179
100
AcDbCircle
 10
299.1206609524
 20
216.0374039141
 30
0.0
 40
1.565029653717739
100
AcDbArc
 50
149.7146110486
 51
155.71671269
  0
ARC
  5
2D9
330
1F
100
AcDbEntity
  8
SLD-0
  6
Continuous
 62
   179
100
AcDbCircle
 10
298.5933901974
 20
216.2753277597
 30
0.0
 40
0.9865642670079799
100
AcDbArc
 50
155.7186767786
 51
165.2060919038
  0
ARC
  5
2DA
330
1F
100
AcDbEntity
  8
SLD-0
  6
Continuous
 62
   179
100
AcDbCircle
 10
298.4762776329
 20
216.3122858281
 30
0.0
 40
0.8639166031275636
100
AcDbArc
 50
165.5926836788
 51
176.4379832563
  0
ARC
  5
2DB
330
1F
100
AcDbEntity
  8
SLD-0
  6
Continuous
 62
   179
100
AcDbCircle
 10
298.6033121872
 20
216.3060532649
 30
0.0
 40
0.9910943763592305
100
AcDbArc
 50
176.5346421933
 51
186.1166015806
  0
ARC
  5
2DC
330
1F
100
AcDbEntity
  8
SLD-0
  6
Continuous
 62
   179
100
AcDbCircle
 10
299.5792460076
 20
216.4114700218
 30
0.0
 40
1.972704874178136
100
AcDbArc
 50
186.1406722105
 51
190.9304821694
  0
ARC
  5
2DD
330
1F
100
AcDbEntity
  8
SLD-0
  6
Continuous
 62
   179
100
AcDbCircle
 10
298.6409128342
 20
216.2044990099
 30
0.0
 40
1.012465512535966
100
AcDbArc
 50
189.4990820259
 51
198.753743344
  0
ARC
  5
2DE
330
1F
100
AcDbEntity
  8
SLD-0
  6
Continuous
 62
   179
100
AcDbCircle
 10
298.3881453058
 20
216.1297778114
 30
0.0
 40
0.7491684063622877
100
AcDbArc
 50
199.557635572
 51
212.0973624266
  0
ARC
  5
2DF
330
1F
100
AcDbEntity
  8
SLD-0
  6
Continuous
 62
   179
100
AcDbCircle
 10
297.9141545348
 20
215.8049599748
 30
0.0
 40
0.1765789247133815
100
AcDbArc
 50
204.5120844537
 51
257.198755755
  0
ARC
  5
2E0
330
1F
100
AcDbEntity
  8
SLD-0
  6
Continuous
 62
   179
100
AcDbCircle
 10
297.7922825715
 20
215.8197320659
 30
0.0
 40
0.2044552543087581
100
AcDbArc
 50
293.8736734096
 51
339.4999022515
  0
ARC
  5
2E1
330
1F
100
AcDbEntity
  8
SLD-0
  6
Continuous
 62
   179
100
AcDbCircle
 10
297.0429060511
 20
216.2234633337
 30
0.0
 40
1.054136795358668
100
AcDbArc
 50
333.1971545122
 51
342.1572566059
  0
ARC
  5
2E2
330
1F
100
AcDbEntity
  8
SLD-0
  6
Continuous
 62
   179
100
AcDbCircle
 10
296.883348355
 20
216.266013018
 30
0.0
 40
1.21908624157443
100
AcDbArc
 50
342.5514055829
 51
350.2566109926
  0
ARC
  5
2E3
330
1F
100
AcDbEntity
  8
SLD-0
  6
Continuous
 62
   179
100
AcDbCircle
 10
296.3300731779
 20
216.3877134673
 30
0.0
 40
1.785170728595169
100
AcDbArc
 50
349.4121171207
 51
354.6682108363
  0
ARC
  5
2E4
330
1F
100
AcDbEntity
  8
SLD-0
  6
Continuous
 62
   179
100
AcDbCircle
 10
297.0116816032
 20
216.3249084706
 30
0.0
 40
1.100675684710841
100
AcDbArc
 50
354.6263658277
 51
3.1916663523
  0
ARC
  5
2E5
330
1F
100
AcDbEntity
  8
SLD-0
  6
Continuous
 62
   179
100
AcDbCircle
 10
297.2302134449
 20
216.3363908168
 30
0.0
 40
0.881843799181477
100
AcDbArc
 50
3.2373099912
 51
13.9037197171
  0
ARC
  5
2E6
330
1F
100
AcDbEntity
  8
SLD-0
  6
Continuous
 62
   179
100
AcDbCircle
 10
297.1620431445
 20
216.3122994329
 30
0.0
 40
0.9538314358812789
100
AcDbArc
 50
14.324496237
 51
24.1606956966
  0
ARC
  5
2E7
330
1F
100
AcDbEntity
  8
SLD-0
  6
Continuous
 62
   179
100
AcDbCircle
 10
296.8467538794
 20
216.1736282201
 30
0.0
 40
1.298261905296088
100
AcDbArc
 50
24.0493375761
 51
31.2953468709
  0
ARC
  5
2E8
330
1F
100
AcDbEntity
  8
SLD-0
  6
Continuous
 62
   179
100
AcDbCircle
 10
296.912589371
 20
216.215278121
 30
0.0
 40
1.220371174785383
100
AcDbArc
 50
31.23000938
 51
38.8375200079
  0
POINT
  5
2E9
330
1F
100
AcDbEntity
  8
SLD-0
100
AcDbPoint
 10
402.75
 20
12.0
 30
0.0
  0
POINT
  5
2EA
330
1F
100
AcDbEntity
  8
SLD-0
100
AcDbPoint
 10
17.25
 20
12.0
 30
0.0
  0
POINT
  5
2EB
330
1F
100
AcDbEntity
  8
SLD-0
100
AcDbPoint
 10
402.75
 20
12.0
 30
0.0
  0
POINT
  5
2EC
330
1F
100
AcDbEntity
  8
SLD-0
100
AcDbPoint
 10
402.75
 20
285.0
 30
0.0
  0
MTEXT
  5
2EE
330
1F
100
AcDbEntity
  8
SLD-0
 62
     7
100
AcDbMText
 10
350.436868
 20
32.2950362496
 30
0.0
 40
4.8000002
 41
0.0
 71
     1
 72
     1
  1
ＮＣＯＮ－８０Ｗ
  7
SLDTEXTSTYLE8
 73
     1
 44
1.0
  0
MTEXT
  5
2F0
330
1F
100
AcDbEntity
  8
SLD-0
 62
     7
100
AcDbMText
 10
348.635509
 20
48.6827342496
 30
0.0
 40
4.8000002
 41
0.0
 71
     1
 72
     1
  1
コンテナシリンダー
  7
SLDTEXTSTYLE9
 73
     1
 44
1.0
  0
MTEXT
  5
2F2
330
1F
100
AcDbEntity
  8
SLD-0
 62
     7
100
AcDbMText
 10
361.109051
 20
41.7948525369
 30
0.0
 40
3.2
 41
0.0
 71
     1
 72
     1
  1
（複動型）
  7
SLDTEXTSTYLE10
 73
     1
 44
1.0
  0
MTEXT
  5
2F4
330
1F
100
AcDbEntity
  8
SLD-0
 62
     7
100
AcDbMText
 10
354.039595
 20
20.0977990496
 30
0.0
 40
4.8000002
 41
0.0
 71
     1
 72
     1
  1
１３０８２９
  7
SLDTEXTSTYLE11
 73
     1
 44
1.0
  0
MTEXT
  5
2F6
330
1F
100
AcDbEntity
  8
SLD-0
 62
     7
100
AcDbMText
 10
289.2751604631
 20
172.13887
 30
0.0
 40
3.2
 41
0.0
 71
     1
 72
     1
  1
５８（Ｍ５ナット用取付溝）
  7
SLDTEXTSTYLE12
 11
6.123031769111886E-17
 21
1.0
 31
0.0
 73
     1
 44
1.0
  0
INSERT
  5
2F7
330
1F
100
AcDbEntity
  8
0
  6
Continuous
 62
     7
370
     0
100
AcDbBlockReference
  2
KOZU0001
 10
280.30662
 20
85.285683
 30
0.0
  0
INSERT
  5
2F8
330
1F
100
AcDbEntity
  8
0
  6
Continuous
 62
     7
370
     0
100
AcDbBlockReference
  2
KOZU0002
 10
206.93286
 20
166.58192
 30
0.0
  0
INSERT
  5
2F9
330
1F
100
AcDbEntity
  8
0
  6
Continuous
 62
     7
370
     0
100
AcDbBlockReference
  2
KOZU0003
 10
187.16625
 20
194.74885
 30
0.0
  0
INSERT
  5
2FA
330
1F
100
AcDbEntity
  8
0
  6
Continuous
 62
     7
370
     0
100
AcDbBlockReference
  2
KOZU0004
 10
226.34639
 20
197.50768
 30
0.0
  0
INSERT
  5
2FB
330
1F
100
AcDbEntity
  8
0
  6
Continuous
 62
     7
370
     0
100
AcDbBlockReference
  2
KOZU0005
 10
149.27764
 20
219.83848
 30
0.0
  0
INSERT
  5
2FC
330
1F
100
AcDbEntity
  8
0
  6
Continuous
 62
     7
370
     0
100
AcDbBlockReference
  2
KOZU0006
 10
82.33263
 20
165.36949
 30
0.0
  0
ENDSEC
  0
SECTION
  2
OBJECTS
  0
DICTIONARY
  5
C
330
0
100
AcDbDictionary
281
     1
  3
ACAD_GROUP
350
D
  3
ACAD_LAYOUT
350
1A
  3
ACAD_MLINESTYLE
350
17
  3
ACAD_PLOTSETTINGS
350
19
  3
ACAD_PLOTSTYLENAME
350
E
  0
DICTIONARY
  5
D
102
{ACAD_REACTORS
330
C
102
}
330
C
100
AcDbDictionary
281
     1
  0
DICTIONARY
  5
1A
102
{ACAD_REACTORS
330
C
102
}
330
C
100
AcDbDictionary
281
     1
  3
Layout1
350
1E
  3
Layout2
350
26
  3
Model
350
22
  0
DICTIONARY
  5
17
102
{ACAD_REACTORS
330
C
102
}
330
C
100
AcDbDictionary
281
     1
  3
Standard
350
18
  0
DICTIONARY
  5
19
102
{ACAD_REACTORS
330
C
102
}
330
C
100
AcDbDictionary
281
     1
  0
ACDBDICTIONARYWDFLT
  5
E
102
{ACAD_REACTORS
330
C
102
}
330
C
100
AcDbDictionary
281
     1
  3
Normal
350
F
100
AcDbDictionaryWithDefault
340
F
  0
LAYOUT
  5
1E
102
{ACAD_REACTORS
330
1A
102
}
330
1A
100
AcDbPlotSettings
  1

  2

  4

  6

 40
0.0
 41
0.0
 42
0.0
 43
0.0
 44
0.0
 45
0.0
 46
0.0
 47
0.0
 48
0.0
 49
0.0
140
0.0
141
0.0
142
1.0
143
1.0
 70
   688
 72
     0
 73
     0
 74
     5
  7

 75
    16
147
1.0
148
0.0
149
0.0
100
AcDbLayout
  1
Layout1
 70
     1
 71
     1
 10
0.0
 20
0.0
 11
0.0
 21
0.0
 12
0.0
 22
0.0
 32
0.0
 14
0.0
 24
0.0
 34
0.0
 15
0.0
 25
0.0
 35
0.0
146
0.0
 13
0.0
 23
0.0
 33
0.0
 16
1.0
 26
0.0
 36
0.0
 17
0.0
 27
1.0
 37
0.0
 76
     0
330
1B
  0
LAYOUT
  5
26
102
{ACAD_REACTORS
330
1A
102
}
330
1A
100
AcDbPlotSettings
  1

  2

  4

  6

 40
0.0
 41
0.0
 42
0.0
 43
0.0
 44
0.0
 45
0.0
 46
0.0
 47
0.0
 48
0.0
 49
0.0
140
0.0
141
0.0
142
1.0
143
1.0
 70
   688
 72
     0
 73
     0
 74
     5
  7

 75
    16
147
1.0
148
0.0
149
0.0
100
AcDbLayout
  1
Layout2
 70
     1
 71
     2
 10
0.0
 20
0.0
 11
0.0
 21
0.0
 12
0.0
 22
0.0
 32
0.0
 14
0.0
 24
0.0
 34
0.0
 15
0.0
 25
0.0
 35
0.0
146
0.0
 13
0.0
 23
0.0
 33
0.0
 16
1.0
 26
0.0
 36
0.0
 17
0.0
 27
1.0
 37
0.0
 76
     0
330
23
  0
LAYOUT
  5
22
102
{ACAD_REACTORS
330
1A
102
}
330
1A
100
AcDbPlotSettings
  1

  2

  4

  6

 40
0.0
 41
0.0
 42
0.0
 43
0.0
 44
0.0
 45
0.0
 46
0.0
 47
0.0
 48
0.0
 49
0.0
140
0.0
141
0.0
142
1.0
143
1.0
 70
  1712
 72
     0
 73
     0
 74
     0
  7

 75
     0
147
1.0
148
0.0
149
0.0
100
AcDbLayout
  1
Model
 70
     1
 71
     0
 10
0.0
 20
0.0
 11
0.0
 21
0.0
 12
0.0
 22
0.0
 32
0.0
 14
0.0
 24
0.0
 34
0.0
 15
420.0
 25
297.0
 35
0.0
146
0.0
 13
0.0
 23
0.0
 33
0.0
 16
1.0
 26
0.0
 36
0.0
 17
0.0
 27
1.0
 37
0.0
 76
     0
330
1F
  0
MLINESTYLE
  5
18
102
{ACAD_REACTORS
330
17
102
}
330
17
100
AcDbMlineStyle
  2
Standard
 70
     0
  3

 62
   256
 51
90.0
 52
90.0
 71
     2
 49
0.5
 62
   256
  6
BYLAYER
 49
-0.5
 62
   256
  6
BYLAYER
  0
ACDBPLACEHOLDER
  5
F
102
{ACAD_REACTORS
330
E
102
}
330
E
  0
ENDSEC
  0
EOF
