  0
SECTION
  2
HEADER
  9
$ACADVER
  1
AC1015
  9
$ACADMAINTVER
 70
     6
  9
$DWGCODEPAGE
  3
DOS932
  9
$INSBASE
 10
0.0
 20
0.0
 30
0.0
  9
$EXTMIN
 10
0.0
 20
0.0
 30
0.0
  9
$EXTMAX
 10
420.0
 20
297.0
 30
0.0
  9
$LIMMIN
 10
0.0
 20
0.0
  9
$LIMMAX
 10
0.0
 20
0.0
  9
$ORTHOMODE
 70
     0
  9
$REGENMODE
 70
     1
  9
$FILLMODE
 70
     1
  9
$QTEXTMODE
 70
     0
  9
$MIRRTEXT
 70
     1
  9
$LTSCALE
 40
1.0
  9
$ATTMODE
 70
     1
  9
$TEXTSIZE
 40
3.5
  9
$TRACEWID
 40
1.0
  9
$TEXTSTYLE
  7
Standard
  9
$CLAYER
  8
0
  9
$CELTYPE
  6
ByLayer
  9
$CECOLOR
 62
   256
  9
$CELTSCALE
 40
1.0
  9
$DISPSILH
 70
     0
  9
$DIMSCALE
 40
1.0
  9
$DIMASZ
 40
3.0
  9
$DIMEXO
 40
1.0
  9
$DIMDLI
 40
3.75
  9
$DIMRND
 40
0.0
  9
$DIMDLE
 40
0.0
  9
$DIMEXE
 40
1.0
  9
$DIMTP
 40
0.0
  9
$DIMTM
 40
0.0
  9
$DIMTXT
 40
3.2
  9
$DIMCEN
 40
2.5
  9
$DIMTSZ
 40
0.0
  9
$DIMTOL
 70
     0
  9
$DIMLIM
 70
     0
  9
$DIMTIH
 70
     1
  9
$DIMTOH
 70
     1
  9
$DIMSE1
 70
     0
  9
$DIMSE2
 70
     0
  9
$DIMTAD
 70
     1
  9
$DIMZIN
 70
     1
  9
$DIMBLK
  1

  9
$DIMASO
 70
     1
  9
$DIMSHO
 70
     1
  9
$DIMPOST
  1

  9
$DIMAPOST
  1

  9
$DIMALT
 70
     0
  9
$DIMALTD
 70
     3
  9
$DIMALTF
 40
0.0393700787
  9
$DIMLFAC
 40
1.0
  9
$DIMTOFL
 70
     1
  9
$DIMTVP
 40
0.0
  9
$DIMTIX
 70
     0
  9
$DIMSOXD
 70
     0
  9
$DIMSAH
 70
     0
  9
$DIMBLK1
  1

  9
$DIMBLK2
  1

  9
$DIMSTYLE
  2
ISO-25
  9
$DIMCLRD
 70
     0
  9
$DIMCLRE
 70
     0
  9
$DIMCLRT
 70
     0
  9
$DIMTFAC
 40
1.0
  9
$DIMGAP
 40
1.524
  9
$DIMJUST
 70
     0
  9
$DIMSD1
 70
     0
  9
$DIMSD2
 70
     0
  9
$DIMTOLJ
 70
     0
  9
$DIMTZIN
 70
     1
  9
$DIMALTZ
 70
     0
  9
$DIMALTTZ
 70
     0
  9
$DIMUPT
 70
     0
  9
$DIMDEC
 70
     2
  9
$DIMTDEC
 70
     2
  9
$DIMALTU
 70
     2
  9
$DIMALTTD
 70
     3
  9
$DIMTXSTY
  7
Standard
  9
$DIMAUNIT
 70
     0
  9
$DIMADEC
 70
     0
  9
$DIMALTRND
 40
0.0
  9
$DIMAZIN
 70
     0
  9
$DIMDSEP
 70
    44
  9
$DIMATFIT
 70
     3
  9
$DIMFRAC
 70
     0
  9
$DIMLDRBLK
  1

  9
$DIMLUNIT
 70
     2
  9
$DIMLWD
 70
    -2
  9
$DIMLWE
 70
    -2
  9
$DIMTMOVE
 70
     0
  9
$LUNITS
 70
     2
  9
$LUPREC
 70
     4
  9
$SKETCHINC
 40
1.0
  9
$FILLETRAD
 40
10.0
  9
$AUNITS
 70
     0
  9
$AUPREC
 70
     0
  9
$MENU
  1
.
  9
$ELEVATION
 40
0.0
  9
$PELEVATION
 40
0.0
  9
$THICKNESS
 40
0.0
  9
$LIMCHECK
 70
     0
  9
$CHAMFERA
 40
10.0
  9
$CHAMFERB
 40
10.0
  9
$CHAMFERC
 40
20.0
  9
$CHAMFERD
 40
0.0
  9
$SKPOLY
 70
     0
  9
$TDCREATE
 40
2454307.69603316
  9
$TDUCREATE
 40
2454307.32103316
  9
$TDUPDATE
 40
2454307.696033171
  9
$TDUUPDATE
 40
2454307.321033171
  9
$TDINDWG
 40
0.0000000116
  9
$TDUSRTIMER
 40
0.0000000116
  9
$USRTIMER
 70
     1
  9
$ANGBASE
 50
0.0
  9
$ANGDIR
 70
     0
  9
$PDMODE
 70
     0
  9
$PDSIZE
 40
-1.0
  9
$PLINEWID
 40
0.0
  9
$SPLFRAME
 70
     0
  9
$SPLINETYPE
 70
     6
  9
$SPLINESEGS
 70
     8
  9
$HANDSEED
  5
20A
  9
$SURFTAB1
 70
     6
  9
$SURFTAB2
 70
     6
  9
$SURFTYPE
 70
     6
  9
$SURFU
 70
     6
  9
$SURFV
 70
     6
  9
$UCSBASE
  2

  9
$UCSNAME
  2

  9
$UCSORG
 10
0.0
 20
0.0
 30
0.0
  9
$UCSXDIR
 10
1.0
 20
0.0
 30
0.0
  9
$UCSYDIR
 10
0.0
 20
1.0
 30
0.0
  9
$UCSORTHOREF
  2

  9
$UCSORTHOVIEW
 70
     0
  9
$UCSORGTOP
 10
0.0
 20
0.0
 30
0.0
  9
$UCSORGBOTTOM
 10
0.0
 20
0.0
 30
0.0
  9
$UCSORGLEFT
 10
0.0
 20
0.0
 30
0.0
  9
$UCSORGRIGHT
 10
0.0
 20
0.0
 30
0.0
  9
$UCSORGFRONT
 10
0.0
 20
0.0
 30
0.0
  9
$UCSORGBACK
 10
0.0
 20
0.0
 30
0.0
  9
$PUCSBASE
  2

  9
$PUCSNAME
  2

  9
$PUCSORG
 10
0.0
 20
0.0
 30
0.0
  9
$PUCSXDIR
 10
1.0
 20
0.0
 30
0.0
  9
$PUCSYDIR
 10
0.0
 20
1.0
 30
0.0
  9
$PUCSORTHOREF
  2

  9
$PUCSORTHOVIEW
 70
     0
  9
$PUCSORGTOP
 10
0.0
 20
0.0
 30
0.0
  9
$PUCSORGBOTTOM
 10
0.0
 20
0.0
 30
0.0
  9
$PUCSORGLEFT
 10
0.0
 20
0.0
 30
0.0
  9
$PUCSORGRIGHT
 10
0.0
 20
0.0
 30
0.0
  9
$PUCSORGFRONT
 10
0.0
 20
0.0
 30
0.0
  9
$PUCSORGBACK
 10
0.0
 20
0.0
 30
0.0
  9
$USERI1
 70
     0
  9
$USERI2
 70
     0
  9
$USERI3
 70
     0
  9
$USERI4
 70
     0
  9
$USERI5
 70
     0
  9
$USERR1
 40
0.0
  9
$USERR2
 40
0.0
  9
$USERR3
 40
0.0
  9
$USERR4
 40
0.0
  9
$USERR5
 40
0.0
  9
$WORLDVIEW
 70
     1
  9
$SHADEDGE
 70
     3
  9
$SHADEDIF
 70
    70
  9
$TILEMODE
 70
     1
  9
$MAXACTVP
 70
    64
  9
$PINSBASE
 10
0.0
 20
0.0
 30
0.0
  9
$PLIMCHECK
 70
     0
  9
$PEXTMIN
 10
1.0000000000E+20
 20
1.0000000000E+20
 30
1.0000000000E+20
  9
$PEXTMAX
 10
-1.0000000000E+20
 20
-1.0000000000E+20
 30
-1.0000000000E+20
  9
$PLIMMIN
 10
0.0
 20
0.0
  9
$PLIMMAX
 10
420.0
 20
297.0
  9
$UNITMODE
 70
     0
  9
$VISRETAIN
 70
     1
  9
$PLINEGEN
 70
     0
  9
$PSLTSCALE
 70
     1
  9
$TREEDEPTH
 70
  3020
  9
$CMLSTYLE
  2
Standard
  9
$CMLJUST
 70
     0
  9
$CMLSCALE
 40
20.0
  9
$PROXYGRAPHICS
 70
     1
  9
$MEASUREMENT
 70
     1
  9
$CELWEIGHT
370
    -1
  9
$ENDCAPS
280
     0
  9
$JOINSTYLE
280
     0
  9
$LWDISPLAY
290
     1
  9
$INSUNITS
 70
     4
  9
$HYPERLINKBASE
  1

  9
$STYLESHEET
  1

  9
$XEDIT
290
     1
  9
$CEPSNTYPE
380
     0
  9
$PSTYLEMODE
290
     1
  9
$FINGERPRINTGUID
  2
{B740F293-07C4-4CEB-BA94-59E0E901D804}
  9
$VERSIONGUID
  2
{FAEB1C32-E019-11D5-929B-00C0DF256EC4}
  9
$EXTNAMES
290
     1
  9
$PSVPSCALE
 40
0.0
  9
$OLESTARTUP
290
     0
  0
ENDSEC
  0
SECTION
  2
CLASSES
  0
CLASS
  1
ACDBDICTIONARYWDFLT
  2
AcDbDictionaryWithDefault
  3
ObjectDBX Classes
 90
        0
280
     0
281
     0
  0
CLASS
  1
ACDBPLACEHOLDER
  2
AcDbPlaceHolder
  3
ObjectDBX Classes
 90
        0
280
     0
281
     0
  0
CLASS
  1
LAYOUT
  2
AcDbLayout
  3
ObjectDBX Classes
 90
        0
280
     0
281
     0
  0
ENDSEC
  0
SECTION
  2
TABLES
  0
TABLE
  2
VPORT
  5
8
330
0
100
AcDbSymbolTable
 70
     1
  0
VPORT
  5
29
330
8
100
AcDbSymbolTableRecord
100
AcDbViewportTableRecord
  2
*Active
 70
     0
 10
0.0
 20
0.0
 11
1.0
 21
1.0
 12
210.0
 22
148.5
 13
0.0
 23
0.0
 14
10.0
 24
10.0
 15
10.0
 25
10.0
 16
0.0
 26
0.0
 36
1.0
 17
0.0
 27
0.0
 37
0.0
 40
297.0
 41
1.9729729729
 42
50.0
 43
0.0
 44
0.0
 50
0.0
 51
0.0
 71
     0
 72
  2000
 73
     1
 74
     3
 75
     0
 76
     0
 77
     0
 78
     0
281
     0
 65
     1
110
0.0
120
0.0
130
0.0
111
1.0
121
0.0
131
0.0
112
0.0
122
1.0
132
0.0
 79
     0
146
0.0
  0
ENDTAB
  0
TABLE
  2
LTYPE
  5
5
330
0
100
AcDbSymbolTable
 70
     6
  0
LTYPE
  5
14
330
5
100
AcDbSymbolTableRecord
100
AcDbLinetypeTableRecord
  2
ByBlock
 70
     0
  3

 72
    65
 73
     0
 40
0.0
  0
LTYPE
  5
15
330
5
100
AcDbSymbolTableRecord
100
AcDbLinetypeTableRecord
  2
ByLayer
 70
     0
  3

 72
    65
 73
     0
 40
0.0
  0
LTYPE
  5
16
330
5
100
AcDbSymbolTableRecord
100
AcDbLinetypeTableRecord
  2
Continuous
 70
     0
  3
Solid line
 72
    65
 73
     0
 40
0.0
  0
LTYPE
  5
2A
330
5
100
AcDbSymbolTableRecord
100
AcDbLinetypeTableRecord
  2
HIDDEN
 70
     0
  3
Hidden __ __ __ __ __ __ __ __ __ __ __ __ __ __
 72
    65
 73
     2
 40
1.905
 49
1.27
 74
     0
 49
-0.635
 74
     0
  0
LTYPE
  5
2B
330
5
100
AcDbSymbolTableRecord
100
AcDbLinetypeTableRecord
  2
PHANTOM
 70
     0
  3
Phantom ______  __  __  ______  __  __  ______
 72
    65
 73
     6
 40
12.7
 49
6.35
 74
     0
 49
-1.27
 74
     0
 49
1.27
 74
     0
 49
-1.27
 74
     0
 49
1.27
 74
     0
 49
-1.27
 74
     0
  0
LTYPE
  5
2C
330
5
100
AcDbSymbolTableRecord
100
AcDbLinetypeTableRecord
  2
CENTER
 70
     0
  3
Center ____ _ ____ _ ____ _ ____ _ ____ _ ____
 72
    65
 73
     4
 40
10.16
 49
6.35
 74
     0
 49
-1.27
 74
     0
 49
1.27
 74
     0
 49
-1.27
 74
     0
  0
LTYPE
  5
2D
330
5
100
AcDbSymbolTableRecord
100
AcDbLinetypeTableRecord
  2
CENTERX2
 70
     0
  3
Center (2x) ________  __  ________  __  _____
 72
    65
 73
     4
 40
20.32
 49
12.7
 74
     0
 49
-2.54
 74
     0
 49
2.54
 74
     0
 49
-2.54
 74
     0
  0
LTYPE
  5
2E
330
5
100
AcDbSymbolTableRecord
100
AcDbLinetypeTableRecord
  2
DOT2
 70
     0
  3
Dot (.5x) ........................................
 72
    65
 73
     2
 40
0.635
 49
0.0
 74
     0
 49
-0.635
 74
     0
  0
ENDTAB
  0
TABLE
  2
LAYER
  5
2
330
0
100
AcDbSymbolTable
 70
     2
  0
LAYER
  5
10
330
2
100
AcDbSymbolTableRecord
100
AcDbLayerTableRecord
  2
0
 70
     0
 62
     7
  6
Continuous
370
    -3
390
F
  0
LAYER
  5
2F
330
2
100
AcDbSymbolTableRecord
100
AcDbLayerTableRecord
  2
SLD-0
 70
     0
 62
   179
  6
Continuous
370
     0
390
F
  0
ENDTAB
  0
TABLE
  2
STYLE
  5
3
330
0
100
AcDbSymbolTable
 70
    11
  0
STYLE
  5
11
330
3
100
AcDbSymbolTableRecord
100
AcDbTextStyleTableRecord
  2
Standard
 70
     0
 40
0.0
 41
1.0
 50
0.0
 71
     0
 42
2.5
  3
txt
  4
bigfont
  0
STYLE
  5
38
330
3
100
AcDbSymbolTableRecord
100
AcDbTextStyleTableRecord
  2
SLDTEXTSTYLE0
 70
     0
 40
0.0
 41
0.6302728232
 50
0.0
 71
     0
 42
0.2
  3
TXT
  4
bigfont
  0
STYLE
  5
3A
330
3
100
AcDbSymbolTableRecord
100
AcDbTextStyleTableRecord
  2
SLDTEXTSTYLE1
 70
     0
 40
0.0
 41
0.6215272
 50
0.0
 71
     0
 42
0.2
  3
TXT
  4
bigfont
  0
STYLE
  5
3F
330
3
100
AcDbSymbolTableRecord
100
AcDbTextStyleTableRecord
  2
SLDTEXTSTYLE2
 70
     0
 40
0.0
 41
0.6213565547
 50
0.0
 71
     0
 42
0.2
  3
TXT
  4
bigfont
  0
STYLE
  5
4C
330
3
100
AcDbSymbolTableRecord
100
AcDbTextStyleTableRecord
  2
SLDTEXTSTYLE3
 70
     0
 40
0.0
 41
0.6212091789
 50
0.0
 71
     0
 42
0.2
  3
TXT
  4
bigfont
  0
STYLE
  5
4E
330
3
100
AcDbSymbolTableRecord
100
AcDbTextStyleTableRecord
  2
SLDTEXTSTYLE4
 70
     0
 40
0.0
 41
0.6210806147
 50
0.0
 71
     0
 42
0.2
  3
TXT
  4
bigfont
  0
STYLE
  5
58
330
3
100
AcDbSymbolTableRecord
100
AcDbTextStyleTableRecord
  2
SLDTEXTSTYLE5
 70
     0
 40
0.0
 41
0.6272516084
 50
0.0
 71
     0
 42
0.2
  3
TXT
  4
bigfont
  0
STYLE
  5
63
330
3
100
AcDbSymbolTableRecord
100
AcDbTextStyleTableRecord
  2
SLDTEXTSTYLE6
 70
     0
 40
0.0
 41
0.6222509779
 50
0.0
 71
     0
 42
0.2
  3
TXT
  4
bigfont
  0
STYLE
  5
1FE
330
3
100
AcDbSymbolTableRecord
100
AcDbTextStyleTableRecord
  2
SLDTEXTSTYLE7
 70
     0
 40
0.0
 41
0.6226035053
 50
0.0
 71
     0
 42
0.2
  3
TXT
  4
bigfont
  0
STYLE
  5
200
330
3
100
AcDbSymbolTableRecord
100
AcDbTextStyleTableRecord
  2
SLDTEXTSTYLE8
 70
     0
 40
0.0
 41
0.6219644053
 50
0.0
 71
     0
 42
0.2
  3
TXT
  4
bigfont
  0
STYLE
  5
203
330
3
100
AcDbSymbolTableRecord
100
AcDbTextStyleTableRecord
  2
SLDTEXTSTYLE9
 70
     0
 40
0.0
 41
0.6244080316
 50
0.0
 71
     0
 42
0.2
  3
TXT
  4
bigfont
  0
ENDTAB
  0
TABLE
  2
VIEW
  5
6
330
0
100
AcDbSymbolTable
 70
     0
  0
ENDTAB
  0
TABLE
  2
UCS
  5
7
330
0
100
AcDbSymbolTable
 70
     0
  0
ENDTAB
  0
TABLE
  2
APPID
  5
9
330
0
100
AcDbSymbolTable
 70
     1
  0
APPID
  5
12
330
9
100
AcDbSymbolTableRecord
100
AcDbRegAppTableRecord
  2
ACAD
 70
     0
  0
ENDTAB
  0
TABLE
  2
DIMSTYLE
  5
A
330
0
100
AcDbSymbolTable
 70
     1
100
AcDbDimStyleTable
  0
DIMSTYLE
105
27
330
A
100
AcDbSymbolTableRecord
100
AcDbDimStyleTableRecord
  2
ISO-25
 70
     0
 41
2.5
 42
0.625
 43
3.75
 44
1.25
 73
     0
 74
     0
 77
     1
 78
     8
140
2.5
141
2.5
143
0.0393700787
147
0.625
171
     3
172
     1
271
     2
272
     2
274
     3
278
    44
283
     0
284
     8
340
11
  0
ENDTAB
  0
TABLE
  2
BLOCK_RECORD
  5
1
330
0
100
AcDbSymbolTable
 70
     7
  0
BLOCK_RECORD
  5
1F
330
1
100
AcDbSymbolTableRecord
100
AcDbBlockTableRecord
  2
*Model_Space
340
22
  0
BLOCK_RECORD
  5
1B
330
1
100
AcDbSymbolTableRecord
100
AcDbBlockTableRecord
  2
*Paper_Space
340
1E
  0
BLOCK_RECORD
  5
23
330
1
100
AcDbSymbolTableRecord
100
AcDbBlockTableRecord
  2
*Paper_Space0
340
26
  0
BLOCK_RECORD
  5
30
330
1
100
AcDbSymbolTableRecord
100
AcDbBlockTableRecord
  2
KOZU0001
340
0
102
{BLKREFS
331
205
102
}
  0
BLOCK_RECORD
  5
3C
330
1
100
AcDbSymbolTableRecord
100
AcDbBlockTableRecord
  2
SW_NOTE_0
340
0
102
{BLKREFS
331
43
102
}
  0
BLOCK_RECORD
  5
44
330
1
100
AcDbSymbolTableRecord
100
AcDbBlockTableRecord
  2
KOZU0002
340
0
102
{BLKREFS
331
206
102
}
  0
BLOCK_RECORD
  5
50
330
1
100
AcDbSymbolTableRecord
100
AcDbBlockTableRecord
  2
KOZU0003
340
0
102
{BLKREFS
331
207
102
}
  0
BLOCK_RECORD
  5
5B
330
1
100
AcDbSymbolTableRecord
100
AcDbBlockTableRecord
  2
KOZU0004
340
0
102
{BLKREFS
331
208
102
}
  0
BLOCK_RECORD
  5
66
330
1
100
AcDbSymbolTableRecord
100
AcDbBlockTableRecord
  2
KOZU0005
340
0
102
{BLKREFS
331
209
102
}
  0
ENDTAB
  0
ENDSEC
  0
SECTION
  2
BLOCKS
  0
BLOCK
  5
20
330
1F
100
AcDbEntity
  8
0
100
AcDbBlockBegin
  2
*Model_Space
 70
     0
 71
     0
 10
0.0
 20
0.0
 30
0.0
  3
*Model_Space
  1

  0
ENDBLK
  5
21
330
1F
100
AcDbEntity
  8
0
100
AcDbBlockEnd
  0
BLOCK
  5
1C
330
1B
100
AcDbEntity
 67
     1
  8
0
100
AcDbBlockBegin
  2
*Paper_Space
 70
     0
 71
     0
 10
0.0
 20
0.0
 30
0.0
  3
*Paper_Space
  1

  0
ENDBLK
  5
1D
330
1B
100
AcDbEntity
 67
     1
  8
0
100
AcDbBlockEnd
  0
BLOCK
  5
24
330
23
100
AcDbEntity
  8
0
100
AcDbBlockBegin
  2
*Paper_Space0
 70
     0
 71
     0
 10
0.0
 20
0.0
 30
0.0
  3
*Paper_Space0
  1

  0
ENDBLK
  5
25
330
23
100
AcDbEntity
  8
0
100
AcDbBlockEnd
  0
BLOCK
  5
31
330
30
100
AcDbEntity
  8
0
100
AcDbBlockBegin
  2
KOZU0001
 70
     0
 71
     0
 10
0.0
 20
0.0
 30
0.0
  3
KOZU0001
  1

  0
LINE
  5
33
330
30
100
AcDbEntity
  8
SLD-0
  6
Continuous
 62
   179
100
AcDbLine
 10
0.0
 20
0.0
 30
0.0
 11
27.635815
 21
55.154542
 31
0.0
  0
LINE
  5
34
330
30
100
AcDbEntity
  8
SLD-0
  6
Continuous
 62
   179
100
AcDbLine
 10
0.0
 20
0.0
 30
0.0
 11
0.44987061
 21
3.1301144
 31
0.0
  0
LINE
  5
35
330
30
100
AcDbEntity
  8
SLD-0
  6
Continuous
 62
   179
100
AcDbLine
 10
0.0
 20
0.0
 30
0.0
 11
2.2379651
 21
2.2341691
 31
0.0
  0
LINE
  5
36
330
30
100
AcDbEntity
  8
SLD-0
  6
Continuous
 62
   179
100
AcDbLine
 10
0.0
 20
0.0
 30
0.0
 11
27.635815
 21
55.154542
 31
0.0
  0
LINE
  5
37
330
30
100
AcDbEntity
  8
SLD-0
  6
Continuous
 62
   179
100
AcDbLine
 10
27.635828
 20
55.154545
 30
0.0
 11
76.675165
 21
55.154545
 31
0.0
  0
MTEXT
  5
39
330
30
100
AcDbEntity
  8
SLD-0
100
AcDbMText
 10
30.961159
 20
63.4092645369
 30
0.0
 40
3.2
 41
0.0
 71
     1
 72
     1
  1
裏ヨリ
  7
SLDTEXTSTYLE0
 73
     1
 44
1.0
  0
MTEXT
  5
3B
330
30
100
AcDbEntity
  8
SLD-0
100
AcDbMText
 10
30.961159
 20
58.6092645369
 30
0.0
 40
3.2
 41
0.0
 71
     1
 72
     1
  1
２－Ｍ８深１６（下穴貫通）
  7
SLDTEXTSTYLE1
 73
     1
 44
1.0
  0
INSERT
  5
43
330
30
100
AcDbEntity
  8
SLD-0
 62
     7
100
AcDbBlockReference
  2
SW_NOTE_0
 10
30.961159
 20
48.7029895537
 30
0.0
  0
ENDBLK
  5
32
330
30
100
AcDbEntity
  8
0
100
AcDbBlockEnd
  0
BLOCK
  5
3D
330
3C
100
AcDbEntity
  8
0
100
AcDbBlockBegin
  2
SW_NOTE_0
 70
     0
 71
     0
 10
0.0
 20
0.0
 30
0.0
  3
SW_NOTE_0
  1

  0
MTEXT
  5
40
330
3C
100
AcDbEntity
  8
SLD-0
100
AcDbMText
 10
0.0
 20
4.2902749832
 30
0.0
 40
3.2
 41
0.0
 71
     1
 72
     1
  1
２－
  7
SLDTEXTSTYLE2
 73
     1
 44
1.0
  0
MTEXT
  5
41
330
3C
100
AcDbEntity
  8
SLD-0
100
AcDbMText
 10
10.6177777052
 20
4.2902749832
 30
0.0
 40
3.2
 41
0.0
 71
     1
 72
     1
  1
%%c
  7
SLDTEXTSTYLE2
 73
     1
 44
1.0
  0
MTEXT
  5
42
330
3C
100
AcDbEntity
  8
SLD-0
100
AcDbMText
 10
15.8026665449
 20
4.2902749832
 30
0.0
 40
3.2
 41
0.0
 71
     1
 72
     1
  1
１１サ゛ク゛リ深６．５
  7
SLDTEXTSTYLE2
 73
     1
 44
1.0
  0
ENDBLK
  5
3E
330
3C
100
AcDbEntity
  8
0
100
AcDbBlockEnd
  0
BLOCK
  5
45
330
44
100
AcDbEntity
  8
0
100
AcDbBlockBegin
  2
KOZU0002
 70
     0
 71
     0
 10
0.0
 20
0.0
 30
0.0
  3
KOZU0002
  1

  0
LINE
  5
47
330
44
100
AcDbEntity
  8
SLD-0
  6
Continuous
 62
   179
100
AcDbLine
 10
0.0
 20
0.0
 30
0.0
 11
15.885694
 21
-29.18864
 31
0.0
  0
LINE
  5
48
330
44
100
AcDbEntity
  8
SLD-0
  6
Continuous
 62
   179
100
AcDbLine
 10
0.0
 20
0.0
 30
0.0
 11
2.3124367
 21
-2.156997
 31
0.0
  0
LINE
  5
49
330
44
100
AcDbEntity
  8
SLD-0
  6
Continuous
 62
   179
100
AcDbLine
 10
0.0
 20
0.0
 30
0.0
 11
0.55575118
 21
-3.1130596
 31
0.0
  0
LINE
  5
4A
330
44
100
AcDbEntity
  8
SLD-0
  6
Continuous
 62
   179
100
AcDbLine
 10
0.0
 20
0.0
 30
0.0
 11
15.885694
 21
-29.18864
 31
0.0
  0
LINE
  5
4B
330
44
100
AcDbEntity
  8
SLD-0
  6
Continuous
 62
   179
100
AcDbLine
 10
15.885694
 20
-29.18864
 30
0.0
 11
70.678774
 21
-29.188645
 31
0.0
  0
MTEXT
  5
4D
330
44
100
AcDbEntity
  8
SLD-0
100
AcDbMText
 10
18.564766
 20
-20.9339244631
 30
0.0
 40
3.2
 41
0.0
 71
     1
 72
     1
  1
有接点オートスイッチ（ＳＭＣ）
  7
SLDTEXTSTYLE3
 73
     1
 44
1.0
  0
MTEXT
  5
4F
330
44
100
AcDbEntity
  8
SLD-0
100
AcDbMText
 10
18.564766
 20
-25.7339254631
 30
0.0
 40
3.2
 41
0.0
 71
     1
 72
     1
  1
Ｄ－Ａ９３　２ヶ　（オプション）
  7
SLDTEXTSTYLE4
 73
     1
 44
1.0
  0
ENDBLK
  5
46
330
44
100
AcDbEntity
  8
0
100
AcDbBlockEnd
  0
BLOCK
  5
51
330
50
100
AcDbEntity
  8
0
100
AcDbBlockBegin
  2
KOZU0003
 70
     0
 71
     0
 10
0.0
 20
0.0
 30
0.0
  3
KOZU0003
  1

  0
LINE
  5
53
330
50
100
AcDbEntity
  8
SLD-0
  6
Continuous
 62
   179
100
AcDbLine
 10
0.0
 20
0.0
 30
0.0
 11
14.7632
 21
16.520627
 31
0.0
  0
LINE
  5
54
330
50
100
AcDbEntity
  8
SLD-0
  6
Continuous
 62
   179
100
AcDbLine
 10
0.0
 20
0.0
 30
0.0
 11
1.2533452
 21
2.9032956
 31
0.0
  0
LINE
  5
55
330
50
100
AcDbEntity
  8
SLD-0
  6
Continuous
 62
   179
100
AcDbLine
 10
0.0
 20
0.0
 30
0.0
 11
2.7446536
 21
1.5706293
 31
0.0
  0
LINE
  5
56
330
50
100
AcDbEntity
  8
SLD-0
  6
Continuous
 62
   179
100
AcDbLine
 10
0.0
 20
0.0
 30
0.0
 11
14.7632
 21
16.520627
 31
0.0
  0
LINE
  5
57
330
50
100
AcDbEntity
  8
SLD-0
  6
Continuous
 62
   179
100
AcDbLine
 10
14.7632
 20
16.520627
 30
0.0
 11
33.329362
 21
16.520624
 31
0.0
  0
MTEXT
  5
59
330
50
100
AcDbEntity
  8
SLD-0
100
AcDbMText
 10
19.615356
 20
19.9753435369
 30
0.0
 40
3.2
 41
0.0
 71
     1
 72
     1
  1
２－Ｍ５
  7
SLDTEXTSTYLE5
 73
     1
 44
1.0
  0
MTEXT
  5
5A
330
50
100
AcDbEntity
  8
SLD-0
100
AcDbMText
 10
19.615356
 20
14.3593435369
 30
0.0
 40
3.2
 41
0.0
 71
     1
 72
     1
  1
配管ネジ
  7
SLDTEXTSTYLE5
 73
     1
 44
1.0
  0
ENDBLK
  5
52
330
50
100
AcDbEntity
  8
0
100
AcDbBlockEnd
  0
BLOCK
  5
5C
330
5B
100
AcDbEntity
  8
0
100
AcDbBlockBegin
  2
KOZU0004
 70
     0
 71
     0
 10
0.0
 20
0.0
 30
0.0
  3
KOZU0004
  1

  0
LINE
  5
5E
330
5B
100
AcDbEntity
  8
SLD-0
  6
Continuous
 62
   179
100
AcDbLine
 10
0.0
 20
0.0
 30
0.0
 11
13.577458
 21
24.228001
 31
0.0
  0
LINE
  5
5F
330
5B
100
AcDbEntity
  8
SLD-0
  6
Continuous
 62
   179
100
AcDbLine
 10
0.0
 20
0.0
 30
0.0
 11
0.59425813
 21
3.105939
 31
0.0
  0
LINE
  5
60
330
5B
100
AcDbEntity
  8
SLD-0
  6
Continuous
 62
   179
100
AcDbLine
 10
0.0
 20
0.0
 30
0.0
 11
2.3389699
 21
2.1281963
 31
0.0
  0
LINE
  5
61
330
5B
100
AcDbEntity
  8
SLD-0
  6
Continuous
 62
   179
100
AcDbLine
 10
0.0
 20
0.0
 30
0.0
 11
13.577458
 21
24.228001
 31
0.0
  0
LINE
  5
62
330
5B
100
AcDbEntity
  8
SLD-0
  6
Continuous
 62
   179
100
AcDbLine
 10
13.577458
 20
24.228001
 30
0.0
 11
49.568755
 21
24.227998
 31
0.0
  0
MTEXT
  5
64
330
5B
100
AcDbEntity
  8
SLD-0
100
AcDbMText
 10
16.654753
 20
27.6827175369
 30
0.0
 40
3.2
 41
0.0
 71
     1
 72
     1
  1
２ｘ２－Ｍ５（両側）
  7
SLDTEXTSTYLE6
 73
     1
 44
1.0
  0
MTEXT
  5
65
330
5B
100
AcDbEntity
  8
SLD-0
100
AcDbMText
 10
16.654753
 20
22.0667175369
 30
0.0
 40
3.2
 41
0.0
 71
     1
 72
     1
  1
配管ネジ
  7
SLDTEXTSTYLE5
 73
     1
 44
1.0
  0
ENDBLK
  5
5D
330
5B
100
AcDbEntity
  8
0
100
AcDbBlockEnd
  0
BLOCK
  5
67
330
66
100
AcDbEntity
  8
0
100
AcDbBlockBegin
  2
KOZU0005
 70
     0
 71
     0
 10
0.0
 20
0.0
 30
0.0
  3
KOZU0005
  1

  0
LINE
  5
69
330
66
100
AcDbEntity
  8
SLD-0
  6
Continuous
 62
   179
100
AcDbLine
 10
0.0
 20
0.0
 30
0.0
 11
7.9513338
 21
13.830074
 31
0.0
  0
LINE
  5
6A
330
66
100
AcDbEntity
  8
SLD-0
  6
Continuous
 62
   179
100
AcDbLine
 10
0.0
 20
0.0
 30
0.0
 11
0.6283456
 21
3.0992227
 31
0.0
  0
LINE
  5
6B
330
66
100
AcDbEntity
  8
SLD-0
  6
Continuous
 62
   179
100
AcDbLine
 10
0.0
 20
0.0
 30
0.0
 11
2.3622101
 21
2.1023708
 31
0.0
  0
LINE
  5
6C
330
66
100
AcDbEntity
  8
SLD-0
  6
Continuous
 62
   179
100
AcDbLine
 10
0.0
 20
0.0
 30
0.0
 11
7.9513338
 21
13.830074
 31
0.0
  0
LINE
  5
6D
330
66
100
AcDbEntity
  8
SLD-0
  6
Continuous
 62
   179
100
AcDbLine
 10
7.9513338
 20
13.830074
 30
0.0
 11
23.970466
 21
13.830082
 31
0.0
  0
MTEXT
  5
6E
330
66
100
AcDbEntity
  8
SLD-0
100
AcDbMText
 10
10.256475
 20
17.2848015369
 30
0.0
 40
3.2
 41
0.0
 71
     1
 72
     1
  1
４－Ｍ６
  7
SLDTEXTSTYLE5
 73
     1
 44
1.0
  0
MTEXT
  5
6F
330
66
100
AcDbEntity
  8
SLD-0
100
AcDbMText
 10
10.256475
 20
11.6688018369
 30
0.0
 40
3.2
 41
0.0
 71
     1
 72
     1
  1
取付用
  7
SLDTEXTSTYLE0
 73
     1
 44
1.0
  0
ENDBLK
  5
68
330
66
100
AcDbEntity
  8
0
100
AcDbBlockEnd
  0
ENDSEC
  0
SECTION
  2
ENTITIES
  0
LINE
  5
70
330
1F
100
AcDbEntity
  8
SLD-0
  6
CENTER
 62
   179
100
AcDbLine
 10
353.999325
 20
212.55315
 30
0.0
 11
327.69503
 21
212.55315
 31
0.0
  0
LINE
  5
71
330
1F
100
AcDbEntity
  8
SLD-0
  6
Continuous
 62
   179
100
AcDbLine
 10
353.204246
 20
230.05316
 30
0.0
 11
352.204267
 21
231.05314
 31
0.0
  0
LINE
  5
72
330
1F
100
AcDbEntity
  8
SLD-0
  6
Continuous
 62
   179
100
AcDbLine
 10
329.204231
 20
231.05315
 30
0.0
 11
352.20425
 21
231.05315
 31
0.0
  0
LINE
  5
73
330
1F
100
AcDbEntity
  8
SLD-0
  6
HIDDEN
 62
   179
100
AcDbLine
 10
334.704239
 20
185.10315
 30
0.0
 11
353.204235
 21
185.10315
 31
0.0
  0
LINE
  5
74
330
1F
100
AcDbEntity
  8
SLD-0
  6
HIDDEN
 62
   179
100
AcDbLine
 10
334.704239
 20
184.55315
 30
0.0
 11
353.204235
 21
184.55315
 31
0.0
  0
LINE
  5
75
330
1F
100
AcDbEntity
  8
SLD-0
  6
HIDDEN
 62
   179
100
AcDbLine
 10
334.704239
 20
192.00314
 30
0.0
 11
353.204235
 21
192.00314
 31
0.0
  0
LINE
  5
76
330
1F
100
AcDbEntity
  8
SLD-0
  6
HIDDEN
 62
   179
100
AcDbLine
 10
334.704239
 20
192.55315
 30
0.0
 11
353.204235
 21
192.55315
 31
0.0
  0
LINE
  5
77
330
1F
100
AcDbEntity
  8
SLD-0
  6
CENTER
 62
   179
100
AcDbLine
 10
356.735973
 20
188.55315
 30
0.0
 11
325.27137
 21
188.55315
 31
0.0
  0
LINE
  5
78
330
1F
100
AcDbEntity
  8
SLD-0
  6
HIDDEN
 62
   179
100
AcDbLine
 10
338.204239
 20
227.55315
 30
0.0
 11
343.204235
 21
227.55315
 31
0.0
  0
LINE
  5
79
330
1F
100
AcDbEntity
  8
SLD-0
  6
CENTER
 62
   179
100
AcDbLine
 10
340.704235
 20
143.27335
 30
0.0
 11
340.704235
 21
233.55315
 31
0.0
  0
LINE
  5
7A
330
1F
100
AcDbEntity
  8
SLD-0
  6
HIDDEN
 62
   179
100
AcDbLine
 10
338.604235
 20
226.86033
 30
0.0
 11
338.204239
 21
227.55315
 31
0.0
  0
LINE
  5
7B
330
1F
100
AcDbEntity
  8
SLD-0
  6
HIDDEN
 62
   179
100
AcDbLine
 10
342.804239
 20
226.86033
 30
0.0
 11
343.204235
 21
227.55315
 31
0.0
  0
LINE
  5
7C
330
1F
100
AcDbEntity
  8
SLD-0
  6
HIDDEN
 62
   179
100
AcDbLine
 10
338.204239
 20
227.55315
 30
0.0
 11
338.204239
 21
230.55315
 31
0.0
  0
LINE
  5
7D
330
1F
100
AcDbEntity
  8
SLD-0
  6
HIDDEN
 62
   179
100
AcDbLine
 10
338.60424
 20
224.55315
 30
0.0
 11
338.60424
 21
230.55315
 31
0.0
  0
LINE
  5
7E
330
1F
100
AcDbEntity
  8
SLD-0
  6
HIDDEN
 62
   179
100
AcDbLine
 10
342.804234
 20
224.55315
 30
0.0
 11
342.804234
 21
230.55315
 31
0.0
  0
LINE
  5
7F
330
1F
100
AcDbEntity
  8
SLD-0
  6
HIDDEN
 62
   179
100
AcDbLine
 10
343.204235
 20
227.55315
 30
0.0
 11
343.204235
 21
230.55315
 31
0.0
  0
LINE
  5
80
330
1F
100
AcDbEntity
  8
SLD-0
  6
HIDDEN
 62
   179
100
AcDbLine
 10
338.204239
 20
230.55315
 30
0.0
 11
343.204235
 21
230.55315
 31
0.0
  0
LINE
  5
81
330
1F
100
AcDbEntity
  8
SLD-0
  6
HIDDEN
 62
   179
100
AcDbLine
 10
338.204239
 20
230.55315
 30
0.0
 11
337.704239
 21
231.05315
 31
0.0
  0
LINE
  5
82
330
1F
100
AcDbEntity
  8
SLD-0
  6
CENTER
 62
   179
100
AcDbLine
 10
353.999325
 20
164.55315
 30
0.0
 11
327.69503
 21
164.55315
 31
0.0
  0
LINE
  5
83
330
1F
100
AcDbEntity
  8
SLD-0
  6
Continuous
 62
   179
100
AcDbLine
 10
353.204245
 20
147.05314
 30
0.0
 11
352.204265
 21
146.05316
 31
0.0
  0
LINE
  5
84
330
1F
100
AcDbEntity
  8
SLD-0
  6
Continuous
 62
   179
100
AcDbLine
 10
353.204235
 20
230.05316
 30
0.0
 11
353.204235
 21
147.05313
 31
0.0
  0
LINE
  5
85
330
1F
100
AcDbEntity
  8
SLD-0
  6
Continuous
 62
   179
100
AcDbLine
 10
329.204224
 20
146.05315
 30
0.0
 11
352.20425
 21
146.05315
 31
0.0
  0
LINE
  5
86
330
1F
100
AcDbEntity
  8
SLD-0
  6
CENTER
 62
   179
100
AcDbLine
 10
104.7717
 20
58.936096
 30
0.0
 11
271.22525
 21
58.936096
 31
0.0
  0
LINE
  5
87
330
1F
100
AcDbEntity
  8
SLD-0
  6
Continuous
 62
   179
100
AcDbLine
 10
177.32034
 20
71.436096
 30
0.0
 11
265.31773
 21
71.436096
 31
0.0
  0
LINE
  5
88
330
1F
100
AcDbEntity
  8
SLD-0
  6
Continuous
 62
   179
100
AcDbLine
 10
177.32034
 20
46.436096
 30
0.0
 11
177.32034
 21
71.436096
 31
0.0
  0
LINE
  5
89
330
1F
100
AcDbEntity
  8
SLD-0
  6
Continuous
 62
   179
100
AcDbLine
 10
177.32034
 20
46.436096
 30
0.0
 11
265.31773
 21
46.436096
 31
0.0
  0
LINE
  5
8A
330
1F
100
AcDbEntity
  8
SLD-0
  6
Continuous
 62
   179
100
AcDbLine
 10
177.32034
 20
231.05315
 30
0.0
 11
177.32034
 21
146.05315
 31
0.0
  0
LINE
  5
8B
330
1F
100
AcDbEntity
  8
SLD-0
  6
CENTER
 62
   179
100
AcDbLine
 10
143.69382
 20
188.55315
 30
0.0
 11
271.22525
 21
188.55315
 31
0.0
  0
LINE
  5
8C
330
1F
100
AcDbEntity
  8
SLD-0
  6
CENTER
 62
   179
100
AcDbLine
 10
143.69382
 20
212.55315
 30
0.0
 11
271.22525
 21
212.55315
 31
0.0
  0
LINE
  5
8D
330
1F
100
AcDbEntity
  8
SLD-0
  6
CENTER
 62
   179
100
AcDbLine
 10
143.69382
 20
164.55315
 30
0.0
 11
271.22525
 21
164.55315
 31
0.0
  0
LINE
  5
8E
330
1F
100
AcDbEntity
  8
SLD-0
  6
Continuous
 62
   179
100
AcDbLine
 10
177.32034
 20
231.05315
 30
0.0
 11
265.31773
 21
231.05315
 31
0.0
  0
LINE
  5
8F
330
1F
100
AcDbEntity
  8
SLD-0
  6
Continuous
 62
   179
100
AcDbLine
 10
177.32034
 20
146.05315
 30
0.0
 11
265.31773
 21
146.05315
 31
0.0
  0
LINE
  5
90
330
1F
100
AcDbEntity
  8
SLD-0
  6
Continuous
 62
   179
100
AcDbLine
 10
177.32034
 20
224.05315
 30
0.0
 11
267.31773
 21
224.05315
 31
0.0
  0
LINE
  5
91
330
1F
100
AcDbEntity
  8
SLD-0
  6
Continuous
 62
   179
100
AcDbLine
 10
177.32034
 20
221.05315
 30
0.0
 11
267.31773
 21
221.05315
 31
0.0
  0
LINE
  5
92
330
1F
100
AcDbEntity
  8
SLD-0
  6
CENTER
 62
   179
100
AcDbLine
 10
173.42085
 20
222.55315
 30
0.0
 11
269.76085
 21
222.55315
 31
0.0
  0
LINE
  5
93
330
1F
100
AcDbEntity
  8
SLD-0
  6
Continuous
 62
   179
100
AcDbLine
 10
177.32034
 20
153.05315
 30
0.0
 11
265.31773
 21
153.05315
 31
0.0
  0
LINE
  5
94
330
1F
100
AcDbEntity
  8
SLD-0
  6
Continuous
 62
   179
100
AcDbLine
 10
177.32034
 20
156.05315
 30
0.0
 11
265.31773
 21
156.05315
 31
0.0
  0
LINE
  5
95
330
1F
100
AcDbEntity
  8
SLD-0
  6
CENTER
 62
   179
100
AcDbLine
 10
174.23936
 20
154.55315
 30
0.0
 11
269.76085
 21
154.55315
 31
0.0
  0
LINE
  5
96
330
1F
100
AcDbEntity
  8
SLD-0
  6
CENTER
 62
   179
100
AcDbLine
 10
199.32034
 20
193.55315
 30
0.0
 11
199.32034
 21
183.55315
 31
0.0
  0
LINE
  5
97
330
1F
100
AcDbEntity
  8
SLD-0
  6
CENTER
 62
   179
100
AcDbLine
 10
255.32033
 20
193.55315
 30
0.0
 11
255.32033
 21
183.55315
 31
0.0
  0
LINE
  5
98
330
1F
100
AcDbEntity
  8
SLD-0
  6
Continuous
 62
   179
100
AcDbLine
 10
177.32035
 20
158.97462
 30
0.0
 11
176.3183
 21
159.55316
 31
0.0
  0
LINE
  5
99
330
1F
100
AcDbEntity
  8
SLD-0
  6
Continuous
 62
   179
100
AcDbLine
 10
177.32036
 20
170.13164
 30
0.0
 11
176.31832
 21
169.55311
 31
0.0
  0
LINE
  5
9A
330
1F
100
AcDbEntity
  8
SLD-0
  6
Continuous
 62
   179
100
AcDbLine
 10
177.32035
 20
218.13169
 30
0.0
 11
176.31829
 21
217.55315
 31
0.0
  0
LINE
  5
9B
330
1F
100
AcDbEntity
  8
SLD-0
  6
Continuous
 62
   179
100
AcDbLine
 10
177.32035
 20
206.97462
 30
0.0
 11
176.3183
 21
207.55315
 31
0.0
  0
LINE
  5
9C
330
1F
100
AcDbEntity
  8
SLD-0
  6
CENTER
 62
   179
100
AcDbLine
 10
237.32033
 20
42.90436
 30
0.0
 11
237.32033
 21
74.285805
 31
0.0
  0
LINE
  5
9D
330
1F
100
AcDbEntity
  8
SLD-0
  6
CENTER
 62
   179
100
AcDbLine
 10
187.32034
 20
42.40436
 30
0.0
 11
187.32034
 21
73.785805
 31
0.0
  0
LINE
  5
9E
330
1F
100
AcDbEntity
  8
SLD-0
  6
HIDDEN
 62
   179
100
AcDbLine
 10
339.704235
 20
222.50302
 30
0.0
 11
339.704235
 21
224.55315
 31
0.0
  0
LINE
  5
9F
330
1F
100
AcDbEntity
  8
SLD-0
  6
HIDDEN
 62
   179
100
AcDbLine
 10
341.704235
 20
222.50302
 30
0.0
 11
341.704235
 21
224.55315
 31
0.0
  0
LINE
  5
A0
330
1F
100
AcDbEntity
  8
SLD-0
  6
Continuous
 62
   179
100
AcDbLine
 10
328.204237
 20
230.05316
 30
0.0
 11
329.204231
 21
231.05315
 31
0.0
  0
LINE
  5
A1
330
1F
100
AcDbEntity
  8
SLD-0
  6
Continuous
 62
   179
100
AcDbLine
 10
328.204217
 20
147.05312
 30
0.0
 11
329.204208
 21
146.05313
 31
0.0
  0
LINE
  5
A2
330
1F
100
AcDbEntity
  8
SLD-0
  6
Continuous
 62
   179
100
AcDbLine
 10
328.204237
 20
230.05316
 30
0.0
 11
328.204239
 21
224.05315
 31
0.0
  0
LINE
  5
A3
330
1F
100
AcDbEntity
  8
SLD-0
  6
HIDDEN
 62
   179
100
AcDbLine
 10
338.60424
 20
224.55315
 30
0.0
 11
342.804234
 21
224.55315
 31
0.0
  0
LINE
  5
A4
330
1F
100
AcDbEntity
  8
SLD-0
  6
HIDDEN
 62
   179
100
AcDbLine
 10
343.204235
 20
149.55315
 30
0.0
 11
343.204235
 21
146.55315
 31
0.0
  0
LINE
  5
A5
330
1F
100
AcDbEntity
  8
SLD-0
  6
HIDDEN
 62
   179
100
AcDbLine
 10
338.60424
 20
152.55315
 30
0.0
 11
342.804234
 21
152.55315
 31
0.0
  0
LINE
  5
A6
330
1F
100
AcDbEntity
  8
SLD-0
  6
HIDDEN
 62
   179
100
AcDbLine
 10
342.804234
 20
152.55315
 30
0.0
 11
342.804234
 21
146.55315
 31
0.0
  0
LINE
  5
A7
330
1F
100
AcDbEntity
  8
SLD-0
  6
HIDDEN
 62
   179
100
AcDbLine
 10
338.204239
 20
149.55315
 30
0.0
 11
338.204239
 21
146.55315
 31
0.0
  0
LINE
  5
A8
330
1F
100
AcDbEntity
  8
SLD-0
  6
HIDDEN
 62
   179
100
AcDbLine
 10
338.204239
 20
149.55315
 30
0.0
 11
343.204235
 21
149.55315
 31
0.0
  0
LINE
  5
A9
330
1F
100
AcDbEntity
  8
SLD-0
  6
HIDDEN
 62
   179
100
AcDbLine
 10
341.704235
 20
154.60327
 30
0.0
 11
341.704235
 21
152.55315
 31
0.0
  0
LINE
  5
AA
330
1F
100
AcDbEntity
  8
SLD-0
  6
HIDDEN
 62
   179
100
AcDbLine
 10
338.60424
 20
152.55315
 30
0.0
 11
338.60424
 21
146.55315
 31
0.0
  0
LINE
  5
AB
330
1F
100
AcDbEntity
  8
SLD-0
  6
HIDDEN
 62
   179
100
AcDbLine
 10
338.20425
 20
146.55315
 30
0.0
 11
337.704249
 21
146.05315
 31
0.0
  0
LINE
  5
AC
330
1F
100
AcDbEntity
  8
SLD-0
  6
HIDDEN
 62
   179
100
AcDbLine
 10
342.804232
 20
150.24597
 30
0.0
 11
343.204235
 21
149.55315
 31
0.0
  0
LINE
  5
AD
330
1F
100
AcDbEntity
  8
SLD-0
  6
HIDDEN
 62
   179
100
AcDbLine
 10
338.60423
 20
150.24597
 30
0.0
 11
338.204229
 21
149.55314
 31
0.0
  0
LINE
  5
AE
330
1F
100
AcDbEntity
  8
SLD-0
  6
HIDDEN
 62
   179
100
AcDbLine
 10
338.204239
 20
146.55315
 30
0.0
 11
343.204235
 21
146.55315
 31
0.0
  0
LINE
  5
AF
330
1F
100
AcDbEntity
  8
SLD-0
  6
HIDDEN
 62
   179
100
AcDbLine
 10
339.704235
 20
154.60327
 30
0.0
 11
339.704235
 21
152.55315
 31
0.0
  0
LINE
  5
B0
330
1F
100
AcDbEntity
  8
SLD-0
  6
Continuous
 62
   179
100
AcDbLine
 10
328.204239
 20
221.05315
 30
0.0
 11
329.806923
 21
221.05315
 31
0.0
  0
LINE
  5
B1
330
1F
100
AcDbEntity
  8
SLD-0
  6
CENTER
 62
   179
100
AcDbLine
 10
327.204239
 20
222.55315
 30
0.0
 11
334.804245
 21
222.55315
 31
0.0
  0
LINE
  5
B2
330
1F
100
AcDbEntity
  8
SLD-0
  6
CENTER
 62
   179
100
AcDbLine
 10
331.204239
 20
218.2993
 30
0.0
 11
331.204239
 21
226.15315
 31
0.0
  0
LINE
  5
B3
330
1F
100
AcDbEntity
  8
SLD-0
  6
Continuous
 62
   179
100
AcDbLine
 10
328.204239
 20
224.05315
 30
0.0
 11
329.806923
 21
224.05315
 31
0.0
  0
LINE
  5
B4
330
1F
100
AcDbEntity
  8
SLD-0
  6
Continuous
 62
   179
100
AcDbLine
 10
328.204239
 20
153.05315
 30
0.0
 11
329.806923
 21
153.05315
 31
0.0
  0
LINE
  5
B5
330
1F
100
AcDbEntity
  8
SLD-0
  6
CENTER
 62
   179
100
AcDbLine
 10
331.204239
 20
158.80699
 30
0.0
 11
331.204239
 21
150.95314
 31
0.0
  0
LINE
  5
B6
330
1F
100
AcDbEntity
  8
SLD-0
  6
CENTER
 62
   179
100
AcDbLine
 10
327.204239
 20
154.55315
 30
0.0
 11
334.804245
 21
154.55315
 31
0.0
  0
LINE
  5
B7
330
1F
100
AcDbEntity
  8
SLD-0
  6
Continuous
 62
   179
100
AcDbLine
 10
328.204239
 20
156.05315
 30
0.0
 11
329.806923
 21
156.05315
 31
0.0
  0
LINE
  5
B8
330
1F
100
AcDbEntity
  8
SLD-0
  6
Continuous
 62
   179
100
AcDbLine
 10
328.204239
 20
153.05315
 30
0.0
 11
328.204239
 21
147.05313
 31
0.0
  0
LINE
  5
B9
330
1F
100
AcDbEntity
  8
SLD-0
  6
Continuous
 62
   179
100
AcDbLine
 10
328.204239
 20
221.05315
 30
0.0
 11
328.204239
 21
156.05315
 31
0.0
  0
LINE
  5
BA
330
1F
100
AcDbEntity
  8
SLD-0
  6
HIDDEN
 62
   179
100
AcDbLine
 10
334.704239
 20
194.05315
 30
0.0
 11
334.704239
 21
183.05315
 31
0.0
  0
LINE
  5
BB
330
1F
100
AcDbEntity
  8
SLD-0
  6
HIDDEN
 62
   179
100
AcDbLine
 10
334.704239
 20
183.05315
 30
0.0
 11
328.204239
 21
183.05315
 31
0.0
  0
LINE
  5
BC
330
1F
100
AcDbEntity
  8
SLD-0
  6
HIDDEN
 62
   179
100
AcDbLine
 10
334.704239
 20
194.05315
 30
0.0
 11
328.204239
 21
194.05315
 31
0.0
  0
LINE
  5
BD
330
1F
100
AcDbEntity
  8
SLD-0
  6
CENTER
 62
   179
100
AcDbLine
 10
187.32034
 20
196.59314
 30
0.0
 11
187.32034
 21
180.51315
 31
0.0
  0
LINE
  5
BE
330
1F
100
AcDbEntity
  8
SLD-0
  6
CENTER
 62
   179
100
AcDbLine
 10
237.32033
 20
196.59314
 30
0.0
 11
237.32033
 21
180.51315
 31
0.0
  0
LINE
  5
BF
330
1F
100
AcDbEntity
  8
SLD-0
  6
HIDDEN
 62
   179
100
AcDbLine
 10
181.82034
 20
64.936096
 30
0.0
 11
192.82034
 21
64.936096
 31
0.0
  0
LINE
  5
C0
330
1F
100
AcDbEntity
  8
SLD-0
  6
HIDDEN
 62
   179
100
AcDbLine
 10
181.82034
 20
64.936096
 30
0.0
 11
181.82034
 21
71.436096
 31
0.0
  0
LINE
  5
C1
330
1F
100
AcDbEntity
  8
SLD-0
  6
HIDDEN
 62
   179
100
AcDbLine
 10
192.82034
 20
64.936096
 30
0.0
 11
192.82034
 21
71.436096
 31
0.0
  0
LINE
  5
C2
330
1F
100
AcDbEntity
  8
SLD-0
  6
HIDDEN
 62
   179
100
AcDbLine
 10
231.82034
 20
64.936096
 30
0.0
 11
242.82034
 21
64.936096
 31
0.0
  0
LINE
  5
C3
330
1F
100
AcDbEntity
  8
SLD-0
  6
HIDDEN
 62
   179
100
AcDbLine
 10
242.82034
 20
64.936096
 30
0.0
 11
242.82034
 21
71.436096
 31
0.0
  0
LINE
  5
C4
330
1F
100
AcDbEntity
  8
SLD-0
  6
HIDDEN
 62
   179
100
AcDbLine
 10
231.82034
 20
64.936096
 30
0.0
 11
231.82034
 21
71.436096
 31
0.0
  0
LINE
  5
C5
330
1F
100
AcDbEntity
  8
SLD-0
  6
HIDDEN
 62
   179
100
AcDbLine
 10
343.204235
 20
146.55315
 30
0.0
 11
343.704234
 21
146.05315
 31
0.0
  0
LINE
  5
C6
330
1F
100
AcDbEntity
  8
SLD-0
  6
HIDDEN
 62
   179
100
AcDbLine
 10
343.204235
 20
230.55315
 30
0.0
 11
343.704245
 21
231.05315
 31
0.0
  0
LINE
  5
C7
330
1F
100
AcDbEntity
  8
SLD-0
  6
HIDDEN
 62
   179
100
AcDbLine
 10
233.32033
 20
64.936096
 30
0.0
 11
233.32033
 21
46.436096
 31
0.0
  0
LINE
  5
C8
330
1F
100
AcDbEntity
  8
SLD-0
  6
HIDDEN
 62
   179
100
AcDbLine
 10
233.87033
 20
64.936096
 30
0.0
 11
233.87033
 21
46.436096
 31
0.0
  0
LINE
  5
C9
330
1F
100
AcDbEntity
  8
SLD-0
  6
HIDDEN
 62
   179
100
AcDbLine
 10
241.32033
 20
64.936096
 30
0.0
 11
241.32033
 21
46.436096
 31
0.0
  0
LINE
  5
CA
330
1F
100
AcDbEntity
  8
SLD-0
  6
HIDDEN
 62
   179
100
AcDbLine
 10
240.77032
 20
64.936096
 30
0.0
 11
240.77032
 21
46.436096
 31
0.0
  0
LINE
  5
CB
330
1F
100
AcDbEntity
  8
SLD-0
  6
HIDDEN
 62
   179
100
AcDbLine
 10
191.32034
 20
64.936096
 30
0.0
 11
191.32034
 21
46.436096
 31
0.0
  0
LINE
  5
CC
330
1F
100
AcDbEntity
  8
SLD-0
  6
HIDDEN
 62
   179
100
AcDbLine
 10
190.77036
 20
64.936096
 30
0.0
 11
190.77036
 21
46.436096
 31
0.0
  0
LINE
  5
CD
330
1F
100
AcDbEntity
  8
SLD-0
  6
HIDDEN
 62
   179
100
AcDbLine
 10
183.32034
 20
64.936096
 30
0.0
 11
183.32034
 21
46.436096
 31
0.0
  0
LINE
  5
CE
330
1F
100
AcDbEntity
  8
SLD-0
  6
HIDDEN
 62
   179
100
AcDbLine
 10
183.87033
 20
64.936096
 30
0.0
 11
183.87033
 21
46.436096
 31
0.0
  0
LINE
  5
CF
330
1F
100
AcDbEntity
  8
SLD-0
  6
Continuous
 62
   179
100
AcDbLine
 10
70.79236
 20
138.55315
 30
0.0
 11
108.79236
 21
138.55315
 31
0.0
  0
LINE
  5
D0
330
1F
100
AcDbEntity
  8
SLD-0
  6
Continuous
 62
   179
100
AcDbLine
 10
101.79236
 20
151.84315
 30
0.0
 11
101.79236
 21
141.26315
 31
0.0
  0
LINE
  5
D1
330
1F
100
AcDbEntity
  8
SLD-0
  6
Continuous
 62
   179
100
AcDbLine
 10
69.79236
 20
139.55315
 30
0.0
 11
69.79236
 21
237.55315
 31
0.0
  0
LINE
  5
D2
330
1F
100
AcDbEntity
  8
SLD-0
  6
CENTER
 62
   179
100
AcDbLine
 10
77.79236
 20
225.26315
 30
0.0
 11
77.79236
 21
235.84315
 31
0.0
  0
LINE
  5
D3
330
1F
100
AcDbEntity
  8
SLD-0
  6
CENTER
 62
   179
100
AcDbLine
 10
72.50235
 20
230.55315
 30
0.0
 11
83.08237
 21
230.55315
 31
0.0
  0
LINE
  5
D4
330
1F
100
AcDbEntity
  8
SLD-0
  6
CENTER
 62
   179
100
AcDbLine
 10
96.50235
 20
146.55315
 30
0.0
 11
107.08237
 21
146.55315
 31
0.0
  0
LINE
  5
D5
330
1F
100
AcDbEntity
  8
SLD-0
  6
Continuous
 62
   179
100
AcDbLine
 10
70.79236
 20
238.55315
 30
0.0
 11
108.79236
 21
238.55315
 31
0.0
  0
LINE
  5
D6
330
1F
100
AcDbEntity
  8
SLD-0
  6
CENTER
 62
   179
100
AcDbLine
 10
96.50235
 20
230.55315
 30
0.0
 11
107.08237
 21
230.55315
 31
0.0
  0
LINE
  5
D7
330
1F
100
AcDbEntity
  8
SLD-0
  6
CENTER
 62
   179
100
AcDbLine
 10
101.79236
 20
225.26315
 30
0.0
 11
101.79236
 21
235.84315
 31
0.0
  0
LINE
  5
D8
330
1F
100
AcDbEntity
  8
SLD-0
  6
CENTER
 62
   179
100
AcDbLine
 10
66.94104
 20
188.55315
 30
0.0
 11
111.90912
 21
188.55315
 31
0.0
  0
LINE
  5
D9
330
1F
100
AcDbEntity
  8
SLD-0
  6
HIDDEN
 62
   179
100
AcDbLine
 10
79.79236
 20
212.55315
 30
0.0
 11
79.79236
 21
164.55315
 31
0.0
  0
LINE
  5
DA
330
1F
100
AcDbEntity
  8
SLD-0
  6
CENTER
 62
   179
100
AcDbLine
 10
72.50235
 20
146.55315
 30
0.0
 11
83.08237
 21
146.55315
 31
0.0
  0
LINE
  5
DB
330
1F
100
AcDbEntity
  8
SLD-0
  6
CENTER
 62
   179
100
AcDbLine
 10
77.79236
 20
151.84315
 30
0.0
 11
77.79236
 21
141.26315
 31
0.0
  0
LINE
  5
DC
330
1F
100
AcDbEntity
  8
SLD-0
  6
Continuous
 62
   179
100
AcDbLine
 10
109.79236
 20
139.55315
 30
0.0
 11
109.79236
 21
237.55315
 31
0.0
  0
LINE
  5
DD
330
1F
100
AcDbEntity
  8
SLD-0
  6
HIDDEN
 62
   179
100
AcDbLine
 10
99.79236
 20
212.55315
 30
0.0
 11
99.79236
 21
164.55315
 31
0.0
  0
LINE
  5
DE
330
1F
100
AcDbEntity
  8
SLD-0
  6
Continuous
 62
   179
100
AcDbLine
 10
69.79237
 20
237.55314
 30
0.0
 11
70.79238
 21
238.55314
 31
0.0
  0
LINE
  5
DF
330
1F
100
AcDbEntity
  8
SLD-0
  6
Continuous
 62
   179
100
AcDbLine
 10
109.79237
 20
237.55313
 30
0.0
 11
108.79237
 21
238.55313
 31
0.0
  0
LINE
  5
E0
330
1F
100
AcDbEntity
  8
SLD-0
  6
Continuous
 62
   179
100
AcDbLine
 10
108.79236
 20
138.55314
 30
0.0
 11
109.79236
 21
139.55315
 31
0.0
  0
LINE
  5
E1
330
1F
100
AcDbEntity
  8
SLD-0
  6
Continuous
 62
   179
100
AcDbLine
 10
69.79236
 20
139.55314
 30
0.0
 11
70.79237
 21
138.55314
 31
0.0
  0
LINE
  5
E2
330
1F
100
AcDbEntity
  8
SLD-0
  6
Continuous
 62
   179
100
AcDbLine
 10
151.32034
 20
238.55315
 30
0.0
 11
161.32034
 21
238.55315
 31
0.0
  0
LINE
  5
E3
330
1F
100
AcDbEntity
  8
SLD-0
  6
CENTER
 62
   179
100
AcDbLine
 10
145.69382
 20
230.55315
 30
0.0
 11
164.58926
 21
230.55315
 31
0.0
  0
LINE
  5
E4
330
1F
100
AcDbEntity
  8
SLD-0
  6
CENTER
 62
   179
100
AcDbLine
 10
145.69382
 20
146.55315
 30
0.0
 11
164.58926
 21
146.55315
 31
0.0
  0
LINE
  5
E5
330
1F
100
AcDbEntity
  8
SLD-0
  6
Continuous
 62
   179
100
AcDbLine
 10
170.32034
 20
159.55315
 30
0.0
 11
176.32031
 21
159.55315
 31
0.0
  0
LINE
  5
E6
330
1F
100
AcDbEntity
  8
SLD-0
  6
Continuous
 62
   179
100
AcDbLine
 10
161.32034
 20
222.55315
 30
0.0
 11
169.32034
 21
222.55315
 31
0.0
  0
LINE
  5
E7
330
1F
100
AcDbEntity
  8
SLD-0
  6
Continuous
 62
   179
100
AcDbLine
 10
169.32034
 20
222.55315
 30
0.0
 11
169.32034
 21
154.55315
 31
0.0
  0
LINE
  5
E8
330
1F
100
AcDbEntity
  8
SLD-0
  6
Continuous
 62
   179
100
AcDbLine
 10
151.32034
 20
238.55315
 30
0.0
 11
151.32034
 21
138.55315
 31
0.0
  0
LINE
  5
E9
330
1F
100
AcDbEntity
  8
SLD-0
  6
Continuous
 62
   179
100
AcDbLine
 10
170.32034
 20
169.55315
 30
0.0
 11
176.32037
 21
169.55315
 31
0.0
  0
LINE
  5
EA
330
1F
100
AcDbEntity
  8
SLD-0
  6
Continuous
 62
   179
100
AcDbLine
 10
170.32034
 20
207.55315
 30
0.0
 11
176.32034
 21
207.55315
 31
0.0
  0
LINE
  5
EB
330
1F
100
AcDbEntity
  8
SLD-0
  6
Continuous
 62
   179
100
AcDbLine
 10
170.32034
 20
217.55315
 30
0.0
 11
176.32031
 21
217.55315
 31
0.0
  0
LINE
  5
EC
330
1F
100
AcDbEntity
  8
SLD-0
  6
Continuous
 62
   179
100
AcDbLine
 10
151.32034
 20
138.55315
 30
0.0
 11
161.32034
 21
138.55315
 31
0.0
  0
LINE
  5
ED
330
1F
100
AcDbEntity
  8
SLD-0
  6
Continuous
 62
   179
100
AcDbLine
 10
161.32034
 20
154.55315
 30
0.0
 11
169.32034
 21
154.55315
 31
0.0
  0
LINE
  5
EE
330
1F
100
AcDbEntity
  8
SLD-0
  6
Continuous
 62
   179
100
AcDbLine
 10
169.32035
 20
206.9758
 30
0.0
 11
170.32036
 21
207.55315
 31
0.0
  0
LINE
  5
EF
330
1F
100
AcDbEntity
  8
SLD-0
  6
Continuous
 62
   179
100
AcDbLine
 10
169.32037
 20
218.13051
 30
0.0
 11
170.32039
 21
217.55315
 31
0.0
  0
LINE
  5
F0
330
1F
100
AcDbEntity
  8
SLD-0
  6
Continuous
 62
   179
100
AcDbLine
 10
169.32036
 20
170.13049
 30
0.0
 11
170.32038
 21
169.55313
 31
0.0
  0
LINE
  5
F1
330
1F
100
AcDbEntity
  8
SLD-0
  6
Continuous
 62
   179
100
AcDbLine
 10
169.32036
 20
158.97576
 30
0.0
 11
170.32039
 21
159.55312
 31
0.0
  0
LINE
  5
F2
330
1F
100
AcDbEntity
  8
SLD-0
  6
Continuous
 62
   179
100
AcDbLine
 10
170.32034
 20
55.619461
 30
0.0
 11
176.32034
 21
55.619461
 31
0.0
  0
LINE
  5
F3
330
1F
100
AcDbEntity
  8
SLD-0
  6
PHANTOM
 62
   179
100
AcDbLine
 10
129.32034
 20
64.936096
 30
0.0
 11
143.95459
 21
64.936096
 31
0.0
  0
LINE
  5
F4
330
1F
100
AcDbEntity
  8
SLD-0
  6
PHANTOM
 62
   179
100
AcDbLine
 10
129.32034
 20
68.936096
 30
0.0
 11
129.32034
 21
48.936096
 31
0.0
  0
LINE
  5
F5
330
1F
100
AcDbEntity
  8
SLD-0
  6
PHANTOM
 62
   179
100
AcDbLine
 10
111.32034
 20
78.936096
 30
0.0
 11
111.32034
 21
38.936098
 31
0.0
  0
LINE
  5
F6
330
1F
100
AcDbEntity
  8
SLD-0
  6
PHANTOM
 62
   179
100
AcDbLine
 10
111.32034
 20
78.936096
 30
0.0
 11
121.32034
 21
78.936096
 31
0.0
  0
LINE
  5
F7
330
1F
100
AcDbEntity
  8
SLD-0
  6
Continuous
 62
   179
100
AcDbLine
 10
176.32034
 20
55.619461
 30
0.0
 11
176.32034
 21
62.252708
 31
0.0
  0
LINE
  5
F8
330
1F
100
AcDbEntity
  8
SLD-0
  6
Continuous
 62
   179
100
AcDbLine
 10
170.32034
 20
62.252708
 30
0.0
 11
176.32034
 21
62.252708
 31
0.0
  0
LINE
  5
F9
330
1F
100
AcDbEntity
  8
SLD-0
  6
PHANTOM
 62
   179
100
AcDbLine
 10
111.32034
 20
38.936098
 30
0.0
 11
121.32034
 21
38.936098
 31
0.0
  0
LINE
  5
FA
330
1F
100
AcDbEntity
  8
SLD-0
  6
PHANTOM
 62
   179
100
AcDbLine
 10
129.32034
 20
52.936096
 30
0.0
 11
143.95459
 21
52.936096
 31
0.0
  0
LINE
  5
FB
330
1F
100
AcDbEntity
  8
SLD-0
  6
Continuous
 62
   179
100
AcDbLine
 10
170.32034
 20
55.619461
 30
0.0
 11
170.32034
 21
62.252708
 31
0.0
  0
LINE
  5
FC
330
1F
100
AcDbEntity
  8
SLD-0
  6
PHANTOM
 62
   179
100
AcDbLine
 10
121.32034
 20
48.936096
 30
0.0
 11
129.32034
 21
48.936096
 31
0.0
  0
LINE
  5
FD
330
1F
100
AcDbEntity
  8
SLD-0
  6
Continuous
 62
   179
100
AcDbLine
 10
170.32034
 20
62.252708
 30
0.0
 11
170.32034
 21
55.619461
 31
0.0
  0
LINE
  5
FE
330
1F
100
AcDbEntity
  8
SLD-0
  6
PHANTOM
 62
   179
100
AcDbLine
 10
121.32034
 20
68.936096
 30
0.0
 11
129.32034
 21
68.936096
 31
0.0
  0
LINE
  5
FF
330
1F
100
AcDbEntity
  8
SLD-0
  6
Continuous
 62
   179
100
AcDbLine
 10
176.32034
 20
62.252708
 30
0.0
 11
170.32034
 21
55.619461
 31
0.0
  0
LINE
  5
100
330
1F
100
AcDbEntity
  8
SLD-0
  6
Continuous
 62
   179
100
AcDbLine
 10
176.32034
 20
55.619461
 30
0.0
 11
170.32036
 21
62.252693
 31
0.0
  0
LINE
  5
101
330
1F
100
AcDbEntity
  8
SLD-0
  6
Continuous
 62
   179
100
AcDbLine
 10
265.31773
 20
46.436096
 30
0.0
 11
265.31773
 21
71.436096
 31
0.0
  0
LINE
  5
102
330
1F
100
AcDbEntity
  8
SLD-0
  6
Continuous
 62
   179
100
AcDbLine
 10
265.31773
 20
231.05315
 30
0.0
 11
265.31773
 21
146.05315
 31
0.0
  0
LINE
  5
103
330
1F
100
AcDbEntity
  8
SLD-0
  6
CENTER
 62
   179
100
AcDbLine
 10
198.32034
 20
62.955772
 30
0.0
 11
198.32034
 21
53.805046
 31
0.0
  0
LINE
  5
104
330
1F
100
AcDbEntity
  8
SLD-0
  6
CENTER
 62
   179
100
AcDbLine
 10
89.79236
 20
242.61861
 30
0.0
 11
89.79236
 21
132.46637
 31
0.0
  0
LINE
  5
105
330
1F
100
AcDbEntity
  8
SLD-0
  6
Continuous
 62
   179
100
AcDbLine
 10
161.32034
 20
238.55315
 30
0.0
 11
161.32034
 21
138.55315
 31
0.0
  0
LINE
  5
106
330
1F
100
AcDbEntity
  8
SLD-0
  6
PHANTOM
 62
   179
100
AcDbLine
 10
121.32034
 20
78.936096
 30
0.0
 11
121.32034
 21
38.936098
 31
0.0
  0
LINE
  5
107
330
1F
100
AcDbEntity
  8
SLD-0
  6
Continuous
 62
   179
100
AcDbLine
 10
161.32034
 20
68.936096
 30
0.0
 11
169.32034
 21
68.936096
 31
0.0
  0
LINE
  5
108
330
1F
100
AcDbEntity
  8
SLD-0
  6
Continuous
 62
   179
100
AcDbLine
 10
161.32034
 20
48.936096
 30
0.0
 11
169.32034
 21
48.936096
 31
0.0
  0
LINE
  5
109
330
1F
100
AcDbEntity
  8
SLD-0
  6
CENTER
 62
   179
100
AcDbLine
 10
145.69382
 20
70.936096
 30
0.0
 11
164.04089
 21
70.936096
 31
0.0
  0
LINE
  5
10A
330
1F
100
AcDbEntity
  8
SLD-0
  6
Continuous
 62
   179
100
AcDbLine
 10
169.32034
 20
52.936096
 30
0.0
 11
177.32034
 21
52.936096
 31
0.0
  0
LINE
  5
10B
330
1F
100
AcDbEntity
  8
SLD-0
  6
Continuous
 62
   179
100
AcDbLine
 10
151.32034
 20
38.936098
 30
0.0
 11
161.32034
 21
38.936098
 31
0.0
  0
LINE
  5
10C
330
1F
100
AcDbEntity
  8
SLD-0
  6
Continuous
 62
   179
100
AcDbLine
 10
151.32034
 20
78.936096
 30
0.0
 11
161.32034
 21
78.936096
 31
0.0
  0
LINE
  5
10D
330
1F
100
AcDbEntity
  8
SLD-0
  6
Continuous
 62
   179
100
AcDbLine
 10
151.32034
 20
78.936096
 30
0.0
 11
151.32034
 21
38.936098
 31
0.0
  0
LINE
  5
10E
330
1F
100
AcDbEntity
  8
SLD-0
  6
Continuous
 62
   179
100
AcDbLine
 10
169.32034
 20
68.936096
 30
0.0
 11
169.32034
 21
48.936096
 31
0.0
  0
LINE
  5
10F
330
1F
100
AcDbEntity
  8
SLD-0
  6
CENTER
 62
   179
100
AcDbLine
 10
145.69382
 20
46.936096
 30
0.0
 11
164.04089
 21
46.936096
 31
0.0
  0
LINE
  5
110
330
1F
100
AcDbEntity
  8
SLD-0
  6
Continuous
 62
   179
100
AcDbLine
 10
169.32034
 20
64.936096
 30
0.0
 11
177.32034
 21
64.936096
 31
0.0
  0
LINE
  5
111
330
1F
100
AcDbEntity
  8
SLD-0
  6
Continuous
 62
   179
100
AcDbLine
 10
161.32034
 20
78.936096
 30
0.0
 11
161.32034
 21
38.936098
 31
0.0
  0
LINE
  5
112
330
1F
100
AcDbEntity
  8
SLD-0
  6
HIDDEN
 62
   179
100
AcDbLine
 10
201.47034
 20
63.829879
 30
0.0
 11
201.82034
 21
64.436094
 31
0.0
  0
LINE
  5
113
330
1F
100
AcDbEntity
  8
SLD-0
  6
HIDDEN
 62
   179
100
AcDbLine
 10
199.32035
 20
55.694786
 30
0.0
 11
197.17035
 21
56.936089
 31
0.0
  0
LINE
  5
114
330
1F
100
AcDbEntity
  8
SLD-0
  6
HIDDEN
 62
   179
100
AcDbLine
 10
199.32034
 20
55.69478
 30
0.0
 11
201.47036
 21
56.93609
 31
0.0
  0
LINE
  5
115
330
1F
100
AcDbEntity
  8
SLD-0
  6
HIDDEN
 62
   179
100
AcDbLine
 10
201.47035
 20
56.936089
 30
0.0
 11
197.17035
 21
56.936089
 31
0.0
  0
LINE
  5
116
330
1F
100
AcDbEntity
  8
SLD-0
  6
HIDDEN
 62
   179
100
AcDbLine
 10
201.82034
 20
64.436094
 30
0.0
 11
196.82034
 21
64.436092
 31
0.0
  0
LINE
  5
117
330
1F
100
AcDbEntity
  8
SLD-0
  6
HIDDEN
 62
   179
100
AcDbLine
 10
197.17035
 20
56.936089
 30
0.0
 11
197.17035
 21
71.436096
 31
0.0
  0
LINE
  5
118
330
1F
100
AcDbEntity
  8
SLD-0
  6
HIDDEN
 62
   179
100
AcDbLine
 10
201.47035
 20
56.936089
 30
0.0
 11
201.47035
 21
71.436096
 31
0.0
  0
LINE
  5
119
330
1F
100
AcDbEntity
  8
SLD-0
  6
HIDDEN
 62
   179
100
AcDbLine
 10
196.82034
 20
64.436092
 30
0.0
 11
196.82034
 21
71.436096
 31
0.0
  0
LINE
  5
11A
330
1F
100
AcDbEntity
  8
SLD-0
  6
HIDDEN
 62
   179
100
AcDbLine
 10
201.82034
 20
64.436094
 30
0.0
 11
201.82034
 21
71.436096
 31
0.0
  0
LINE
  5
11B
330
1F
100
AcDbEntity
  8
SLD-0
  6
HIDDEN
 62
   179
100
AcDbLine
 10
197.17034
 20
63.829885
 30
0.0
 11
196.82034
 21
64.436092
 31
0.0
  0
LINE
  5
11C
330
1F
100
AcDbEntity
  8
SLD-0
  6
CENTER
 62
   179
100
AcDbLine
 10
199.32034
 20
54.308872
 30
0.0
 11
199.32034
 21
72.983475
 31
0.0
  0
LINE
  5
11D
330
1F
100
AcDbEntity
  8
SLD-0
  6
HIDDEN
 62
   179
100
AcDbLine
 10
201.82034
 20
64.436094
 30
0.0
 11
201.82034
 21
71.436096
 31
0.0
  0
LINE
  5
11E
330
1F
100
AcDbEntity
  8
SLD-0
  6
HIDDEN
 62
   179
100
AcDbLine
 10
257.47033
 20
63.829882
 30
0.0
 11
257.82033
 21
64.436097
 31
0.0
  0
LINE
  5
11F
330
1F
100
AcDbEntity
  8
SLD-0
  6
HIDDEN
 62
   179
100
AcDbLine
 10
255.32033
 20
55.694788
 30
0.0
 11
253.17033
 21
56.93609
 31
0.0
  0
LINE
  5
120
330
1F
100
AcDbEntity
  8
SLD-0
  6
HIDDEN
 62
   179
100
AcDbLine
 10
255.32033
 20
55.694788
 30
0.0
 11
257.47033
 21
56.936095
 31
0.0
  0
LINE
  5
121
330
1F
100
AcDbEntity
  8
SLD-0
  6
HIDDEN
 62
   179
100
AcDbLine
 10
257.47033
 20
56.936095
 30
0.0
 11
253.17033
 21
56.93609
 31
0.0
  0
LINE
  5
122
330
1F
100
AcDbEntity
  8
SLD-0
  6
HIDDEN
 62
   179
100
AcDbLine
 10
257.82033
 20
64.436097
 30
0.0
 11
252.82033
 21
64.436092
 31
0.0
  0
LINE
  5
123
330
1F
100
AcDbEntity
  8
SLD-0
  6
HIDDEN
 62
   179
100
AcDbLine
 10
253.17033
 20
56.93609
 30
0.0
 11
253.17033
 21
71.436096
 31
0.0
  0
LINE
  5
124
330
1F
100
AcDbEntity
  8
SLD-0
  6
HIDDEN
 62
   179
100
AcDbLine
 10
257.47033
 20
56.936095
 30
0.0
 11
257.47034
 21
71.436096
 31
0.0
  0
LINE
  5
125
330
1F
100
AcDbEntity
  8
SLD-0
  6
HIDDEN
 62
   179
100
AcDbLine
 10
252.82033
 20
64.436092
 30
0.0
 11
252.82033
 21
71.436096
 31
0.0
  0
LINE
  5
126
330
1F
100
AcDbEntity
  8
SLD-0
  6
HIDDEN
 62
   179
100
AcDbLine
 10
257.82033
 20
64.436097
 30
0.0
 11
257.82033
 21
71.436096
 31
0.0
  0
LINE
  5
127
330
1F
100
AcDbEntity
  8
SLD-0
  6
HIDDEN
 62
   179
100
AcDbLine
 10
253.17033
 20
63.829878
 30
0.0
 11
252.82033
 21
64.436092
 31
0.0
  0
LINE
  5
128
330
1F
100
AcDbEntity
  8
SLD-0
  6
CENTER
 62
   179
100
AcDbLine
 10
255.32033
 20
54.308872
 30
0.0
 11
255.32033
 21
72.983475
 31
0.0
  0
LINE
  5
129
330
1F
100
AcDbEntity
  8
SLD-0
  6
HIDDEN
 62
   179
100
AcDbLine
 10
257.82033
 20
64.436097
 30
0.0
 11
257.82033
 21
71.436096
 31
0.0
  0
LINE
  5
12A
330
1F
100
AcDbEntity
  8
SLD-0
  6
Continuous
 62
   179
100
AcDbLine
 10
247.71774
 20
221.15315
 30
0.0
 11
264.31772
 21
221.15315
 31
0.0
  0
LINE
  5
12B
330
1F
100
AcDbEntity
  8
SLD-0
  6
Continuous
 62
   179
100
AcDbLine
 10
247.71774
 20
223.95314
 30
0.0
 11
264.31772
 21
223.95314
 31
0.0
  0
LINE
  5
12C
330
1F
100
AcDbEntity
  8
SLD-0
  6
Continuous
 62
   179
100
AcDbLine
 10
242.31772
 20
220.55315
 30
0.0
 11
264.31772
 21
220.55315
 31
0.0
  0
LINE
  5
12D
330
1F
100
AcDbEntity
  8
SLD-0
  6
Continuous
 62
   179
100
AcDbLine
 10
242.31772
 20
224.55315
 30
0.0
 11
264.31772
 21
224.55315
 31
0.0
  0
LINE
  5
12E
330
1F
100
AcDbEntity
  8
SLD-0
  6
Continuous
 62
   179
100
AcDbLine
 10
242.31772
 20
220.55315
 30
0.0
 11
242.31772
 21
224.55315
 31
0.0
  0
LINE
  5
12F
330
1F
100
AcDbEntity
  8
SLD-0
  6
Continuous
 62
   179
100
AcDbLine
 10
264.31772
 20
220.55315
 30
0.0
 11
264.31772
 21
224.55315
 31
0.0
  0
LINE
  5
130
330
1F
100
AcDbEntity
  8
SLD-0
  6
Continuous
 62
   179
100
AcDbLine
 10
251.06772
 20
223.30315
 30
0.0
 11
249.56772
 21
223.30315
 31
0.0
  0
LINE
  5
131
330
1F
100
AcDbEntity
  8
SLD-0
  6
Continuous
 62
   179
100
AcDbLine
 10
251.06772
 20
221.80315
 30
0.0
 11
249.56772
 21
221.80315
 31
0.0
  0
LINE
  5
132
330
1F
100
AcDbEntity
  8
SLD-0
  6
Continuous
 62
   179
100
AcDbLine
 10
243.67183
 20
221.48297
 30
0.0
 11
245.38792
 21
223.19906
 31
0.0
  0
LINE
  5
133
330
1F
100
AcDbEntity
  8
SLD-0
  6
Continuous
 62
   179
100
AcDbLine
 10
243.24758
 20
221.90722
 30
0.0
 11
244.96367
 21
223.6233
 31
0.0
  0
LINE
  5
134
330
1F
100
AcDbEntity
  8
SLD-0
  6
CENTER
 62
   179
100
AcDbLine
 10
244.31772
 20
219.80315
 30
0.0
 11
244.31772
 21
225.30315
 31
0.0
  0
LINE
  5
135
330
1F
100
AcDbEntity
  8
SLD-0
  6
Continuous
 62
   179
100
AcDbLine
 10
264.31772
 20
221.20314
 30
0.0
 11
274.06772
 21
221.20314
 31
0.0
  0
LINE
  5
136
330
1F
100
AcDbEntity
  8
SLD-0
  6
Continuous
 62
   179
100
AcDbLine
 10
264.31772
 20
223.90315
 30
0.0
 11
274.06772
 21
223.90315
 31
0.0
  0
LINE
  5
137
330
1F
100
AcDbEntity
  8
SLD-0
  6
Continuous
 62
   179
100
AcDbLine
 10
206.72037
 20
155.95314
 30
0.0
 11
223.32034
 21
155.95314
 31
0.0
  0
LINE
  5
138
330
1F
100
AcDbEntity
  8
SLD-0
  6
Continuous
 62
   179
100
AcDbLine
 10
206.72037
 20
153.15315
 30
0.0
 11
223.32034
 21
153.15315
 31
0.0
  0
LINE
  5
139
330
1F
100
AcDbEntity
  8
SLD-0
  6
Continuous
 62
   179
100
AcDbLine
 10
201.32034
 20
156.55315
 30
0.0
 11
223.32034
 21
156.55315
 31
0.0
  0
LINE
  5
13A
330
1F
100
AcDbEntity
  8
SLD-0
  6
Continuous
 62
   179
100
AcDbLine
 10
201.32034
 20
152.55315
 30
0.0
 11
223.32034
 21
152.55315
 31
0.0
  0
LINE
  5
13B
330
1F
100
AcDbEntity
  8
SLD-0
  6
Continuous
 62
   179
100
AcDbLine
 10
201.32034
 20
156.55315
 30
0.0
 11
201.32034
 21
152.55315
 31
0.0
  0
LINE
  5
13C
330
1F
100
AcDbEntity
  8
SLD-0
  6
Continuous
 62
   179
100
AcDbLine
 10
223.32034
 20
156.55315
 30
0.0
 11
223.32034
 21
152.55315
 31
0.0
  0
LINE
  5
13D
330
1F
100
AcDbEntity
  8
SLD-0
  6
Continuous
 62
   179
100
AcDbLine
 10
210.07034
 20
153.80315
 30
0.0
 11
208.57034
 21
153.80315
 31
0.0
  0
LINE
  5
13E
330
1F
100
AcDbEntity
  8
SLD-0
  6
Continuous
 62
   179
100
AcDbLine
 10
210.07034
 20
155.30315
 30
0.0
 11
208.57034
 21
155.30315
 31
0.0
  0
LINE
  5
13F
330
1F
100
AcDbEntity
  8
SLD-0
  6
Continuous
 62
   179
100
AcDbLine
 10
202.67446
 20
155.62333
 30
0.0
 11
204.39054
 21
153.90725
 31
0.0
  0
LINE
  5
140
330
1F
100
AcDbEntity
  8
SLD-0
  6
Continuous
 62
   179
100
AcDbLine
 10
202.2502
 20
155.19907
 30
0.0
 11
203.96628
 21
153.48299
 31
0.0
  0
LINE
  5
141
330
1F
100
AcDbEntity
  8
SLD-0
  6
CENTER
 62
   179
100
AcDbLine
 10
203.32034
 20
157.30315
 30
0.0
 11
203.32034
 21
151.80315
 31
0.0
  0
LINE
  5
142
330
1F
100
AcDbEntity
  8
SLD-0
  6
Continuous
 62
   179
100
AcDbLine
 10
223.32034
 20
155.90315
 30
0.0
 11
233.07034
 21
155.90315
 31
0.0
  0
LINE
  5
143
330
1F
100
AcDbEntity
  8
SLD-0
  6
Continuous
 62
   179
100
AcDbLine
 10
223.32034
 20
153.20314
 30
0.0
 11
233.07034
 21
153.20314
 31
0.0
  0
LINE
  5
144
330
1F
100
AcDbEntity
  8
SLD-0
  6
Continuous
 62
   179
100
AcDbLine
 10
346.133593
 20
159.7855
 30
0.0
 11
346.920547
 21
156.84855
 31
0.0
  0
LINE
  5
145
330
1F
100
AcDbEntity
  8
SLD-0
  6
Continuous
 62
   179
100
AcDbLine
 10
348.065449
 20
162.30315
 30
0.0
 11
350.960331
 21
162.30315
 31
0.0
  0
LINE
  5
146
330
1F
100
AcDbEntity
  8
SLD-0
  6
Continuous
 62
   179
100
AcDbLine
 10
348.0654485992
 20
166.8031496925
 30
0.0
 11
350.9603305992
 21
166.8031496925
 31
0.0
  0
LINE
  5
147
330
1F
100
AcDbEntity
  8
SLD-0
  6
Continuous
 62
   179
100
AcDbLine
 10
346.133597
 20
169.32079
 30
0.0
 11
346.920559
 21
172.25777
 31
0.0
  0
LINE
  5
148
330
1F
100
AcDbEntity
  8
SLD-0
  6
Continuous
 62
   179
100
AcDbLine
 10
346.133594
 20
207.78551
 30
0.0
 11
346.920548
 21
204.84855
 31
0.0
  0
LINE
  5
149
330
1F
100
AcDbEntity
  8
SLD-0
  6
Continuous
 62
   179
100
AcDbLine
 10
348.0654471997
 20
210.3031513814
 30
0.0
 11
350.9603291997
 21
210.3031513814
 31
0.0
  0
LINE
  5
14A
330
1F
100
AcDbEntity
  8
SLD-0
  6
Continuous
 62
   179
100
AcDbLine
 10
348.0654471997
 20
214.8031486186
 30
0.0
 11
350.9603291997
 21
214.8031486186
 31
0.0
  0
LINE
  5
14B
330
1F
100
AcDbEntity
  8
SLD-0
  6
Continuous
 62
   179
100
AcDbLine
 10
346.133594
 20
217.32079
 30
0.0
 11
346.920557
 21
220.25778
 31
0.0
  0
LINE
  5
14C
330
1F
100
AcDbEntity
  8
SLD-0
  6
Continuous
 62
   179
100
AcDbLine
 10
89.79237
 20
161.66639
 30
0.0
 11
87.29237
 21
163.10976
 31
0.0
  0
LINE
  5
14D
330
1F
100
AcDbEntity
  8
SLD-0
  6
Continuous
 62
   179
100
AcDbLine
 10
87.29236
 20
163.10977
 30
0.0
 11
87.29236
 21
165.99652
 31
0.0
  0
LINE
  5
14E
330
1F
100
AcDbEntity
  8
SLD-0
  6
Continuous
 62
   179
100
AcDbLine
 10
89.79236
 20
167.43989
 30
0.0
 11
87.29236
 21
165.99652
 31
0.0
  0
LINE
  5
14F
330
1F
100
AcDbEntity
  8
SLD-0
  6
Continuous
 62
   179
100
AcDbLine
 10
92.29237
 20
165.99652
 30
0.0
 11
89.79238
 21
167.43989
 31
0.0
  0
LINE
  5
150
330
1F
100
AcDbEntity
  8
SLD-0
  6
Continuous
 62
   179
100
AcDbLine
 10
92.29236
 20
163.10977
 30
0.0
 11
92.29236
 21
165.99652
 31
0.0
  0
LINE
  5
151
330
1F
100
AcDbEntity
  8
SLD-0
  6
Continuous
 62
   179
100
AcDbLine
 10
89.79236
 20
161.66639
 30
0.0
 11
92.29236
 21
163.10977
 31
0.0
  0
LINE
  5
152
330
1F
100
AcDbEntity
  8
SLD-0
  6
CENTER
 62
   179
100
AcDbLine
 10
89.79236
 20
156.01315
 30
0.0
 11
89.79236
 21
173.09315
 31
0.0
  0
LINE
  5
153
330
1F
100
AcDbEntity
  8
SLD-0
  6
CENTER
 62
   179
100
AcDbLine
 10
81.25235
 20
164.55315
 30
0.0
 11
98.33237
 21
164.55315
 31
0.0
  0
LINE
  5
154
330
1F
100
AcDbEntity
  8
SLD-0
  6
Continuous
 62
   179
100
AcDbLine
 10
89.79236
 20
215.43989
 30
0.0
 11
87.29236
 21
213.99651
 31
0.0
  0
LINE
  5
155
330
1F
100
AcDbEntity
  8
SLD-0
  6
Continuous
 62
   179
100
AcDbLine
 10
87.29236
 20
213.99651
 30
0.0
 11
87.29236
 21
211.10977
 31
0.0
  0
LINE
  5
156
330
1F
100
AcDbEntity
  8
SLD-0
  6
Continuous
 62
   179
100
AcDbLine
 10
89.79237
 20
209.66639
 30
0.0
 11
87.29237
 21
211.10976
 31
0.0
  0
LINE
  5
157
330
1F
100
AcDbEntity
  8
SLD-0
  6
Continuous
 62
   179
100
AcDbLine
 10
92.29236
 20
211.10976
 30
0.0
 11
89.79236
 21
209.66639
 31
0.0
  0
LINE
  5
158
330
1F
100
AcDbEntity
  8
SLD-0
  6
Continuous
 62
   179
100
AcDbLine
 10
92.29236
 20
213.99652
 30
0.0
 11
92.29236
 21
211.10976
 31
0.0
  0
LINE
  5
159
330
1F
100
AcDbEntity
  8
SLD-0
  6
Continuous
 62
   179
100
AcDbLine
 10
89.79238
 20
215.43989
 30
0.0
 11
92.29237
 21
213.99652
 31
0.0
  0
LINE
  5
15A
330
1F
100
AcDbEntity
  8
SLD-0
  6
CENTER
 62
   179
100
AcDbLine
 10
89.79236
 20
221.09315
 30
0.0
 11
89.79236
 21
204.01315
 31
0.0
  0
LINE
  5
15B
330
1F
100
AcDbEntity
  8
SLD-0
  6
CENTER
 62
   179
100
AcDbLine
 10
81.25235
 20
212.55315
 30
0.0
 11
98.33237
 21
212.55315
 31
0.0
  0
LINE
  5
15C
330
1F
100
AcDbEntity
  8
SLD-0
  6
HIDDEN
 62
   179
100
AcDbLine
 10
157.82034
 20
209.55315
 30
0.0
 11
168.82034
 21
209.55315
 31
0.0
  0
LINE
  5
15D
330
1F
100
AcDbEntity
  8
SLD-0
  6
HIDDEN
 62
   179
100
AcDbLine
 10
152.32034
 20
217.55315
 30
0.0
 11
152.32034
 21
207.55315
 31
0.0
  0
LINE
  5
15E
330
1F
100
AcDbEntity
  8
SLD-0
  6
HIDDEN
 62
   179
100
AcDbLine
 10
152.32034
 20
217.55315
 30
0.0
 11
157.82034
 21
217.55315
 31
0.0
  0
LINE
  5
15F
330
1F
100
AcDbEntity
  8
SLD-0
  6
HIDDEN
 62
   179
100
AcDbLine
 10
151.82034
 20
217.05315
 30
0.0
 11
151.82034
 21
208.05315
 31
0.0
  0
LINE
  5
160
330
1F
100
AcDbEntity
  8
SLD-0
  6
HIDDEN
 62
   179
100
AcDbLine
 10
157.82034
 20
215.55315
 30
0.0
 11
168.82034
 21
215.55315
 31
0.0
  0
LINE
  5
161
330
1F
100
AcDbEntity
  8
SLD-0
  6
HIDDEN
 62
   179
100
AcDbLine
 10
159.82034
 20
214.95314
 30
0.0
 11
169.42035
 21
214.95314
 31
0.0
  0
LINE
  5
162
330
1F
100
AcDbEntity
  8
SLD-0
  6
HIDDEN
 62
   179
100
AcDbLine
 10
169.82034
 20
214.55315
 30
0.0
 11
169.82034
 21
210.55315
 31
0.0
  0
LINE
  5
163
330
1F
100
AcDbEntity
  8
SLD-0
  6
HIDDEN
 62
   179
100
AcDbLine
 10
159.82034
 20
210.15315
 30
0.0
 11
169.42035
 21
210.15315
 31
0.0
  0
LINE
  5
164
330
1F
100
AcDbEntity
  8
SLD-0
  6
HIDDEN
 62
   179
100
AcDbLine
 10
151.32034
 20
207.05315
 30
0.0
 11
157.82034
 21
207.05315
 31
0.0
  0
LINE
  5
165
330
1F
100
AcDbEntity
  8
SLD-0
  6
HIDDEN
 62
   179
100
AcDbLine
 10
157.82034
 20
218.05315
 30
0.0
 11
157.82034
 21
207.05315
 31
0.0
  0
LINE
  5
166
330
1F
100
AcDbEntity
  8
SLD-0
  6
HIDDEN
 62
   179
100
AcDbLine
 10
151.32034
 20
218.05315
 30
0.0
 11
157.82034
 21
218.05315
 31
0.0
  0
LINE
  5
167
330
1F
100
AcDbEntity
  8
SLD-0
  6
HIDDEN
 62
   179
100
AcDbLine
 10
152.32034
 20
207.55315
 30
0.0
 11
157.82034
 21
207.55315
 31
0.0
  0
LINE
  5
168
330
1F
100
AcDbEntity
  8
SLD-0
  6
HIDDEN
 62
   179
100
AcDbLine
 10
151.82036
 20
217.05314
 30
0.0
 11
152.32036
 21
217.55314
 31
0.0
  0
LINE
  5
169
330
1F
100
AcDbEntity
  8
SLD-0
  6
HIDDEN
 62
   179
100
AcDbLine
 10
151.82034
 20
208.05315
 30
0.0
 11
152.32034
 21
207.55315
 31
0.0
  0
LINE
  5
16A
330
1F
100
AcDbEntity
  8
SLD-0
  6
HIDDEN
 62
   179
100
AcDbLine
 10
159.82034
 20
215.55315
 30
0.0
 11
159.82034
 21
209.55315
 31
0.0
  0
LINE
  5
16B
330
1F
100
AcDbEntity
  8
SLD-0
  6
HIDDEN
 62
   179
100
AcDbLine
 10
168.82034
 20
215.55315
 30
0.0
 11
169.82034
 21
214.55315
 31
0.0
  0
LINE
  5
16C
330
1F
100
AcDbEntity
  8
SLD-0
  6
HIDDEN
 62
   179
100
AcDbLine
 10
168.82034
 20
209.55315
 30
0.0
 11
169.82034
 21
210.55315
 31
0.0
  0
LINE
  5
16D
330
1F
100
AcDbEntity
  8
SLD-0
  6
HIDDEN
 62
   179
100
AcDbLine
 10
168.82034
 20
215.55315
 30
0.0
 11
168.82034
 21
209.55315
 31
0.0
  0
LINE
  5
16E
330
1F
100
AcDbEntity
  8
SLD-0
  6
HIDDEN
 62
   179
100
AcDbLine
 10
157.82034
 20
167.55315
 30
0.0
 11
168.82034
 21
167.55315
 31
0.0
  0
LINE
  5
16F
330
1F
100
AcDbEntity
  8
SLD-0
  6
HIDDEN
 62
   179
100
AcDbLine
 10
152.32034
 20
159.55315
 30
0.0
 11
152.32034
 21
169.55315
 31
0.0
  0
LINE
  5
170
330
1F
100
AcDbEntity
  8
SLD-0
  6
HIDDEN
 62
   179
100
AcDbLine
 10
152.32034
 20
159.55315
 30
0.0
 11
157.82034
 21
159.55315
 31
0.0
  0
LINE
  5
171
330
1F
100
AcDbEntity
  8
SLD-0
  6
HIDDEN
 62
   179
100
AcDbLine
 10
151.82034
 20
160.05315
 30
0.0
 11
151.82034
 21
169.05315
 31
0.0
  0
LINE
  5
172
330
1F
100
AcDbEntity
  8
SLD-0
  6
HIDDEN
 62
   179
100
AcDbLine
 10
157.82034
 20
161.55315
 30
0.0
 11
168.82034
 21
161.55315
 31
0.0
  0
LINE
  5
173
330
1F
100
AcDbEntity
  8
SLD-0
  6
HIDDEN
 62
   179
100
AcDbLine
 10
159.82034
 20
162.15315
 30
0.0
 11
169.42035
 21
162.15315
 31
0.0
  0
LINE
  5
174
330
1F
100
AcDbEntity
  8
SLD-0
  6
HIDDEN
 62
   179
100
AcDbLine
 10
169.82034
 20
162.55315
 30
0.0
 11
169.82034
 21
166.55315
 31
0.0
  0
LINE
  5
175
330
1F
100
AcDbEntity
  8
SLD-0
  6
HIDDEN
 62
   179
100
AcDbLine
 10
159.82034
 20
166.95314
 30
0.0
 11
169.42035
 21
166.95314
 31
0.0
  0
LINE
  5
176
330
1F
100
AcDbEntity
  8
SLD-0
  6
HIDDEN
 62
   179
100
AcDbLine
 10
151.32034
 20
170.05315
 30
0.0
 11
157.82034
 21
170.05315
 31
0.0
  0
LINE
  5
177
330
1F
100
AcDbEntity
  8
SLD-0
  6
HIDDEN
 62
   179
100
AcDbLine
 10
157.82034
 20
159.05315
 30
0.0
 11
157.82034
 21
170.05315
 31
0.0
  0
LINE
  5
178
330
1F
100
AcDbEntity
  8
SLD-0
  6
HIDDEN
 62
   179
100
AcDbLine
 10
151.32034
 20
159.05315
 30
0.0
 11
157.82034
 21
159.05315
 31
0.0
  0
LINE
  5
179
330
1F
100
AcDbEntity
  8
SLD-0
  6
HIDDEN
 62
   179
100
AcDbLine
 10
152.32034
 20
169.55315
 30
0.0
 11
157.82034
 21
169.55315
 31
0.0
  0
LINE
  5
17A
330
1F
100
AcDbEntity
  8
SLD-0
  6
HIDDEN
 62
   179
100
AcDbLine
 10
151.82036
 20
160.05314
 30
0.0
 11
152.32034
 21
159.55315
 31
0.0
  0
LINE
  5
17B
330
1F
100
AcDbEntity
  8
SLD-0
  6
HIDDEN
 62
   179
100
AcDbLine
 10
151.82033
 20
169.05315
 30
0.0
 11
152.32032
 21
169.55314
 31
0.0
  0
LINE
  5
17C
330
1F
100
AcDbEntity
  8
SLD-0
  6
HIDDEN
 62
   179
100
AcDbLine
 10
159.82034
 20
161.55315
 30
0.0
 11
159.82034
 21
167.55315
 31
0.0
  0
LINE
  5
17D
330
1F
100
AcDbEntity
  8
SLD-0
  6
HIDDEN
 62
   179
100
AcDbLine
 10
168.82035
 20
161.55315
 30
0.0
 11
169.82034
 21
162.55315
 31
0.0
  0
LINE
  5
17E
330
1F
100
AcDbEntity
  8
SLD-0
  6
HIDDEN
 62
   179
100
AcDbLine
 10
168.82034
 20
167.55315
 30
0.0
 11
169.82034
 21
166.55315
 31
0.0
  0
LINE
  5
17F
330
1F
100
AcDbEntity
  8
SLD-0
  6
HIDDEN
 62
   179
100
AcDbLine
 10
168.82034
 20
161.55315
 30
0.0
 11
168.82034
 21
167.55315
 31
0.0
  0
LINE
  5
180
330
1F
100
AcDbEntity
  8
SLD-0
  6
Continuous
 62
   179
100
AcDbLine
 10
402.875
 20
285.0
 30
0.0
 11
402.875
 21
12.0
 31
0.0
  0
LINE
  5
181
330
1F
100
AcDbEntity
  8
SLD-0
  6
Continuous
 62
   179
100
AcDbLine
 10
17.07501
 20
12.0
 30
0.0
 11
402.875
 21
12.0
 31
0.0
  0
LINE
  5
182
330
1F
100
AcDbEntity
  8
SLD-0
  6
Continuous
 62
   179
100
AcDbLine
 10
17.07501
 20
285.0
 30
0.0
 11
17.07501
 21
12.0
 31
0.0
  0
LINE
  5
183
330
1F
100
AcDbEntity
  8
SLD-0
  6
Continuous
 62
   179
100
AcDbLine
 10
17.07501
 20
285.0
 30
0.0
 11
402.875
 21
285.0
 31
0.0
  0
LINE
  5
184
330
1F
100
AcDbEntity
  8
SLD-0
  6
Continuous
 62
   179
100
AcDbLine
 10
334.375
 20
50.700001
 30
0.0
 11
334.375
 21
12.0
 31
0.0
  0
LINE
  5
185
330
1F
100
AcDbEntity
  8
SLD-0
  6
Continuous
 62
   179
100
AcDbLine
 10
334.375
 20
24.7
 30
0.0
 11
402.875
 21
24.7
 31
0.0
  0
LINE
  5
186
330
1F
100
AcDbEntity
  8
SLD-0
  6
Continuous
 62
   179
100
AcDbLine
 10
334.375
 20
37.200001
 30
0.0
 11
402.875
 21
37.200001
 31
0.0
  0
LINE
  5
187
330
1F
100
AcDbEntity
  8
SLD-0
  6
Continuous
 62
   179
100
AcDbLine
 10
334.375
 20
50.700001
 30
0.0
 11
402.875
 21
50.700001
 31
0.0
  0
LINE
  5
188
330
1F
100
AcDbEntity
  8
SLD-0
  6
Continuous
 62
   179
100
AcDbLine
 10
17.27499
 20
12.2
 30
0.0
 11
402.675
 21
12.2
 31
0.0
  0
LINE
  5
189
330
1F
100
AcDbEntity
  8
SLD-0
  6
Continuous
 62
   179
100
AcDbLine
 10
17.27499
 20
284.79999
 30
0.0
 11
17.27499
 21
12.2
 31
0.0
  0
LINE
  5
18A
330
1F
100
AcDbEntity
  8
SLD-0
  6
Continuous
 62
   179
100
AcDbLine
 10
17.27499
 20
284.79999
 30
0.0
 11
402.675
 21
284.79999
 31
0.0
  0
LINE
  5
18B
330
1F
100
AcDbEntity
  8
SLD-0
  6
Continuous
 62
   179
100
AcDbLine
 10
402.675
 20
284.79999
 30
0.0
 11
402.675
 21
12.2
 31
0.0
  0
LINE
  5
18C
330
1F
100
AcDbEntity
  8
SLD-0
  6
Continuous
 62
   179
100
AcDbLine
 10
274.05898
 20
222.53859
 30
0.0
 11
273.97474
 21
222.39791
 31
0.0
  0
LINE
  5
18D
330
1F
100
AcDbEntity
  8
SLD-0
  6
Continuous
 62
   179
100
AcDbLine
 10
233.0616
 20
154.5677
 30
0.0
 11
232.97737
 21
154.70839
 31
0.0
  0
CIRCLE
  5
18E
330
1F
100
AcDbEntity
  8
SLD-0
  6
Continuous
 62
   179
100
AcDbCircle
 10
198.32034
 20
58.936096
 30
0.0
 40
2.1500001
  0
CIRCLE
  5
18F
330
1F
100
AcDbEntity
  8
SLD-0
  6
Continuous
 62
   179
100
AcDbCircle
 10
198.32034
 20
58.936096
 30
0.0
 40
2.5
  0
CIRCLE
  5
190
330
1F
100
AcDbEntity
  8
SLD-0
  6
Continuous
 62
   179
100
AcDbCircle
 10
255.31773
 20
58.936096
 30
0.0
 40
2.150000100000028
  0
CIRCLE
  5
191
330
1F
100
AcDbEntity
  8
SLD-0
  6
Continuous
 62
   179
100
AcDbCircle
 10
255.31773
 20
58.936096
 30
0.0
 40
2.500000000000028
  0
CIRCLE
  5
192
330
1F
100
AcDbEntity
  8
SLD-0
  6
Continuous
 62
   179
100
AcDbCircle
 10
199.32034
 20
188.55315
 30
0.0
 40
2.5
  0
CIRCLE
  5
193
330
1F
100
AcDbEntity
  8
SLD-0
  6
Continuous
 62
   179
100
AcDbCircle
 10
199.32034
 20
188.55315
 30
0.0
 40
2.0999999
  0
CIRCLE
  5
194
330
1F
100
AcDbEntity
  8
SLD-0
  6
Continuous
 62
   179
100
AcDbCircle
 10
255.32033
 20
188.55315
 30
0.0
 40
2.500000000000028
  0
CIRCLE
  5
195
330
1F
100
AcDbEntity
  8
SLD-0
  6
Continuous
 62
   179
100
AcDbCircle
 10
255.32033
 20
188.55315
 30
0.0
 40
2.099999899999972
  0
CIRCLE
  5
196
330
1F
100
AcDbEntity
  8
SLD-0
  6
Continuous
 62
   179
100
AcDbCircle
 10
187.32034
 20
188.55315
 30
0.0
 40
4.0
  0
CIRCLE
  5
197
330
1F
100
AcDbEntity
  8
SLD-0
  6
Continuous
 62
   179
100
AcDbCircle
 10
187.32034
 20
188.55315
 30
0.0
 40
3.449999999999989
  0
CIRCLE
  5
198
330
1F
100
AcDbEntity
  8
SLD-0
  6
Continuous
 62
   179
100
AcDbCircle
 10
237.32033
 20
188.55315
 30
0.0
 40
4.000000000000028
  0
CIRCLE
  5
199
330
1F
100
AcDbEntity
  8
SLD-0
  6
Continuous
 62
   179
100
AcDbCircle
 10
237.32033
 20
188.55315
 30
0.0
 40
3.450000000000017
  0
CIRCLE
  5
19A
330
1F
100
AcDbEntity
  8
SLD-0
  6
Continuous
 62
   179
100
AcDbCircle
 10
255.31773
 20
58.936096
 30
0.0
 40
1.000000000000028
  0
CIRCLE
  5
19B
330
1F
100
AcDbEntity
  8
SLD-0
  6
Continuous
 62
   179
100
AcDbCircle
 10
198.32034
 20
58.936096
 30
0.0
 40
1.0
  0
CIRCLE
  5
19C
330
1F
100
AcDbEntity
  8
SLD-0
  6
Continuous
 62
   179
100
AcDbCircle
 10
340.704235
 20
164.55315
 30
0.0
 40
10.5
  0
CIRCLE
  5
19D
330
1F
100
AcDbEntity
  8
SLD-0
  6
HIDDEN
 62
   179
100
AcDbCircle
 10
340.704235
 20
164.55315
 30
0.0
 40
10.0
  0
CIRCLE
  5
19E
330
1F
100
AcDbEntity
  8
SLD-0
  6
Continuous
 62
   179
100
AcDbCircle
 10
340.704235
 20
212.55315
 30
0.0
 40
10.5
  0
CIRCLE
  5
19F
330
1F
100
AcDbEntity
  8
SLD-0
  6
HIDDEN
 62
   179
100
AcDbCircle
 10
340.704235
 20
212.55315
 30
0.0
 40
10.0
  0
ARC
  5
1A0
330
1F
100
AcDbEntity
  8
SLD-0
  6
Continuous
 62
   179
100
AcDbCircle
 10
331.204239
 20
154.55315
 30
0.0
 40
2.04999804972008
100
AcDbArc
 50
227.0297745826
 51
132.9702254174
  0
ARC
  5
1A1
330
1F
100
AcDbEntity
  8
SLD-0
  6
Continuous
 62
   179
100
AcDbCircle
 10
331.204239
 20
222.55315
 30
0.0
 40
2.04999804972008
100
AcDbArc
 50
227.0297745826
 51
132.9702254174
  0
CIRCLE
  5
1A2
330
1F
100
AcDbEntity
  8
SLD-0
  6
Continuous
 62
   179
100
AcDbCircle
 10
237.32033
 20
188.55315
 30
0.0
 40
5.500000000000028
  0
CIRCLE
  5
1A3
330
1F
100
AcDbEntity
  8
SLD-0
  6
Continuous
 62
   179
100
AcDbCircle
 10
187.32034
 20
188.55315
 30
0.0
 40
5.5
  0
ARC
  5
1A4
330
1F
100
AcDbEntity
  8
SLD-0
  6
HIDDEN
 62
   179
100
AcDbCircle
 10
89.79236
 20
212.55315
 30
0.0
 40
10.00000000000001
100
AcDbArc
 50
0.0
 51
180.0
  0
ARC
  5
1A5
330
1F
100
AcDbEntity
  8
SLD-0
  6
HIDDEN
 62
   179
100
AcDbCircle
 10
89.79236
 20
164.55315
 30
0.0
 40
10.00000000000001
100
AcDbArc
 50
180.0
 51
0.0
  0
ARC
  5
1A6
330
1F
100
AcDbEntity
  8
SLD-0
  6
Continuous
 62
   179
100
AcDbCircle
 10
174.01096
 20
58.936089
 30
0.0
 40
4.041442474511296
100
AcDbArc
 50
304.849633361
 51
324.97081
  0
ARC
  5
1A7
330
1F
100
AcDbEntity
  8
SLD-0
  6
Continuous
 62
   179
100
AcDbCircle
 10
174.01096
 20
58.936089
 30
0.0
 40
4.041435088623952
100
AcDbArc
 50
35.029185
 51
55.1502937287
  0
ARC
  5
1A8
330
1F
100
AcDbEntity
  8
SLD-0
  6
Continuous
 62
   179
100
AcDbCircle
 10
172.62973
 20
58.936089
 30
0.0
 40
4.041448188766504
100
AcDbArc
 50
215.02918
 51
235.1502502944
  0
ARC
  5
1A9
330
1F
100
AcDbEntity
  8
SLD-0
  6
Continuous
 62
   179
100
AcDbCircle
 10
172.62973
 20
58.936089
 30
0.0
 40
4.041440802889609
100
AcDbArc
 50
124.8498226159
 51
144.97082
  0
CIRCLE
  5
1AA
330
1F
100
AcDbEntity
  8
SLD-0
  6
Continuous
 62
   179
100
AcDbCircle
 10
77.79236
 20
146.55315
 30
0.0
 40
3.0
  0
CIRCLE
  5
1AB
330
1F
100
AcDbEntity
  8
SLD-0
  6
Continuous
 62
   179
100
AcDbCircle
 10
101.79236
 20
146.55315
 30
0.0
 40
3.0
  0
CIRCLE
  5
1AC
330
1F
100
AcDbEntity
  8
SLD-0
  6
Continuous
 62
   179
100
AcDbCircle
 10
101.79236
 20
230.55315
 30
0.0
 40
3.0
  0
CIRCLE
  5
1AD
330
1F
100
AcDbEntity
  8
SLD-0
  6
Continuous
 62
   179
100
AcDbCircle
 10
77.79236
 20
230.55315
 30
0.0
 40
3.0
  0
CIRCLE
  5
1AE
330
1F
100
AcDbEntity
  8
SLD-0
  6
Continuous
 62
   179
100
AcDbCircle
 10
77.79236
 20
230.55315
 30
0.0
 40
2.5
  0
CIRCLE
  5
1AF
330
1F
100
AcDbEntity
  8
SLD-0
  6
Continuous
 62
   179
100
AcDbCircle
 10
101.79236
 20
230.55315
 30
0.0
 40
2.5
  0
CIRCLE
  5
1B0
330
1F
100
AcDbEntity
  8
SLD-0
  6
Continuous
 62
   179
100
AcDbCircle
 10
101.79236
 20
146.55315
 30
0.0
 40
2.5
  0
CIRCLE
  5
1B1
330
1F
100
AcDbEntity
  8
SLD-0
  6
Continuous
 62
   179
100
AcDbCircle
 10
77.79236
 20
146.55315
 30
0.0
 40
2.5
  0
ARC
  5
1B2
330
1F
100
AcDbEntity
  8
SLD-0
  6
Continuous
 62
   179
100
AcDbCircle
 10
251.06772
 20
222.55315
 30
0.0
 40
0.75
100
AcDbArc
 50
270.0
 51
90.0
  0
CIRCLE
  5
1B3
330
1F
100
AcDbEntity
  8
SLD-0
  6
Continuous
 62
   179
100
AcDbCircle
 10
244.31772
 20
222.55315
 30
0.0
 40
1.25
  0
ARC
  5
1B4
330
1F
100
AcDbEntity
  8
SLD-0
  6
Continuous
 62
   179
100
AcDbCircle
 10
247.71774
 20
222.553145
 30
0.0
 40
1.39999499999999
100
AcDbArc
 50
90.0
 51
270.0
  0
ARC
  5
1B5
330
1F
100
AcDbEntity
  8
SLD-0
  6
Continuous
 62
   179
100
AcDbCircle
 10
249.56772
 20
222.55315
 30
0.0
 40
0.75
100
AcDbArc
 50
90.0
 51
270.0
  0
ARC
  5
1B6
330
1F
100
AcDbEntity
  8
SLD-0
  6
Continuous
 62
   179
100
AcDbCircle
 10
210.07034
 20
154.55315
 30
0.0
 40
0.75
100
AcDbArc
 50
270.0
 51
90.0
  0
CIRCLE
  5
1B7
330
1F
100
AcDbEntity
  8
SLD-0
  6
Continuous
 62
   179
100
AcDbCircle
 10
203.32034
 20
154.55315
 30
0.0
 40
1.25
  0
ARC
  5
1B8
330
1F
100
AcDbEntity
  8
SLD-0
  6
Continuous
 62
   179
100
AcDbCircle
 10
206.72037
 20
154.553145
 30
0.0
 40
1.39999499999999
100
AcDbArc
 50
90.0
 51
270.0
  0
ARC
  5
1B9
330
1F
100
AcDbEntity
  8
SLD-0
  6
Continuous
 62
   179
100
AcDbCircle
 10
208.57034
 20
154.55315
 30
0.0
 40
0.75
100
AcDbArc
 50
90.0
 51
270.0
  0
CIRCLE
  5
1BA
330
1F
100
AcDbEntity
  8
SLD-0
  6
HIDDEN
 62
   179
100
AcDbCircle
 10
340.704235
 20
164.55315
 30
0.0
 40
11.0
  0
ARC
  5
1BB
330
1F
100
AcDbEntity
  8
SLD-0
  6
Continuous
 62
   179
100
AcDbCircle
 10
348.065449
 20
160.30315
 30
0.0
 40
2.0
100
AcDbArc
 50
90.0
 51
195.0
  0
CIRCLE
  5
1BC
330
1F
100
AcDbEntity
  8
SLD-0
  6
Continuous
 62
   179
100
AcDbCircle
 10
348.065449
 20
160.30315
 30
0.0
 40
1.0
  0
ARC
  5
1BD
330
1F
100
AcDbEntity
  8
SLD-0
  6
Continuous
 62
   179
100
AcDbCircle
 10
348.0654485992
 20
168.8031501074
 30
0.0
 40
2.000000414937944
100
AcDbArc
 50
164.9999497287
 51
270.0
  0
CIRCLE
  5
1BE
330
1F
100
AcDbEntity
  8
SLD-0
  6
Continuous
 62
   179
100
AcDbCircle
 10
348.0654485992
 20
168.8031501074
 30
0.0
 40
0.9999999999999704
  0
ARC
  5
1BF
330
1F
100
AcDbEntity
  8
SLD-0
  6
Continuous
 62
   179
100
AcDbCircle
 10
341.5792327217
 20
164.5531532864
 30
0.0
 40
9.374996001100822
100
AcDbArc
 50
55.267842
 51
304.7321273211
  0
CIRCLE
  5
1C0
330
1F
100
AcDbEntity
  8
SLD-0
  6
HIDDEN
 62
   179
100
AcDbCircle
 10
340.704235
 20
212.55315
 30
0.0
 40
11.0
  0
ARC
  5
1C1
330
1F
100
AcDbEntity
  8
SLD-0
  6
Continuous
 62
   179
100
AcDbCircle
 10
348.0654471997
 20
208.3031495176
 30
0.0
 40
2.000001863826416
100
AcDbArc
 50
90.0
 51
195.0000280274
  0
CIRCLE
  5
1C2
330
1F
100
AcDbEntity
  8
SLD-0
  6
Continuous
 62
   179
100
AcDbCircle
 10
348.0654471997
 20
208.3031495176
 30
0.0
 40
1.000000000000025
  0
ARC
  5
1C3
330
1F
100
AcDbEntity
  8
SLD-0
  6
Continuous
 62
   179
100
AcDbCircle
 10
348.0654471997
 20
216.8031504824
 30
0.0
 40
2.000001863826416
100
AcDbArc
 50
164.9999719726
 51
270.0
  0
CIRCLE
  5
1C4
330
1F
100
AcDbEntity
  8
SLD-0
  6
Continuous
 62
   179
100
AcDbCircle
 10
348.0654471997
 20
216.8031504824
 30
0.0
 40
1.000000000000025
  0
ARC
  5
1C5
330
1F
100
AcDbEntity
  8
SLD-0
  6
Continuous
 62
   179
100
AcDbCircle
 10
341.579232884
 20
212.5531530523
 30
0.0
 40
9.374996285971081
100
AcDbArc
 50
55.267842
 51
304.7321323437
  0
CIRCLE
  5
1C6
330
1F
100
AcDbEntity
  8
SLD-0
  6
Continuous
 62
   179
100
AcDbCircle
 10
89.79236
 20
164.55315
 30
0.0
 40
5.0
  0
CIRCLE
  5
1C7
330
1F
100
AcDbEntity
  8
SLD-0
  6
Continuous
 62
   179
100
AcDbCircle
 10
89.79236
 20
164.55315
 30
0.0
 40
5.5
  0
CIRCLE
  5
1C8
330
1F
100
AcDbEntity
  8
SLD-0
  6
Continuous
 62
   179
100
AcDbCircle
 10
89.79236
 20
212.55315
 30
0.0
 40
5.0
  0
CIRCLE
  5
1C9
330
1F
100
AcDbEntity
  8
SLD-0
  6
Continuous
 62
   179
100
AcDbCircle
 10
89.79236
 20
212.55315
 30
0.0
 40
5.5
  0
ARC
  5
1CA
330
1F
100
AcDbEntity
  8
SLD-0
  6
Continuous
 62
   179
100
AcDbCircle
 10
272.9812298359
 20
223.0841122957
 30
0.0
 40
1.360618843653368
100
AcDbArc
 50
30.1059746282
 51
37.0103797751
  0
ARC
  5
1CB
330
1F
100
AcDbEntity
  8
SLD-0
  6
Continuous
 62
   179
100
AcDbCircle
 10
272.930529158
 20
223.0531380088
 30
0.0
 40
1.420017342637486
100
AcDbArc
 50
23.5273429957
 51
30.1610231108
  0
ARC
  5
1CC
330
1F
100
AcDbEntity
  8
SLD-0
  6
Continuous
 62
   179
100
AcDbCircle
 10
273.2057548136
 20
223.1717982307
 30
0.0
 40
1.120304217514143
100
AcDbArc
 50
15.1798687824
 51
23.5820892416
  0
ARC
  5
1CD
330
1F
100
AcDbEntity
  8
SLD-0
  6
Continuous
 62
   179
100
AcDbCircle
 10
273.4175330648
 20
223.2288490616
 30
0.0
 40
0.9009765356443436
100
AcDbArc
 50
4.7616577158
 51
15.2049187474
  0
ARC
  5
1CE
330
1F
100
AcDbEntity
  8
SLD-0
  6
Continuous
 62
   179
100
AcDbCircle
 10
273.5706430419
 20
223.242939648
 30
0.0
 40
0.7472265113972685
100
AcDbArc
 50
352.0955534437
 51
4.6595114241
  0
ARC
  5
1CF
330
1F
100
AcDbEntity
  8
SLD-0
  6
Continuous
 62
   179
100
AcDbCircle
 10
273.3506033001
 20
223.2754034788
 30
0.0
 40
0.9696419343682049
100
AcDbArc
 50
342.2720692341
 51
351.98356622
  0
ARC
  5
1D0
330
1F
100
AcDbEntity
  8
SLD-0
  6
Continuous
 62
   179
100
AcDbCircle
 10
272.9777422713
 20
223.3935834307
 30
0.0
 40
1.360782805525388
100
AcDbArc
 50
335.4025151394
 51
342.3127960138
  0
ARC
  5
1D1
330
1F
100
AcDbEntity
  8
SLD-0
  6
Continuous
 62
   179
100
AcDbCircle
 10
272.2379853923
 20
223.7316611866
 30
0.0
 40
2.17413183327484
100
AcDbArc
 50
331.0885131881
 51
335.4161760186
  0
ARC
  5
1D2
330
1F
100
AcDbEntity
  8
SLD-0
  6
Continuous
 62
   179
100
AcDbCircle
 10
270.6136159874
 20
224.6274767776
 30
0.0
 40
4.029141490274809
100
AcDbArc
 50
328.7720217923
 51
331.1048131431
  0
ARC
  5
1D3
330
1F
100
AcDbEntity
  8
SLD-0
  6
Continuous
 62
   179
100
AcDbCircle
 10
275.325087975
 20
221.609119787
 30
0.0
 40
1.56385090521707
100
AcDbArc
 50
149.7091555567
 51
155.715953602
  0
ARC
  5
1D4
330
1F
100
AcDbEntity
  8
SLD-0
  6
Continuous
 62
   179
100
AcDbCircle
 10
274.7992859293
 20
221.8465520782
 30
0.0
 40
0.9869264459886459
100
AcDbArc
 50
155.7265263637
 51
165.2119041079
  0
ARC
  5
1D5
330
1F
100
AcDbEntity
  8
SLD-0
  6
Continuous
 62
   179
100
AcDbCircle
 10
274.6813628674
 20
221.8835712447
 30
0.0
 40
0.8634792350641699
100
AcDbArc
 50
165.5897099164
 51
176.4398609577
  0
ARC
  5
1D6
330
1F
100
AcDbEntity
  8
SLD-0
  6
Continuous
 62
   179
100
AcDbCircle
 10
274.8096963705
 20
221.8773628549
 30
0.0
 40
0.9919521773958321
100
AcDbArc
 50
176.5422481142
 51
186.1159154874
  0
ARC
  5
1D7
330
1F
100
AcDbEntity
  8
SLD-0
  6
Continuous
 62
   179
100
AcDbCircle
 10
275.78392211
 20
221.9824301893
 30
0.0
 40
1.971827019920953
100
AcDbArc
 50
186.1355307422
 51
190.9277188115
  0
ARC
  5
1D8
330
1F
100
AcDbEntity
  8
SLD-0
  6
Continuous
 62
   179
100
AcDbCircle
 10
274.8458968086
 20
221.7756651334
 30
0.0
 40
1.011927945978275
100
AcDbArc
 50
189.5010820554
 51
198.760258241
  0
ARC
  5
1D9
330
1F
100
AcDbEntity
  8
SLD-0
  6
Continuous
 62
   179
100
AcDbCircle
 10
274.5940975582
 20
221.7012392285
 30
0.0
 40
0.7496437689583984
100
AcDbArc
 50
199.563498907
 51
212.0945501432
  0
ARC
  5
1DA
330
1F
100
AcDbEntity
  8
SLD-0
  6
Continuous
 62
   179
100
AcDbCircle
 10
274.1196452302
 20
221.376169089
 30
0.0
 40
0.1765303488448847
100
AcDbArc
 50
204.5082560885
 51
257.2082553419
  0
ARC
  5
1DB
330
1F
100
AcDbEntity
  8
SLD-0
  6
Continuous
 62
   179
100
AcDbCircle
 10
273.9977761623
 20
221.3909831858
 30
0.0
 40
0.2044710165555077
100
AcDbArc
 50
293.8828758793
 51
339.5012186196
  0
ARC
  5
1DC
330
1F
100
AcDbEntity
  8
SLD-0
  6
Continuous
 62
   179
100
AcDbCircle
 10
273.2484100072
 20
221.7947816841
 30
0.0
 40
1.054173012232271
100
AcDbArc
 50
333.1939868193
 51
342.15398754
  0
ARC
  5
1DD
330
1F
100
AcDbEntity
  8
SLD-0
  6
Continuous
 62
   179
100
AcDbCircle
 10
273.0887294859
 20
221.8372836457
 30
0.0
 40
1.219224906159534
100
AcDbArc
 50
342.5524376222
 51
350.2572231849
  0
ARC
  5
1DE
330
1F
100
AcDbEntity
  8
SLD-0
  6
Continuous
 62
   179
100
AcDbCircle
 10
272.5358365886
 20
221.9589496625
 30
0.0
 40
1.784927088246563
100
AcDbArc
 50
349.411432573
 51
354.6679260028
  0
ARC
  5
1DF
330
1F
100
AcDbEntity
  8
SLD-0
  6
Continuous
 62
   179
100
AcDbCircle
 10
273.2165297933
 20
221.8961712643
 30
0.0
 40
1.101345741428014
100
AcDbArc
 50
354.628976243
 51
3.189055937
  0
ARC
  5
1E0
330
1F
100
AcDbEntity
  8
SLD-0
  6
Continuous
 62
   179
100
AcDbCircle
 10
273.4360756979
 20
221.9077582493
 30
0.0
 40
0.8814954661713844
100
AcDbArc
 50
3.2309455144
 51
13.9021306786
  0
ARC
  5
1E1
330
1F
100
AcDbEntity
  8
SLD-0
  6
Continuous
 62
   179
100
AcDbCircle
 10
273.3678433055
 20
221.8835721124
 30
0.0
 40
0.9535665386729714
100
AcDbArc
 50
14.3277742873
 51
24.1663423396
  0
ARC
  5
1E2
330
1F
100
AcDbEntity
  8
SLD-0
  6
Continuous
 62
   179
100
AcDbCircle
 10
273.0518165717
 20
221.7445620338
 30
0.0
 40
1.298808373610985
100
AcDbArc
 50
24.0538538129
 51
31.2970156044
  0
ARC
  5
1E3
330
1F
100
AcDbEntity
  8
SLD-0
  6
Continuous
 62
   179
100
AcDbCircle
 10
273.1180956206
 20
221.7866111731
 30
0.0
 40
1.220331323498904
100
AcDbArc
 50
31.2265837524
 51
38.8334176611
  0
ARC
  5
1E4
330
1F
100
AcDbEntity
  8
SLD-0
  6
Continuous
 62
   179
100
AcDbCircle
 10
231.9838556677
 20
154.0221738357
 30
0.0
 40
1.360611858079595
100
AcDbArc
 50
322.9896024793
 51
329.8940431174
  0
ARC
  5
1E5
330
1F
100
AcDbEntity
  8
SLD-0
  6
Continuous
 62
   179
100
AcDbCircle
 10
231.9335556928
 20
154.052946242
 30
0.0
 40
1.419562471093108
100
AcDbArc
 50
329.8379128821
 51
336.4737210114
  0
ARC
  5
1E6
330
1F
100
AcDbEntity
  8
SLD-0
  6
Continuous
 62
   179
100
AcDbCircle
 10
232.2079980678
 20
153.9346562435
 30
0.0
 40
1.120715300482953
100
AcDbArc
 50
336.4179099031
 51
344.8181801159
  0
ARC
  5
1E7
330
1F
100
AcDbEntity
  8
SLD-0
  6
Continuous
 62
   179
100
AcDbCircle
 10
232.4202179962
 20
153.8773956807
 30
0.0
 40
0.9009064132111266
100
AcDbArc
 50
344.7981699692
 51
355.24213542
  0
ARC
  5
1E8
330
1F
100
AcDbEntity
  8
SLD-0
  6
Continuous
 62
   179
100
AcDbCircle
 10
232.5733135961
 20
153.8633592107
 30
0.0
 40
0.7471752192661156
100
AcDbArc
 50
355.3410251822
 51
7.9043068173
  0
ARC
  5
1E9
330
1F
100
AcDbEntity
  8
SLD-0
  6
Continuous
 62
   179
100
AcDbCircle
 10
232.3532199559
 20
153.830885757
 30
0.0
 40
0.9696453524237808
100
AcDbArc
 50
8.0164509379
 51
17.727913608
  0
ARC
  5
1EA
330
1F
100
AcDbEntity
  8
SLD-0
  6
Continuous
 62
   179
100
AcDbCircle
 10
231.9803677839
 20
153.7127087011
 30
0.0
 40
1.360776905914498
100
AcDbArc
 50
17.6871889884
 51
24.5974998585
  0
ARC
  5
1EB
330
1F
100
AcDbEntity
  8
SLD-0
  6
Continuous
 62
   179
100
AcDbCircle
 10
231.2406024763
 20
153.3747571557
 30
0.0
 40
2.174081094675758
100
AcDbArc
 50
24.580716272
 51
28.9083614617
  0
ARC
  5
1EC
330
1F
100
AcDbEntity
  8
SLD-0
  6
Continuous
 62
   179
100
AcDbCircle
 10
229.6162242008
 20
152.4785579289
 30
0.0
 40
4.029283930261578
100
AcDbArc
 50
28.8982154451
 51
31.2309955671
  0
ARC
  5
1ED
330
1F
100
AcDbEntity
  8
SLD-0
  6
Continuous
 62
   179
100
AcDbCircle
 10
234.3288816773
 20
155.4977363235
 30
0.0
 40
1.565136234419497
100
AcDbArc
 50
204.2847494321
 51
210.2869358131
  0
ARC
  5
1EE
330
1F
100
AcDbEntity
  8
SLD-0
  6
Continuous
 62
   179
100
AcDbCircle
 10
233.8015921343
 20
155.2597378378
 30
0.0
 40
0.9866230267973172
100
AcDbArc
 50
194.7927424741
 51
204.2801404399
  0
ARC
  5
1EF
330
1F
100
AcDbEntity
  8
SLD-0
  6
Continuous
 62
   179
100
AcDbCircle
 10
233.6840361593
 20
155.2226704182
 30
0.0
 40
0.8635188230461908
100
AcDbArc
 50
183.5560973878
 51
194.4063037673
  0
ARC
  5
1F0
330
1F
100
AcDbEntity
  8
SLD-0
  6
Continuous
 62
   179
100
AcDbCircle
 10
233.8122650789
 20
155.228991774
 30
0.0
 40
0.9918942938917309
100
AcDbArc
 50
173.8874808294
 51
183.4611152579
  0
ARC
  5
1F1
330
1F
100
AcDbEntity
  8
SLD-0
  6
Continuous
 62
   179
100
AcDbCircle
 10
234.7865422032
 20
155.1238597967
 30
0.0
 40
1.971827114126009
100
AcDbArc
 50
169.072281303
 51
173.8644691433
  0
ARC
  5
1F2
330
1F
100
AcDbEntity
  8
SLD-0
  6
Continuous
 62
   179
100
AcDbCircle
 10
233.8485617054
 20
155.330634108
 30
0.0
 40
1.011970701665179
100
AcDbArc
 50
161.2405186086
 51
170.4998535878
  0
ARC
  5
1F3
330
1F
100
AcDbEntity
  8
SLD-0
  6
Continuous
 62
   179
100
AcDbCircle
 10
233.5968105091
 20
155.4049887309
 30
0.0
 40
0.7497554776965678
100
AcDbArc
 50
147.9052074123
 51
160.4336921501
  0
ARC
  5
1F4
330
1F
100
AcDbEntity
  8
SLD-0
  6
Continuous
 62
   179
100
AcDbCircle
 10
233.1223016537
 20
155.7301149229
 30
0.0
 40
0.1765659749004392
100
AcDbArc
 50
102.8045680624
 51
155.4948788389
  0
ARC
  5
1F5
330
1F
100
AcDbEntity
  8
SLD-0
  6
Continuous
 62
   179
100
AcDbCircle
 10
233.0004278437
 20
155.7153432987
 30
0.0
 40
0.204439070508866
100
AcDbArc
 50
20.5001884366
 51
66.1259349985
  0
ARC
  5
1F6
330
1F
100
AcDbEntity
  8
SLD-0
  6
Continuous
 62
   179
100
AcDbCircle
 10
232.2511509506
 20
155.3116091843
 30
0.0
 40
1.054033106034209
100
AcDbArc
 50
17.843842849
 51
26.8055396794
  0
ARC
  5
1F7
330
1F
100
AcDbEntity
  8
SLD-0
  6
Continuous
 62
   179
100
AcDbCircle
 10
232.0912043601
 20
155.2689782975
 30
0.0
 40
1.219377764007692
100
AcDbArc
 50
9.7443114575
 51
17.4476719669
  0
ARC
  5
1F8
330
1F
100
AcDbEntity
  8
SLD-0
  6
Continuous
 62
   179
100
AcDbCircle
 10
231.5382298261
 20
155.1473488605
 30
0.0
 40
1.785153936078955
100
AcDbArc
 50
5.331764425
 51
10.5879076181
  0
ARC
  5
1F9
330
1F
100
AcDbEntity
  8
SLD-0
  6
Continuous
 62
   179
100
AcDbCircle
 10
232.2191071517
 20
155.2101379237
 30
0.0
 40
1.101388271781242
100
AcDbArc
 50
356.8111096458
 51
5.3708581742
  0
ARC
  5
1FA
330
1F
100
AcDbEntity
  8
SLD-0
  6
Continuous
 62
   179
100
AcDbCircle
 10
232.4386871165
 20
155.198500259
 30
0.0
 40
0.8815011334241106
100
AcDbArc
 50
346.1014083204
 51
356.7724274581
  0
ARC
  5
1FB
330
1F
100
AcDbEntity
  8
SLD-0
  6
Continuous
 62
   179
100
AcDbCircle
 10
232.3705115736
 20
155.222724526
 30
0.0
 40
0.9535261541989611
100
AcDbArc
 50
335.8334488016
 51
345.6724345715
  0
ARC
  5
1FC
330
1F
100
AcDbEntity
  8
SLD-0
  6
Continuous
 62
   179
100
AcDbCircle
 10
232.0544736552
 20
155.3616573878
 30
0.0
 40
1.298746724549193
100
AcDbArc
 50
328.7060073931
 51
335.9493081599
  0
ARC
  5
1FD
330
1F
100
AcDbEntity
  8
SLD-0
  6
Continuous
 62
   179
100
AcDbCircle
 10
232.1206776191
 20
155.3197674485
 30
0.0
 40
1.220416497400979
100
AcDbArc
 50
321.1644600811
 51
328.7720730409
  0
MTEXT
  5
1FF
330
1F
100
AcDbEntity
  8
SLD-0
 62
     7
100
AcDbMText
 10
346.98619
 20
48.2653032496
 30
0.0
 40
4.8000002
 41
0.0
 71
     1
 72
     1
  1
コンテナシリンダー
  7
SLDTEXTSTYLE7
 73
     1
 44
1.0
  0
MTEXT
  5
201
330
1F
100
AcDbEntity
  8
SLD-0
 62
     7
100
AcDbMText
 10
351.083458
 20
41.7112445369
 30
0.0
 40
3.2
 41
0.0
 71
     1
 72
     1
  1
（強化型・高トルク型）
  7
SLDTEXTSTYLE8
 73
     1
 44
1.0
  0
MTEXT
  5
202
330
1F
100
AcDbEntity
  8
SLD-0
 62
     7
100
AcDbMText
 10
347.149074
 20
32.1398112496
 30
0.0
 40
4.8000002
 41
0.0
 71
     1
 72
     1
  1
ＮＣＯＮ－４０ＷＫ
  7
SLDTEXTSTYLE7
 73
     1
 44
1.0
  0
MTEXT
  5
204
330
1F
100
AcDbEntity
  8
SLD-0
 62
     7
100
AcDbMText
 10
355.48926
 20
19.9235274496
 30
0.0
 40
4.8000002
 41
0.0
 71
     1
 72
     1
  1
１３０８６９
  7
SLDTEXTSTYLE9
 73
     1
 44
1.0
  0
INSERT
  5
205
330
1F
100
AcDbEntity
  8
0
  6
Continuous
 62
     7
370
     0
100
AcDbBlockReference
  2
KOZU0001
 10
189.78419
 20
193.47041
 30
0.0
  0
INSERT
  5
206
330
1F
100
AcDbEntity
  8
0
  6
Continuous
 62
     7
370
     0
100
AcDbBlockReference
  2
KOZU0002
 10
214.26316
 20
152.55315
 30
0.0
  0
INSERT
  5
207
330
1F
100
AcDbEntity
  8
0
  6
Continuous
 62
     7
370
     0
100
AcDbBlockReference
  2
KOZU0003
 10
256.98617
 20
190.41729
 30
0.0
  0
INSERT
  5
208
330
1F
100
AcDbEntity
  8
0
  6
Continuous
 62
     7
370
     0
100
AcDbBlockReference
  2
KOZU0004
 10
199.14131
 20
61.297461
 30
0.0
  0
INSERT
  5
209
330
1F
100
AcDbEntity
  8
0
  6
Continuous
 62
     7
370
     0
100
AcDbBlockReference
  2
KOZU0005
 10
103.28765
 20
233.15394
 30
0.0
  0
ENDSEC
  0
SECTION
  2
OBJECTS
  0
DICTIONARY
  5
C
330
0
100
AcDbDictionary
281
     1
  3
ACAD_GROUP
350
D
  3
ACAD_LAYOUT
350
1A
  3
ACAD_MLINESTYLE
350
17
  3
ACAD_PLOTSETTINGS
350
19
  3
ACAD_PLOTSTYLENAME
350
E
  0
DICTIONARY
  5
D
102
{ACAD_REACTORS
330
C
102
}
330
C
100
AcDbDictionary
281
     1
  0
DICTIONARY
  5
1A
102
{ACAD_REACTORS
330
C
102
}
330
C
100
AcDbDictionary
281
     1
  3
Layout1
350
1E
  3
Layout2
350
26
  3
Model
350
22
  0
DICTIONARY
  5
17
102
{ACAD_REACTORS
330
C
102
}
330
C
100
AcDbDictionary
281
     1
  3
Standard
350
18
  0
DICTIONARY
  5
19
102
{ACAD_REACTORS
330
C
102
}
330
C
100
AcDbDictionary
281
     1
  0
ACDBDICTIONARYWDFLT
  5
E
102
{ACAD_REACTORS
330
C
102
}
330
C
100
AcDbDictionary
281
     1
  3
Normal
350
F
100
AcDbDictionaryWithDefault
340
F
  0
LAYOUT
  5
1E
102
{ACAD_REACTORS
330
1A
102
}
330
1A
100
AcDbPlotSettings
  1

  2

  4

  6

 40
0.0
 41
0.0
 42
0.0
 43
0.0
 44
0.0
 45
0.0
 46
0.0
 47
0.0
 48
0.0
 49
0.0
140
0.0
141
0.0
142
1.0
143
1.0
 70
   688
 72
     0
 73
     0
 74
     5
  7

 75
    16
147
1.0
148
0.0
149
0.0
100
AcDbLayout
  1
Layout1
 70
     1
 71
     1
 10
0.0
 20
0.0
 11
0.0
 21
0.0
 12
0.0
 22
0.0
 32
0.0
 14
0.0
 24
0.0
 34
0.0
 15
0.0
 25
0.0
 35
0.0
146
0.0
 13
0.0
 23
0.0
 33
0.0
 16
1.0
 26
0.0
 36
0.0
 17
0.0
 27
1.0
 37
0.0
 76
     0
330
1B
  0
LAYOUT
  5
26
102
{ACAD_REACTORS
330
1A
102
}
330
1A
100
AcDbPlotSettings
  1

  2

  4

  6

 40
0.0
 41
0.0
 42
0.0
 43
0.0
 44
0.0
 45
0.0
 46
0.0
 47
0.0
 48
0.0
 49
0.0
140
0.0
141
0.0
142
1.0
143
1.0
 70
   688
 72
     0
 73
     0
 74
     5
  7

 75
    16
147
1.0
148
0.0
149
0.0
100
AcDbLayout
  1
Layout2
 70
     1
 71
     2
 10
0.0
 20
0.0
 11
0.0
 21
0.0
 12
0.0
 22
0.0
 32
0.0
 14
0.0
 24
0.0
 34
0.0
 15
0.0
 25
0.0
 35
0.0
146
0.0
 13
0.0
 23
0.0
 33
0.0
 16
1.0
 26
0.0
 36
0.0
 17
0.0
 27
1.0
 37
0.0
 76
     0
330
23
  0
LAYOUT
  5
22
102
{ACAD_REACTORS
330
1A
102
}
330
1A
100
AcDbPlotSettings
  1

  2

  4

  6

 40
0.0
 41
0.0
 42
0.0
 43
0.0
 44
0.0
 45
0.0
 46
0.0
 47
0.0
 48
0.0
 49
0.0
140
0.0
141
0.0
142
1.0
143
1.0
 70
  1712
 72
     0
 73
     0
 74
     0
  7

 75
     0
147
1.0
148
0.0
149
0.0
100
AcDbLayout
  1
Model
 70
     1
 71
     0
 10
0.0
 20
0.0
 11
0.0
 21
0.0
 12
0.0
 22
0.0
 32
0.0
 14
0.0
 24
0.0
 34
0.0
 15
420.0
 25
297.0
 35
0.0
146
0.0
 13
0.0
 23
0.0
 33
0.0
 16
1.0
 26
0.0
 36
0.0
 17
0.0
 27
1.0
 37
0.0
 76
     0
330
1F
  0
MLINESTYLE
  5
18
102
{ACAD_REACTORS
330
17
102
}
330
17
100
AcDbMlineStyle
  2
Standard
 70
     0
  3

 62
   256
 51
90.0
 52
90.0
 71
     2
 49
0.5
 62
   256
  6
BYLAYER
 49
-0.5
 62
   256
  6
BYLAYER
  0
ACDBPLACEHOLDER
  5
F
102
{ACAD_REACTORS
330
E
102
}
330
E
  0
ENDSEC
  0
EOF
