  0
SECTION
  2
HEADER
  9
$EXTMAX
 10
6.65833333333336
 20
289.9151041666667
 30
0
  9
$EXTMIN
 10
-203.3416666666666
 20
-7.084895833333377
 30
0
  9
$LIMMAX
 10
6.65833333333336
 20
289.9151041666667
  9
$LIMMIN
 10
-203.3416666666666
 20
-7.084895833333377
  9
$PLIMMAX
 10
6.65833333333336
 20
289.9151041666667
  9
$PLIMMIN
 10
-203.3416666666666
 20
-7.084895833333377
  9
$PEXTMAX
 10
6.65833333333336
 20
289.9151041666667
 30
0
  9
$PEXTMIN
 10
-203.3416666666666
 20
-7.084895833333377
 30
0
  9
$TEXTSIZE
 40
3.2
  9
$DIMSHO
 70
     0
  9
$DIMASZ
 40
1.0
  9
$DIMTAD
 70
     1
  9
$DIMTIH
 70
     0
  9
$DIMTOH
 70
     0
  9
$DIMEXE
 40
2.54
  9
$DIMEXO
 40
2.54
  9
$DIMTVP
 40
1.0
  9
$DIMSAH
 70
     1
  9
$DIMDLE
 40
0.0
  9
$DIMTXT
 40
3.200000047683716
  9
$DIMGAP
 40
1.600000023841858
  0
ENDSEC
  0
SECTION
  2
TABLES
  0
TABLE
  2
LTYPE
 70
     39
  0
LTYPE
  2
CONTINUOUS
 70
    64
  3
Solid line
 72
    65
 73
     0
 40
0.0
  0
LTYPE
  2
ACAD_ISO02W100
 70
     0
  3
ISO dash __ __ __ __ __ __ __ __ __ __ __ __ __
 72
    65
 73
     2
 40
15.0
 49
12.0
 49
-3.0
  0
LTYPE
  2
ACAD_ISO03W100
 70
     0
  3
ISO dash space __    __    __    __    __    __
 72
    65
 73
     2
 40
30.0
 49
12.0
 49
-18.0
  0
LTYPE
  2
ACAD_ISO04W100
 70
     0
  3
ISO long-dash dot ____ . ____ . ____ . ____ . _
 72
    65
 73
     4
 40
30.0
 49
24.0
 49
-3.0
 49
0.0
 49
-3.0
  0
LTYPE
  2
ACAD_ISO05W100
 70
     0
  3
ISO long-dash double-dot ____ .. ____ .. ____ .
 72
    65
 73
     6
 40
33.0
 49
24.0
 49
-3.0
 49
0.0
 49
-3.0
 49
0.0
 49
-3.0
  0
LTYPE
  2
ACAD_ISO06W100
 70
     0
  3
ISO long-dash triple-dot ____ ... ____ ... ____
 72
    65
 73
     8
 40
36.0
 49
24.0
 49
-3.0
 49
0.0
 49
-3.0
 49
0.0
 49
-3.0
 49
0.0
 49
-3.0
  0
LTYPE
  2
ACAD_ISO07W100
 70
     0
  3
ISO dot . . . . . . . . . . . . . . . . . . . .
 72
    65
 73
     2
 40
3.0
 49
0.0
 49
-3.0
  0
LTYPE
  2
ACAD_ISO08W100
 70
     0
  3
ISO long-dash short-dash ____ __ ____ __ ____ _
 72
    65
 73
     4
 40
36.0
 49
24.0
 49
-3.0
 49
6.0
 49
-3.0
  0
LTYPE
  2
ACAD_ISO09W100
 70
     0
  3
ISO long-dash double-short-dash ____ __ __ ____
 72
    65
 73
     6
 40
45.0
 49
24.0
 49
-3.0
 49
6.0
 49
-3.0
 49
6.0
 49
-3.0
  0
LTYPE
  2
ACAD_ISO10W100
 70
     0
  3
ISO dash dot __ . __ . __ . __ . __ . __ . __ .
 72
    65
 73
     4
 40
18.0
 49
12.0
 49
-3.0
 49
0.0
 49
-3.0
  0
LTYPE
  2
ACAD_ISO11W100
 70
     0
  3
ISO double-dash dot __ __ . __ __ . __ __ . __ 
 72
    65
 73
     6
 40
33.0
 49
12.0
 49
-3.0
 49
12.0
 49
-3.0
 49
0.0
 49
-3.0
  0
LTYPE
  2
ACAD_ISO12W100
 70
     0
  3
ISO dash double-dot __ . . __ . . __ . . __ . .
 72
    65
 73
     6
 40
21.0
 49
12.0
 49
-3.0
 49
0.0
 49
-3.0
 49
0.0
 49
-3.0
  0
LTYPE
  2
ACAD_ISO13W100
 70
     0
  3
ISO double-dash double-dot __ __ . . __ __ . . 
 72
    65
 73
     8
 40
36.0
 49
12.0
 49
-3.0
 49
12.0
 49
-3.0
 49
0.0
 49
-3.0
 49
0.0
 49
-3.0
  0
LTYPE
  2
ACAD_ISO14W100
 70
     0
  3
ISO dash triple-dot __ . . . __ . . . __ . . . 
 72
    65
 73
     8
 40
24.0
 49
12.0
 49
-3.0
 49
0.0
 49
-3.0
 49
0.0
 49
-3.0
 49
0.0
 49
-3.0
  0
LTYPE
  2
ACAD_ISO15W100
 70
     0
  3
ISO double-dash triple-dot __ __ . . . __ __ . 
 72
    65
 73
    10
 40
39.0
 49
12.0
 49
-3.0
 49
12.0
 49
-3.0
 49
0.0
 49
-3.0
 49
0.0
 49
-3.0
 49
0.0
 49
-3.0
  0
LTYPE
  2
BORDER
 70
    64
  3
Border __ __ . __ __ . __ __ . __ __ . __ __ .
 72
    65
 73
     6
 40
3.5
 49
1.0
 49
-0.5
 49
1.0
 49
-0.5
 49
0.0
 49
-0.5
  0
LTYPE
  2
BORDER2
 70
    64
  3
Border (.5x) __.__.__.__.__.__.__.__.__.__.__.
 72
    65
 73
     6
 40
1.75
 49
0.5
 49
-0.25
 49
0.5
 49
-0.25
 49
0.0
 49
-0.25
  0
LTYPE
  2
BORDERX2
 70
    64
  3
Border (2x) ____  ____  .  ____  ____  .  ___
 72
    65
 73
     6
 40
7.0
 49
2.0
 49
-1.0
 49
2.0
 49
-1.0
 49
0.0
 49
-1.0
  0
LTYPE
  2
CENTER
 70
    64
  3
Center ____ _ ____ _ ____ _ ____ _ ____ _ ____
 72
    65
 73
     4
 40
12.0
 49
7.5
 49
-1.5
 49
1.5
 49
-1.5
  0
LTYPE
  2
CENTER2
 70
    64
  3
Center (.5x) ___ _ ___ _ ___ _ ___ _ ___ _ ___
 72
    65
 73
     4
 40
6.0
 49
3.75
 49
-0.75
 49
0.75
 49
-0.75
  0
LTYPE
  2
CENTERX2
 70
    64
  3
Center (2x) ________  __  ________  __  _____
 72
    65
 73
     4
 40
24.0
 49
15.0
 49
-3.0
 49
3.0
 49
-3.0
  0
LTYPE
  2
DASHDOT
 70
    64
  3
Dash dot __ . __ . __ . __ . __ . __ . __ . __
 72
    65
 73
     4
 40
6.0
 49
3.0
 49
-1.5
 49
0.0
 49
-1.5
  0
LTYPE
  2
DASHDOT2
 70
    64
  3
Dash dot (.5x) _._._._._._._._._._._._._._._.
 72
    65
 73
     4
 40
3.0
 49
1.5
 49
-0.75
 49
0.0
 49
-0.75
  0
LTYPE
  2
DASHDOTX2
 70
    64
  3
Dash dot (2x) ____  .  ____  .  ____  .  ___
 72
    65
 73
     4
 40
12.0
 49
6.0
 49
-3.0
 49
0.0
 49
-3.0
  0
LTYPE
  2
DASHED
 70
    64
  3
Dashed __ __ __ __ __ __ __ __ __ __ __ __ __ _
 72
    65
 73
     2
 40
4.5
 49
3.0
 49
-1.5
  0
LTYPE
  2
DASHED2
 70
    64
  3
Dashed (.5x) _ _ _ _ _ _ _ _ _ _ _ _ _ _ _ _ _
 72
    65
 73
     2
 40
2.25
 49
1.5
 49
-0.75
  0
LTYPE
  2
DASHEDX2
 70
    64
  3
Dashed (2x) ____  ____  ____  ____  ____  ___
 72
    65
 73
     2
 40
9.0
 49
6.0
 49
-3.0
  0
LTYPE
  2
DIVIDE
 70
    64
  3
Divide ____ . . ____ . . ____ . . ____ . . ____
 72
    65
 73
     6
 40
7.5
 49
3.0
 49
-1.5
 49
0.0
 49
-1.5
 49
0.0
 49
-1.5
  0
LTYPE
  2
DIVIDE2
 70
    64
  3
Divide (.5x) __..__..__..__..__..__..__..__.._
 72
    65
 73
     6
 40
3.75
 49
1.5
 49
-0.75
 49
0.0
 49
-0.75
 49
0.0
 49
-0.75
  0
LTYPE
  2
DIVIDEX2
 70
    64
  3
Divide (2x) ________  .  .  ________  .  .  _
 72
    65
 73
     6
 40
15.0
 49
6.0
 49
-3.0
 49
0.0
 49
-3.0
 49
0.0
 49
-3.0
  0
LTYPE
  2
DOT
 70
    64
  3
Dot . . . . . . . . . . . . . . . . . . . . . .
 72
    65
 73
     2
 40
1.5
 49
0.0
 49
-1.5
  0
LTYPE
  2
DOT2
 70
    64
  3
Dot (.5x) .....................................
 72
    65
 73
     2
 40
0.75
 49
0.0
 49
-0.75
  0
LTYPE
  2
DOTX2
 70
    64
  3
Dot (2x) .  .  .  .  .  .  .  .  .  .  .  .  . 
 72
    65
 73
     2
 40
3.0
 49
0.0
 49
-3.0
  0
LTYPE
  2
HIDDEN
 70
    64
  3
Hidden __ __ __ __ __ __ __ __ __ __ __ __ __ _
 72
    65
 73
     2
 40
4.5
 49
3.0
 49
-1.5
  0
LTYPE
  2
HIDDEN2
 70
    64
  3
Hidden (.5x) _ _ _ _ _ _ _ _ _ _ _ _ _ _ _ _ _
 72
    65
 73
     2
 40
2.25
 49
1.5
 49
-0.75
  0
LTYPE
  2
HIDDENX2
 70
    64
  3
Hidden (2x) ____ ____ ____ ____ ____ ____ ____
 72
    65
 73
     2
 40
9.0
 49
6.0
 49
-3.0
  0
LTYPE
  2
PHANTOM
 70
    64
  3
Phantom ______  __  __  ______  __  __  ______
 72
    65
 73
     6
 40
15.0
 49
7.5
 49
-1.5
 49
1.5
 49
-1.5
 49
1.5
 49
-1.5
  0
LTYPE
  2
PHANTOM2
 70
    64
  3
Phantom (.5x) ___ _ _ ___ _ _ ___ _ _ ___ _ _
 72
    65
 73
     6
 40
7.5
 49
3.75
 49
-0.75
 49
0.75
 49
-0.75
 49
0.75
 49
-0.75
  0
LTYPE
  2
PHANTOMX2
 70
    64
  3
Phantom (2x) ____________    ____    ____   _
 72
    65
 73
     6
 40
30.0
 49
15.0
 49
-3.0
 49
3.0
 49
-3.0
 49
3.0
 49
-3.0
  0
ENDTAB
  0
TABLE
  2
LAYER
 70
     1
  0
LAYER
  2
0
 70
     0
 62
     7
  6
CONTINUOUS
  0
ENDTAB
  0
TABLE
  2
STYLE
 70
     1
  0
STYLE
  2
STANDARD
 70
     0
 40
0.0
 41
1.0
 50
0.0
 71
     0
 42
0.2
  3
txt
  4
BIGFONT
  0
ENDTAB
  0
TABLE
  2
DIMSTYLE
 70
     0
  0
ENDTAB
  0
ENDSEC
  0
SECTION
  2
BLOCKS
  0
ENDSEC
  0
SECTION
  2
ENTITIES
  0
POINT
  8
0
  6
CONTINUOUS
 62
     7
 10
6.65833333333336
 20
-7.084895833333377
  0
LINE
  8
0
  6
CENTER
 62
     7
 10
-126.17957
 20
160.85782
 11
-149.17964
 21
160.85782
  0
LINE
  8
0
  6
CONTINUOUS
 62
     7
 10
-46.91719000000001
 20
153.49661
 11
-46.91719000000001
 21
168.21902
  0
LINE
  8
0
  6
CONTINUOUS
 62
     7
 10
-57.91725
 20
165.76541
 11
-59.41725
 21
165.76541
  0
LINE
  8
0
  6
CONTINUOUS
 62
     7
 10
-48.91725
 20
165.76541
 11
-47.41725
 21
165.76541
  0
LINE
  8
0
  6
CONTINUOUS
 62
     7
 10
-57.91725
 20
155.95041
 11
-59.41725
 21
155.95041
  0
LINE
  8
0
  6
CONTINUOUS
 62
     7
 10
-57.91725
 20
170.67282
 11
-59.41725
 21
170.67282
  0
LINE
  8
0
  6
CONTINUOUS
 62
     7
 10
-48.91725
 20
155.95041
 11
-47.41725
 21
155.95041
  0
LINE
  8
0
  6
CONTINUOUS
 62
     7
 10
-57.41719000000001
 20
167.85794
 11
-49.41721999999999
 21
167.85794
  0
LINE
  8
0
  6
CONTINUOUS
 62
     7
 10
-57.91725
 20
151.04299
 11
-59.41725
 21
151.04299
  0
LINE
  8
0
  6
CONTINUOUS
 62
     7
 10
-57.41719000000001
 20
153.49661
 11
-57.41719000000001
 21
168.21902
  0
LINE
  8
0
  6
CONTINUOUS
 62
     7
 10
-59.91721999999999
 20
153.49661
 11
-59.91721999999999
 21
168.21902
  0
LINE
  8
0
  6
CONTINUOUS
 62
     7
 10
-137.6796700000001
 20
151.0428800000001
 11
-146.1797100000001
 21
155.95039
  0
LINE
  8
0
  6
CONTINUOUS
 62
     7
 10
-129.17967
 20
165.76532
 11
-137.67971
 21
170.67282
  0
LINE
  8
0
  6
CONTINUOUS
 62
     7
 10
-137.6796500000002
 20
170.6727800000002
 11
-146.1796100000002
 21
165.7653300000002
  0
LINE
  8
0
  6
CONTINUOUS
 62
     7
 10
-129.1796199999999
 20
155.9502999999996
 11
-137.6795799999999
 21
151.0428399999996
  0
LINE
  8
0
  6
CONTINUOUS
 62
     7
 10
-146.17964
 20
155.95032
 11
-146.17964
 21
165.76532
  0
LINE
  8
0
  6
CONTINUOUS
 62
     7
 10
-129.17957
 20
155.95032
 11
-129.17957
 21
165.76532
  0
LINE
  8
0
  6
CENTER
 62
     7
 10
-137.67969
 20
149.81784
 11
-137.67969
 21
171.8978
  0
LINE
  8
0
  6
CONTINUOUS
 62
     7
 10
-48.91725
 20
170.67282
 11
-47.41725
 21
170.67282
  0
LINE
  8
0
  6
CONTINUOUS
 62
     7
 10
-35.91719000000001
 20
155.85794
 11
-35.91719000000001
 21
165.85788
  0
LINE
  8
0
  6
CONTINUOUS
 62
     7
 10
-38.41717999999987
 20
153.8578699999998
 11
-37.91714999999986
 21
154.3578999999998
  0
LINE
  8
0
  6
CONTINUOUS
 62
     7
 10
-38.41721999999999
 20
153.85788
 11
-38.41721999999999
 21
167.85794
  0
LINE
  8
0
  6
CONTINUOUS
 62
     7
 10
-78.91726
 20
154.35784
 11
-78.41726
 21
153.85784
  0
LINE
  8
0
  6
CONTINUOUS
 62
     7
 10
-78.41719000000001
 20
153.85788
 11
-78.41719000000001
 21
167.85794
  0
LINE
  8
0
  6
CONTINUOUS
 62
     7
 10
-78.41718999999986
 20
167.8579199999999
 11
-78.91722999999985
 21
167.3578799999999
  0
LINE
  8
0
  6
CONTINUOUS
 62
     7
 10
-78.91725
 20
154.35794
 11
-59.91721999999999
 21
154.35794
  0
LINE
  8
0
  6
CONTINUOUS
 62
     7
 10
-37.91728000000003
 20
167.3578499999999
 11
-38.41725000000004
 21
167.85782
  0
LINE
  8
0
  6
CONTINUOUS
 62
     7
 10
-78.91725
 20
167.35788
 11
-59.91721999999999
 21
167.35788
  0
LINE
  8
0
  6
CONTINUOUS
 62
     7
 10
-37.91725
 20
166.85782
 11
-36.91721999999999
 21
166.85782
  0
LINE
  8
0
  6
CONTINUOUS
 62
     7
 10
-37.91725
 20
154.85782
 11
-36.91721999999999
 21
154.85782
  0
LINE
  8
0
  6
CONTINUOUS
 62
     7
 10
-37.91725
 20
154.35794
 11
-37.91725
 21
167.35788
  0
LINE
  8
0
  6
CONTINUOUS
 62
     7
 10
-78.91725
 20
154.35794
 11
-78.91725
 21
167.35788
  0
LINE
  8
0
  6
CONTINUOUS
 62
     7
 10
-78.41719000000001
 20
153.85788
 11
-59.91721999999999
 21
153.85788
  0
LINE
  8
0
  6
CONTINUOUS
 62
     7
 10
-78.41719000000001
 20
167.85794
 11
-59.91721999999999
 21
167.85794
  0
LINE
  8
0
  6
CONTINUOUS
 62
     7
 10
-103.91718
 20
156.55795
 11
-103.91718
 21
165.15787
  0
LINE
  8
0
  6
CONTINUOUS
 62
     7
 10
-102.91724
 20
156.55795
 11
-102.91724
 21
165.15787
  0
LINE
  8
0
  6
CONTINUOUS
 62
     7
 10
-103.91718
 20
156.55795
 11
-78.91725
 21
156.55795
  0
LINE
  8
0
  6
CONTINUOUS
 62
     7
 10
-103.91718
 20
165.15787
 11
-78.91725
 21
165.15787
  0
LINE
  8
0
  6
CENTER
 62
     7
 10
-108.91724
 20
160.85782
 11
-27.83657791108337
 21
160.85782
  0
LINE
  8
0
  6
CONTINUOUS
 62
     7
 10
-49.41721999999999
 20
153.49661
 11
-49.41721999999999
 21
168.21902
  0
LINE
  8
0
  6
CONTINUOUS
 62
     7
 10
-57.41719000000001
 20
153.85788
 11
-49.41721999999999
 21
153.85788
  0
LINE
  8
0
  6
CONTINUOUS
 62
     7
 10
-57.41719000000001
 20
154.35794
 11
-49.41721999999999
 21
154.35794
  0
LINE
  8
0
  6
CONTINUOUS
 62
     7
 10
-57.41719000000001
 20
167.35788
 11
-49.41721999999999
 21
167.35788
  0
LINE
  8
0
  6
CONTINUOUS
 62
     7
 10
-48.91725
 20
151.04299
 11
-47.41725
 21
151.04299
  0
LINE
  8
0
  6
CONTINUOUS
 62
     7
 10
-46.91719000000001
 20
153.85788
 11
-38.41721999999999
 21
153.85788
  0
LINE
  8
0
  6
CONTINUOUS
 62
     7
 10
-46.91719000000001
 20
154.35794
 11
-37.91725
 21
154.35794
  0
LINE
  8
0
  6
CONTINUOUS
 62
     7
 10
-46.91719000000001
 20
167.35788
 11
-37.91725
 21
167.35788
  0
LINE
  8
0
  6
CONTINUOUS
 62
     7
 10
-46.91719000000001
 20
167.85794
 11
-38.41721999999999
 21
167.85794
  0
LINE
  8
0
  6
CONTINUOUS
 62
     7
 10
0
 20
274.5
 11
0
 21
0
  0
LINE
  8
0
  6
CONTINUOUS
 62
     7
 10
-176.8
 20
0
 11
0
 21
0
  0
LINE
  8
0
  6
CONTINUOUS
 62
     7
 10
-176.8
 20
274.5
 11
-176.8
 21
0
  0
LINE
  8
0
  6
CONTINUOUS
 62
     7
 10
-176.8
 20
274.5
 11
0
 21
274.5
  0
LINE
  8
0
  6
CONTINUOUS
 62
     7
 10
-176.6
 20
274.3
 11
-0.2
 21
274.3
  0
LINE
  8
0
  6
CONTINUOUS
 62
     7
 10
-0.2
 20
274.3
 11
-0.2
 21
0.2
  0
LINE
  8
0
  6
CONTINUOUS
 62
     7
 10
-176.6
 20
0.2
 11
-0.2
 21
0.2
  0
LINE
  8
0
  6
CONTINUOUS
 62
     7
 10
-176.6
 20
274.3
 11
-176.6
 21
0.2
  0
LINE
  8
0
  6
CONTINUOUS
 62
     7
 10
-61.8
 20
12.9
 11
-0.2
 21
12.9
  0
LINE
  8
0
  6
CONTINUOUS
 62
     7
 10
-61.8
 20
25.4
 11
-0.2
 21
25.4
  0
LINE
  8
0
  6
CONTINUOUS
 62
     7
 10
-61.8
 20
38.9
 11
-0.2
 21
38.9
  0
LINE
  8
0
  6
CONTINUOUS
 62
     7
 10
-61.8
 20
38.9
 11
-61.8
 21
0.2
  0
LINE
  8
0
  6
PHANTOM
 62
     7
 10
-88.91718
 20
156.55795
 11
-88.91718
 21
165.15787
  0
LINE
  8
0
  6
PHANTOM
 62
     7
 10
-87.91723999999999
 20
156.55795
 11
-87.91723999999999
 21
165.15787
  0
ARC
  8
0
  6
CONTINUOUS
 62
     7
 10
-36.91721999999999
 20
165.85788
 40
1
 50
0
 51
90.00000299999933
  0
ARC
  8
0
  6
CONTINUOUS
 62
     7
 10
-35.91719000000001
 20
150.85787
 40
10
 50
0
 51
90.00000299999998
  0
ARC
  8
0
  6
CONTINUOUS
 62
     7
 10
-36.91721999999999
 20
155.85794
 40
1
 50
269.9999900000013
 51
2.504478472598663e-006
  0
CIRCLE
  8
0
  6
CONTINUOUS
 62
     7
 10
-137.67969
 20
160.85782
 40
4.3000002
  0
CIRCLE
  8
0
  6
CONTINUOUS
 62
     7
 10
-137.67969
 20
160.85782
 40
7.0000005
  0
CIRCLE
  8
0
  6
CONTINUOUS
 62
     7
 10
-137.67969
 20
160.85782
 40
6.5
  0
CIRCLE
  8
0
  6
CONTINUOUS
 62
     7
 10
-137.67969
 20
160.85782
 40
8.5
  0
ARC
  8
0
  6
CONTINUOUS
 62
     7
 10
-35.91719000000001
 20
150.85787
 40
11
 50
0
 51
90.00000300000011
  0
ARC
  8
0
  6
CONTINUOUS
 62
     7
 10
-35.91719000000001
 20
150.85787
 40
9
 50
0
 51
90.00000300000011
  0
POLYLINE
  8
0
  6
CONTINUOUS
 62
     7
 66
     1
 10
0
 20
0
  0
VERTEX
  8
0
  6
CONTINUOUS
 62
     7
 10
-57.91725
 20
151.04299
 42
0.02037599420227699
  0
VERTEX
  8
0
  6
CONTINUOUS
 62
     7
 10
-57.72641189553627
 20
151.5691184766961
 42
0.02028104235180554
  0
VERTEX
  8
0
  6
CONTINUOUS
 62
     7
 10
-57.57876852238851
 20
152.1092400770854
 42
0.0215441626822548
  0
VERTEX
  8
0
  6
CONTINUOUS
 62
     7
 10
-57.47668999999999
 20
152.65974
 42
0.02293509864537846
  0
VERTEX
  8
0
  6
CONTINUOUS
 62
     7
 10
-57.4239424152577
 20
153.2170061564927
 42
0.02416509714245655
  0
VERTEX
  8
0
  6
CONTINUOUS
 62
     7
 10
-57.42395678789912
 20
153.7764576405026
 42
0.02295744336773506
  0
VERTEX
  8
0
  6
CONTINUOUS
 62
     7
 10
-57.47683000000001
 20
154.33448
 42
0.02153023061703091
  0
VERTEX
  8
0
  6
CONTINUOUS
 62
     7
 10
-57.57893853184553
 20
154.8848214176504
 42
0.02028054491994192
  0
VERTEX
  8
0
  6
CONTINUOUS
 62
     7
 10
-57.72660662467495
 20
155.4248701445729
 42
0.02035320529839459
  0
VERTEX
  8
0
  6
CONTINUOUS
 62
     7
 10
-57.91725
 20
155.95041
 42
0
  0
SEQEND
  8
0
  6
CONTINUOUS
 62
     7
  0
POLYLINE
  8
0
  6
CONTINUOUS
 62
     7
 66
     1
 10
0
 20
0
  0
VERTEX
  8
0
  6
CONTINUOUS
 62
     7
 10
-57.91725
 20
165.76541
 42
0.02037595405203852
  0
VERTEX
  8
0
  6
CONTINUOUS
 62
     7
 10
-57.72641222358634
 20
166.2915374195012
 42
0.0202810880087774
  0
VERTEX
  8
0
  6
CONTINUOUS
 62
     7
 10
-57.57876866873371
 20
166.8316595378585
 42
0.02154410383385991
  0
VERTEX
  8
0
  6
CONTINUOUS
 62
     7
 10
-57.47668999999999
 20
167.38216
 42
0.02293513086315517
  0
VERTEX
  8
0
  6
CONTINUOUS
 62
     7
 10
-57.42394234187052
 20
167.9394250497792
 42
0.02416511290156235
  0
VERTEX
  8
0
  6
CONTINUOUS
 62
     7
 10
-57.42395664156744
 20
168.4988670764393
 42
0.02295754167531015
  0
VERTEX
  8
0
  6
CONTINUOUS
 62
     7
 10
-57.47683000000001
 20
169.05689
 42
0.021530116110823
  0
VERTEX
  8
0
  6
CONTINUOUS
 62
     7
 10
-57.57893830553962
 20
169.6072303431076
 42
0.02028058967884971
  0
VERTEX
  8
0
  6
CONTINUOUS
 62
     7
 10
-57.72660644977547
 20
170.1472796153432
 42
0.0203532250676107
  0
VERTEX
  8
0
  6
CONTINUOUS
 62
     7
 10
-57.91725
 20
170.67282
 42
0
  0
SEQEND
  8
0
  6
CONTINUOUS
 62
     7
  0
POLYLINE
  8
0
  6
CONTINUOUS
 62
     7
 66
     1
 10
0
 20
0
  0
VERTEX
  8
0
  6
CONTINUOUS
 62
     7
 10
-103.91718
 20
156.55795
 42
-0.03271103909113023
  0
VERTEX
  8
0
  6
CONTINUOUS
 62
     7
 10
-104.6056162022986
 20
157.3852729222482
 42
-0.03112280061005284
  0
VERTEX
  8
0
  6
CONTINUOUS
 62
     7
 10
-105.1852196333958
 20
158.2941367248488
 42
-0.04111925505014489
  0
VERTEX
  8
0
  6
CONTINUOUS
 62
     7
 10
-105.62867
 20
159.27537
 42
-0.05266775798359331
  0
VERTEX
  8
0
  6
CONTINUOUS
 62
     7
 10
-105.8822770178229
 20
160.3223878115986
 42
-0.06552373221762023
  0
VERTEX
  8
0
  6
CONTINUOUS
 62
     7
 10
-105.8817815015636
 20
161.3971209406691
 42
-0.0525431975783536
  0
VERTEX
  8
0
  6
CONTINUOUS
 62
     7
 10
-105.6279479530702
 20
162.4423674050697
 42
-0.04109107003476512
  0
VERTEX
  8
0
  6
CONTINUOUS
 62
     7
 10
-105.1842240014736
 20
163.4234158651652
 42
-0.03110377028188247
  0
VERTEX
  8
0
  6
CONTINUOUS
 62
     7
 10
-104.6046671191492
 20
164.3318229700649
 42
-0.03266659547746403
  0
VERTEX
  8
0
  6
CONTINUOUS
 62
     7
 10
-103.91718
 20
165.15787
 42
0
  0
SEQEND
  8
0
  6
CONTINUOUS
 62
     7
  0
POLYLINE
  8
0
  6
CONTINUOUS
 62
     7
 66
     1
 10
0
 20
0
  0
VERTEX
  8
0
  6
CONTINUOUS
 62
     7
 10
-47.41725
 20
165.76541
 42
0.02037595405260342
  0
VERTEX
  8
0
  6
CONTINUOUS
 62
     7
 10
-47.22641222358634
 20
166.2915374195012
 42
0.02028108800943426
  0
VERTEX
  8
0
  6
CONTINUOUS
 62
     7
 10
-47.07876866873371
 20
166.8316595378585
 42
0.02154410383426644
  0
VERTEX
  8
0
  6
CONTINUOUS
 62
     7
 10
-46.97668999999999
 20
167.38216
 42
0.02293513086338955
  0
VERTEX
  8
0
  6
CONTINUOUS
 62
     7
 10
-46.92394234187052
 20
167.9394250497792
 42
0.02416511290150733
  0
VERTEX
  8
0
  6
CONTINUOUS
 62
     7
 10
-46.92395664156744
 20
168.4988670764393
 42
0.02295754167610226
  0
VERTEX
  8
0
  6
CONTINUOUS
 62
     7
 10
-46.97683000000001
 20
169.05689
 42
0.02153011611137868
  0
VERTEX
  8
0
  6
CONTINUOUS
 62
     7
 10
-47.07893830553962
 20
169.6072303431076
 42
0.02028058967862135
  0
VERTEX
  8
0
  6
CONTINUOUS
 62
     7
 10
-47.22660644977547
 20
170.1472796153432
 42
0.02035322506731177
  0
VERTEX
  8
0
  6
CONTINUOUS
 62
     7
 10
-47.41725
 20
170.67282
 42
0
  0
SEQEND
  8
0
  6
CONTINUOUS
 62
     7
  0
POLYLINE
  8
0
  6
CONTINUOUS
 62
     7
 66
     1
 10
0
 20
0
  0
VERTEX
  8
0
  6
CONTINUOUS
 62
     7
 10
-47.41725
 20
155.95041
 42
0.01101305447679703
  0
VERTEX
  8
0
  6
CONTINUOUS
 62
     7
 10
-47.22150968326608
 20
157.0307176124302
 42
0.01100522705976245
  0
VERTEX
  8
0
  6
CONTINUOUS
 62
     7
 10
-47.07347037705114
 20
158.1187253819134
 42
0.01117061687698415
  0
VERTEX
  8
0
  6
CONTINUOUS
 62
     7
 10
-46.97382999999999
 20
159.21181
 42
0.01136494175316029
  0
VERTEX
  8
0
  6
CONTINUOUS
 62
     7
 10
-46.92352631317435
 20
160.3086069543766
 42
0.01153479359493785
  0
VERTEX
  8
0
  6
CONTINUOUS
 62
     7
 10
-46.92352107018307
 20
161.4067958999967
 42
0.01136303098471695
  0
VERTEX
  8
0
  6
CONTINUOUS
 62
     7
 10
-46.97380999999999
 20
162.50359
 42
0.01117253718252022
  0
VERTEX
  8
0
  6
CONTINUOUS
 62
     7
 10
-47.07346317276411
 20
163.5969953957204
 42
0.01101538711439187
  0
VERTEX
  8
0
  6
CONTINUOUS
 62
     7
 10
-47.22163185209067
 20
164.6858750238712
 42
0.01100588504777308
  0
VERTEX
  8
0
  6
CONTINUOUS
 62
     7
 10
-47.41725
 20
165.76541
 42
0
  0
SEQEND
  8
0
  6
CONTINUOUS
 62
     7
  0
POLYLINE
  8
0
  6
CONTINUOUS
 62
     7
 66
     1
 10
0
 20
0
  0
VERTEX
  8
0
  6
CONTINUOUS
 62
     7
 10
-47.41725
 20
151.04299
 42
0.0203759942025922
  0
VERTEX
  8
0
  6
CONTINUOUS
 62
     7
 10
-47.22641189553627
 20
151.5691184766961
 42
0.02028104235263522
  0
VERTEX
  8
0
  6
CONTINUOUS
 62
     7
 10
-47.07876852238851
 20
152.1092400770854
 42
0.02154416268201533
  0
VERTEX
  8
0
  6
CONTINUOUS
 62
     7
 10
-46.97668999999999
 20
152.65974
 42
0.02293509864511542
  0
VERTEX
  8
0
  6
CONTINUOUS
 62
     7
 10
-46.9239424152577
 20
153.2170061564927
 42
0.02416509714293515
  0
VERTEX
  8
0
  6
CONTINUOUS
 62
     7
 10
-46.92395678789912
 20
153.7764576405026
 42
0.02295744336826926
  0
VERTEX
  8
0
  6
CONTINUOUS
 62
     7
 10
-46.97683000000001
 20
154.33448
 42
0.02153023061707906
  0
VERTEX
  8
0
  6
CONTINUOUS
 62
     7
 10
-47.07893853184553
 20
154.8848214176504
 42
0.02028054491902754
  0
VERTEX
  8
0
  6
CONTINUOUS
 62
     7
 10
-47.22660662467495
 20
155.4248701445729
 42
0.02035320529786982
  0
VERTEX
  8
0
  6
CONTINUOUS
 62
     7
 10
-47.41725
 20
155.95041
 42
0
  0
SEQEND
  8
0
  6
CONTINUOUS
 62
     7
  0
POLYLINE
  8
0
  6
CONTINUOUS
 62
     7
 66
     1
 10
0
 20
0
  0
VERTEX
  8
0
  6
CONTINUOUS
 62
     7
 10
-48.91725
 20
165.76541
 42
-0.0203818176950116
  0
VERTEX
  8
0
  6
CONTINUOUS
 62
     7
 10
-49.10807838395388
 20
166.2915366812927
 42
-0.02028982732201872
  0
VERTEX
  8
0
  6
CONTINUOUS
 62
     7
 10
-49.25569602269234
 20
166.8316612774226
 42
-0.02154194412978361
  0
VERTEX
  8
0
  6
CONTINUOUS
 62
     7
 10
-49.35774000000001
 20
167.38216
 42
-0.02292562731330666
  0
VERTEX
  8
0
  6
CONTINUOUS
 62
     7
 10
-49.41046834261259
 20
167.9394231106823
 42
-0.02415338441068425
  0
VERTEX
  8
0
  6
CONTINUOUS
 62
     7
 10
-49.41045923194942
 20
168.4988653746138
 42
-0.02295279684933773
  0
VERTEX
  8
0
  6
CONTINUOUS
 62
     7
 10
-49.35760999999999
 20
169.05689
 42
-0.02153127646940278
  0
VERTEX
  8
0
  6
CONTINUOUS
 62
     7
 10
-49.25552944761666
 20
169.6072314821064
 42
-0.02028556405098005
  0
VERTEX
  8
0
  6
CONTINUOUS
 62
     7
 10
-49.10788255801927
 20
170.1472802390202
 42
-0.02035715488696755
  0
VERTEX
  8
0
  6
CONTINUOUS
 62
     7
 10
-48.91725
 20
170.67282
 42
0
  0
SEQEND
  8
0
  6
CONTINUOUS
 62
     7
  0
POLYLINE
  8
0
  6
CONTINUOUS
 62
     7
 66
     1
 10
0
 20
0
  0
VERTEX
  8
0
  6
CONTINUOUS
 62
     7
 10
-48.91725
 20
155.95041
 42
-0.01101507794819652
  0
VERTEX
  8
0
  6
CONTINUOUS
 62
     7
 10
-49.11297941398566
 20
157.0307176084448
 42
-0.01100762706428611
  0
VERTEX
  8
0
  6
CONTINUOUS
 62
     7
 10
-49.26099796458441
 20
158.1187259182835
 42
-0.01117156544637629
  0
VERTEX
  8
0
  6
CONTINUOUS
 62
     7
 10
-49.36061000000001
 20
159.21181
 42
-0.01136198998127028
  0
VERTEX
  8
0
  6
CONTINUOUS
 62
     7
 10
-49.41088814282888
 20
160.3086061152886
 42
-0.01152664209555602
  0
VERTEX
  8
0
  6
CONTINUOUS
 62
     7
 10
-49.41089342478134
 20
161.4067951398748
 42
-0.01136009951734651
  0
VERTEX
  8
0
  6
CONTINUOUS
 62
     7
 10
-49.36062999999999
 20
162.50359
 42
-0.01117349882124444
  0
VERTEX
  8
0
  6
CONTINUOUS
 62
     7
 10
-49.26100503128325
 20
163.5969959782495
 42
-0.01101777537739865
  0
VERTEX
  8
0
  6
CONTINUOUS
 62
     7
 10
-49.11285718049263
 20
164.6858754066563
 42
-0.0110078988847791
  0
VERTEX
  8
0
  6
CONTINUOUS
 62
     7
 10
-48.91725
 20
165.76541
 42
0
  0
SEQEND
  8
0
  6
CONTINUOUS
 62
     7
  0
POLYLINE
  8
0
  6
CONTINUOUS
 62
     7
 66
     1
 10
0
 20
0
  0
VERTEX
  8
0
  6
CONTINUOUS
 62
     7
 10
-48.91725
 20
151.04299
 42
-0.0203818578617341
  0
VERTEX
  8
0
  6
CONTINUOUS
 62
     7
 10
-49.10807871197648
 20
151.5691177384988
 42
-0.02028978166057951
  0
VERTEX
  8
0
  6
CONTINUOUS
 62
     7
 10
-49.2556961689987
 20
152.1092418166574
 42
-0.02154200294692719
  0
VERTEX
  8
0
  6
CONTINUOUS
 62
     7
 10
-49.35774000000001
 20
152.65974
 42
-0.02292559513179671
  0
VERTEX
  8
0
  6
CONTINUOUS
 62
     7
 10
-49.41046826921716
 20
153.2170042174029
 42
-0.02415336861875382
  0
VERTEX
  8
0
  6
CONTINUOUS
 62
     7
 10
-49.41045908568184
 20
153.7764559386721
 42
-0.02295269857966972
  0
VERTEX
  8
0
  6
CONTINUOUS
 62
     7
 10
-49.35760999999999
 20
154.33448
 42
-0.02153139095464371
  0
VERTEX
  8
0
  6
CONTINUOUS
 62
     7
 10
-49.25552922135008
 20
154.8848225566651
 42
-0.02028551929705003
  0
VERTEX
  8
0
  6
CONTINUOUS
 62
     7
 10
-49.10788238313641
 20
155.4248707682546
 42
-0.02035713511173313
  0
VERTEX
  8
0
  6
CONTINUOUS
 62
     7
 10
-48.91725
 20
155.95041
 42
0
  0
SEQEND
  8
0
  6
CONTINUOUS
 62
     7
  0
POLYLINE
  8
0
  6
CONTINUOUS
 62
     7
 66
     1
 10
0
 20
0
  0
VERTEX
  8
0
  6
CONTINUOUS
 62
     7
 10
-59.41725
 20
151.04299
 42
-0.02038185786180374
  0
VERTEX
  8
0
  6
CONTINUOUS
 62
     7
 10
-59.60807871197648
 20
151.5691177384988
 42
-0.02028978166035449
  0
VERTEX
  8
0
  6
CONTINUOUS
 62
     7
 10
-59.7556961689987
 20
152.1092418166574
 42
-0.02154200294681589
  0
VERTEX
  8
0
  6
CONTINUOUS
 62
     7
 10
-59.85774000000001
 20
152.65974
 42
-0.02292559513179304
  0
VERTEX
  8
0
  6
CONTINUOUS
 62
     7
 10
-59.91046826921716
 20
153.2170042174029
 42
-0.02415336861861785
  0
VERTEX
  8
0
  6
CONTINUOUS
 62
     7
 10
-59.91045908568184
 20
153.7764559386721
 42
-0.0229526985793867
  0
VERTEX
  8
0
  6
CONTINUOUS
 62
     7
 10
-59.85760999999999
 20
154.33448
 42
-0.02153139095417756
  0
VERTEX
  8
0
  6
CONTINUOUS
 62
     7
 10
-59.75552922135008
 20
154.8848225566651
 42
-0.02028551929662241
  0
VERTEX
  8
0
  6
CONTINUOUS
 62
     7
 10
-59.60788238313641
 20
155.4248707682546
 42
-0.02035713511242027
  0
VERTEX
  8
0
  6
CONTINUOUS
 62
     7
 10
-59.41725
 20
155.95041
 42
0
  0
SEQEND
  8
0
  6
CONTINUOUS
 62
     7
  0
POLYLINE
  8
0
  6
CONTINUOUS
 62
     7
 66
     1
 10
0
 20
0
  0
VERTEX
  8
0
  6
CONTINUOUS
 62
     7
 10
-57.91725
 20
155.95041
 42
0.0110130544768179
  0
VERTEX
  8
0
  6
CONTINUOUS
 62
     7
 10
-57.72150968326608
 20
157.0307176124302
 42
0.01100522705977511
  0
VERTEX
  8
0
  6
CONTINUOUS
 62
     7
 10
-57.57347037705114
 20
158.1187253819134
 42
0.01117061687697971
  0
VERTEX
  8
0
  6
CONTINUOUS
 62
     7
 10
-57.47382999999999
 20
159.21181
 42
0.01136494175313809
  0
VERTEX
  8
0
  6
CONTINUOUS
 62
     7
 10
-57.42352631317435
 20
160.3086069543766
 42
0.01153479359483961
  0
VERTEX
  8
0
  6
CONTINUOUS
 62
     7
 10
-57.42352107018307
 20
161.4067958999967
 42
0.01136303098473915
  0
VERTEX
  8
0
  6
CONTINUOUS
 62
     7
 10
-57.47380999999999
 20
162.50359
 42
0.01117253718246331
  0
VERTEX
  8
0
  6
CONTINUOUS
 62
     7
 10
-57.57346317276411
 20
163.5969953957204
 42
0.01101538711439201
  0
VERTEX
  8
0
  6
CONTINUOUS
 62
     7
 10
-57.72163185209067
 20
164.6858750238712
 42
0.01100588504776485
  0
VERTEX
  8
0
  6
CONTINUOUS
 62
     7
 10
-57.91725
 20
165.76541
 42
0
  0
SEQEND
  8
0
  6
CONTINUOUS
 62
     7
  0
POLYLINE
  8
0
  6
CONTINUOUS
 62
     7
 66
     1
 10
0
 20
0
  0
VERTEX
  8
0
  6
CONTINUOUS
 62
     7
 10
-59.41725
 20
155.95041
 42
-0.01101507794813534
  0
VERTEX
  8
0
  6
CONTINUOUS
 62
     7
 10
-59.61297941398566
 20
157.0307176084448
 42
-0.01100762706424458
  0
VERTEX
  8
0
  6
CONTINUOUS
 62
     7
 10
-59.76099796458441
 20
158.1187259182835
 42
-0.01117156544638217
  0
VERTEX
  8
0
  6
CONTINUOUS
 62
     7
 10
-59.86061000000001
 20
159.21181
 42
-0.01136198998123097
  0
VERTEX
  8
0
  6
CONTINUOUS
 62
     7
 10
-59.91088814282888
 20
160.3086061152886
 42
-0.01152664209561088
  0
VERTEX
  8
0
  6
CONTINUOUS
 62
     7
 10
-59.91089342478134
 20
161.4067951398748
 42
-0.01136009951728199
  0
VERTEX
  8
0
  6
CONTINUOUS
 62
     7
 10
-59.86062999999999
 20
162.50359
 42
-0.01117349882113986
  0
VERTEX
  8
0
  6
CONTINUOUS
 62
     7
 10
-59.76100503128325
 20
163.5969959782495
 42
-0.01101777537742999
  0
VERTEX
  8
0
  6
CONTINUOUS
 62
     7
 10
-59.61285718049263
 20
164.6858754066563
 42
-0.01100789888485464
  0
VERTEX
  8
0
  6
CONTINUOUS
 62
     7
 10
-59.41725
 20
165.76541
 42
0
  0
SEQEND
  8
0
  6
CONTINUOUS
 62
     7
  0
POLYLINE
  8
0
  6
CONTINUOUS
 62
     7
 66
     1
 10
0
 20
0
  0
VERTEX
  8
0
  6
CONTINUOUS
 62
     7
 10
-59.41725
 20
165.76541
 42
-0.02038181769510501
  0
VERTEX
  8
0
  6
CONTINUOUS
 62
     7
 10
-59.60807838395388
 20
166.2915366812927
 42
-0.02028982732201772
  0
VERTEX
  8
0
  6
CONTINUOUS
 62
     7
 10
-59.75569602269234
 20
166.8316612774226
 42
-0.02154194412979038
  0
VERTEX
  8
0
  6
CONTINUOUS
 62
     7
 10
-59.85774000000001
 20
167.38216
 42
-0.0229256273140209
  0
VERTEX
  8
0
  6
CONTINUOUS
 62
     7
 10
-59.91046834261259
 20
167.9394231106823
 42
-0.02415338441089487
  0
VERTEX
  8
0
  6
CONTINUOUS
 62
     7
 10
-59.91045923194942
 20
168.4988653746138
 42
-0.02295279684964412
  0
VERTEX
  8
0
  6
CONTINUOUS
 62
     7
 10
-59.85760999999999
 20
169.05689
 42
-0.0215312764692013
  0
VERTEX
  8
0
  6
CONTINUOUS
 62
     7
 10
-59.75552944761666
 20
169.6072314821064
 42
-0.02028556405078971
  0
VERTEX
  8
0
  6
CONTINUOUS
 62
     7
 10
-59.60788255801927
 20
170.1472802390202
 42
-0.02035715488623323
  0
VERTEX
  8
0
  6
CONTINUOUS
 62
     7
 10
-59.41725
 20
170.67282
 42
0
  0
SEQEND
  8
0
  6
CONTINUOUS
 62
     7
  0
POLYLINE
  8
0
  6
PHANTOM
 62
     7
 66
     1
 10
0
 20
0
  0
VERTEX
  8
0
  6
PHANTOM
 62
     7
 10
-88.91718
 20
156.55795
 42
-0.03271103909120247
  0
VERTEX
  8
0
  6
PHANTOM
 62
     7
 10
-89.60561620229856
 20
157.3852729222482
 42
-0.0311228006105367
  0
VERTEX
  8
0
  6
PHANTOM
 62
     7
 10
-90.18521963339582
 20
158.2941367248488
 42
-0.04111925504980236
  0
VERTEX
  8
0
  6
PHANTOM
 62
     7
 10
-90.62867
 20
159.27537
 42
-0.05266775798330541
  0
VERTEX
  8
0
  6
PHANTOM
 62
     7
 10
-90.88227701782294
 20
160.3223878115986
 42
-0.06552373221719345
  0
VERTEX
  8
0
  6
PHANTOM
 62
     7
 10
-90.88178150156364
 20
161.3971209406691
 42
-0.05254319757807592
  0
VERTEX
  8
0
  6
PHANTOM
 62
     7
 10
-90.62794795307021
 20
162.4423674050697
 42
-0.04109107003448128
  0
VERTEX
  8
0
  6
PHANTOM
 62
     7
 10
-90.18422400147355
 20
163.4234158651652
 42
-0.0311037702822249
  0
VERTEX
  8
0
  6
PHANTOM
 62
     7
 10
-89.6046671191492
 20
164.3318229700649
 42
-0.03266659547735798
  0
VERTEX
  8
0
  6
PHANTOM
 62
     7
 10
-88.91718
 20
165.15787
 42
0
  0
SEQEND
  8
0
  6
PHANTOM
 62
     7
  0
TEXT
  8
0
  6
CONTINUOUS
 62
     7
 10
-49.40942088184444
 20
28.95276040987633
 40
4.800000190734863
 41
0.8463497273843105
  1
スターセンサー
  0
TEXT
  8
0
  6
CONTINUOUS
 62
     7
 10
-47.29916772336917
 20
16.49364981251238
 40
4.800000190734863
 41
0.8474109607149776
  1
ＳＳＷ－１５
  0
TEXT
  8
0
  6
CONTINUOUS
 62
     7
 10
-47.29916772336917
 20
4.131121467841183
 40
4.800000190734863
 41
0.8474109607149776
  1
１８１１３９
  0
ENDSEC
  0
EOF
