  0
SECTION
  2
HEADER
  9
$EXTMAX
 10
0
 20
297
 30
0
  9
$EXTMIN
 10
-420
 20
0
 30
0
  9
$LIMMAX
 10
0
 20
297
  9
$LIMMIN
 10
-420
 20
0
  9
$PLIMMAX
 10
0
 20
297
  9
$PLIMMIN
 10
-420
 20
0
  9
$PEXTMAX
 10
0
 20
297
 30
0
  9
$PEXTMIN
 10
-420
 20
0
 30
0
  9
$TEXTSIZE
 40
3.2
  9
$DIMSHO
 70
     0
  9
$DIMASZ
 40
1.0
  9
$DIMTAD
 70
     1
  9
$DIMTIH
 70
     0
  9
$DIMTOH
 70
     0
  9
$DIMEXE
 40
2.54
  9
$DIMEXO
 40
2.54
  9
$DIMTVP
 40
1.0
  9
$DIMSAH
 70
     1
  9
$DIMDLE
 40
0.0
  9
$DIMTXT
 40
3.200000047683716
  9
$DIMGAP
 40
1.600000023841858
  0
ENDSEC
  0
SECTION
  2
TABLES
  0
TABLE
  2
LTYPE
 70
     39
  0
LTYPE
  2
CONTINUOUS
 70
    64
  3
Solid line
 72
    65
 73
     0
 40
0.0
  0
LTYPE
  2
ACAD_ISO02W100
 70
     0
  3
ISO dash __ __ __ __ __ __ __ __ __ __ __ __ __
 72
    65
 73
     2
 40
15.0
 49
12.0
 49
-3.0
  0
LTYPE
  2
ACAD_ISO03W100
 70
     0
  3
ISO dash space __    __    __    __    __    __
 72
    65
 73
     2
 40
30.0
 49
12.0
 49
-18.0
  0
LTYPE
  2
ACAD_ISO04W100
 70
     0
  3
ISO long-dash dot ____ . ____ . ____ . ____ . _
 72
    65
 73
     4
 40
30.0
 49
24.0
 49
-3.0
 49
0.0
 49
-3.0
  0
LTYPE
  2
ACAD_ISO05W100
 70
     0
  3
ISO long-dash double-dot ____ .. ____ .. ____ .
 72
    65
 73
     6
 40
33.0
 49
24.0
 49
-3.0
 49
0.0
 49
-3.0
 49
0.0
 49
-3.0
  0
LTYPE
  2
ACAD_ISO06W100
 70
     0
  3
ISO long-dash triple-dot ____ ... ____ ... ____
 72
    65
 73
     8
 40
36.0
 49
24.0
 49
-3.0
 49
0.0
 49
-3.0
 49
0.0
 49
-3.0
 49
0.0
 49
-3.0
  0
LTYPE
  2
ACAD_ISO07W100
 70
     0
  3
ISO dot . . . . . . . . . . . . . . . . . . . .
 72
    65
 73
     2
 40
3.0
 49
0.0
 49
-3.0
  0
LTYPE
  2
ACAD_ISO08W100
 70
     0
  3
ISO long-dash short-dash ____ __ ____ __ ____ _
 72
    65
 73
     4
 40
36.0
 49
24.0
 49
-3.0
 49
6.0
 49
-3.0
  0
LTYPE
  2
ACAD_ISO09W100
 70
     0
  3
ISO long-dash double-short-dash ____ __ __ ____
 72
    65
 73
     6
 40
45.0
 49
24.0
 49
-3.0
 49
6.0
 49
-3.0
 49
6.0
 49
-3.0
  0
LTYPE
  2
ACAD_ISO10W100
 70
     0
  3
ISO dash dot __ . __ . __ . __ . __ . __ . __ .
 72
    65
 73
     4
 40
18.0
 49
12.0
 49
-3.0
 49
0.0
 49
-3.0
  0
LTYPE
  2
ACAD_ISO11W100
 70
     0
  3
ISO double-dash dot __ __ . __ __ . __ __ . __ 
 72
    65
 73
     6
 40
33.0
 49
12.0
 49
-3.0
 49
12.0
 49
-3.0
 49
0.0
 49
-3.0
  0
LTYPE
  2
ACAD_ISO12W100
 70
     0
  3
ISO dash double-dot __ . . __ . . __ . . __ . .
 72
    65
 73
     6
 40
21.0
 49
12.0
 49
-3.0
 49
0.0
 49
-3.0
 49
0.0
 49
-3.0
  0
LTYPE
  2
ACAD_ISO13W100
 70
     0
  3
ISO double-dash double-dot __ __ . . __ __ . . 
 72
    65
 73
     8
 40
36.0
 49
12.0
 49
-3.0
 49
12.0
 49
-3.0
 49
0.0
 49
-3.0
 49
0.0
 49
-3.0
  0
LTYPE
  2
ACAD_ISO14W100
 70
     0
  3
ISO dash triple-dot __ . . . __ . . . __ . . . 
 72
    65
 73
     8
 40
24.0
 49
12.0
 49
-3.0
 49
0.0
 49
-3.0
 49
0.0
 49
-3.0
 49
0.0
 49
-3.0
  0
LTYPE
  2
ACAD_ISO15W100
 70
     0
  3
ISO double-dash triple-dot __ __ . . . __ __ . 
 72
    65
 73
    10
 40
39.0
 49
12.0
 49
-3.0
 49
12.0
 49
-3.0
 49
0.0
 49
-3.0
 49
0.0
 49
-3.0
 49
0.0
 49
-3.0
  0
LTYPE
  2
BORDER
 70
    64
  3
Border __ __ . __ __ . __ __ . __ __ . __ __ .
 72
    65
 73
     6
 40
3.5
 49
1.0
 49
-0.5
 49
1.0
 49
-0.5
 49
0.0
 49
-0.5
  0
LTYPE
  2
BORDER2
 70
    64
  3
Border (.5x) __.__.__.__.__.__.__.__.__.__.__.
 72
    65
 73
     6
 40
1.75
 49
0.5
 49
-0.25
 49
0.5
 49
-0.25
 49
0.0
 49
-0.25
  0
LTYPE
  2
BORDERX2
 70
    64
  3
Border (2x) ____  ____  .  ____  ____  .  ___
 72
    65
 73
     6
 40
7.0
 49
2.0
 49
-1.0
 49
2.0
 49
-1.0
 49
0.0
 49
-1.0
  0
LTYPE
  2
CENTER
 70
    64
  3
Center ____ _ ____ _ ____ _ ____ _ ____ _ ____
 72
    65
 73
     4
 40
12.0
 49
7.5
 49
-1.5
 49
1.5
 49
-1.5
  0
LTYPE
  2
CENTER2
 70
    64
  3
Center (.5x) ___ _ ___ _ ___ _ ___ _ ___ _ ___
 72
    65
 73
     4
 40
6.0
 49
3.75
 49
-0.75
 49
0.75
 49
-0.75
  0
LTYPE
  2
CENTERX2
 70
    64
  3
Center (2x) ________  __  ________  __  _____
 72
    65
 73
     4
 40
24.0
 49
15.0
 49
-3.0
 49
3.0
 49
-3.0
  0
LTYPE
  2
DASHDOT
 70
    64
  3
Dash dot __ . __ . __ . __ . __ . __ . __ . __
 72
    65
 73
     4
 40
6.0
 49
3.0
 49
-1.5
 49
0.0
 49
-1.5
  0
LTYPE
  2
DASHDOT2
 70
    64
  3
Dash dot (.5x) _._._._._._._._._._._._._._._.
 72
    65
 73
     4
 40
3.0
 49
1.5
 49
-0.75
 49
0.0
 49
-0.75
  0
LTYPE
  2
DASHDOTX2
 70
    64
  3
Dash dot (2x) ____  .  ____  .  ____  .  ___
 72
    65
 73
     4
 40
12.0
 49
6.0
 49
-3.0
 49
0.0
 49
-3.0
  0
LTYPE
  2
DASHED
 70
    64
  3
Dashed __ __ __ __ __ __ __ __ __ __ __ __ __ _
 72
    65
 73
     2
 40
4.5
 49
3.0
 49
-1.5
  0
LTYPE
  2
DASHED2
 70
    64
  3
Dashed (.5x) _ _ _ _ _ _ _ _ _ _ _ _ _ _ _ _ _
 72
    65
 73
     2
 40
2.25
 49
1.5
 49
-0.75
  0
LTYPE
  2
DASHEDX2
 70
    64
  3
Dashed (2x) ____  ____  ____  ____  ____  ___
 72
    65
 73
     2
 40
9.0
 49
6.0
 49
-3.0
  0
LTYPE
  2
DIVIDE
 70
    64
  3
Divide ____ . . ____ . . ____ . . ____ . . ____
 72
    65
 73
     6
 40
7.5
 49
3.0
 49
-1.5
 49
0.0
 49
-1.5
 49
0.0
 49
-1.5
  0
LTYPE
  2
DIVIDE2
 70
    64
  3
Divide (.5x) __..__..__..__..__..__..__..__.._
 72
    65
 73
     6
 40
3.75
 49
1.5
 49
-0.75
 49
0.0
 49
-0.75
 49
0.0
 49
-0.75
  0
LTYPE
  2
DIVIDEX2
 70
    64
  3
Divide (2x) ________  .  .  ________  .  .  _
 72
    65
 73
     6
 40
15.0
 49
6.0
 49
-3.0
 49
0.0
 49
-3.0
 49
0.0
 49
-3.0
  0
LTYPE
  2
DOT
 70
    64
  3
Dot . . . . . . . . . . . . . . . . . . . . . .
 72
    65
 73
     2
 40
1.5
 49
0.0
 49
-1.5
  0
LTYPE
  2
DOT2
 70
    64
  3
Dot (.5x) .....................................
 72
    65
 73
     2
 40
0.75
 49
0.0
 49
-0.75
  0
LTYPE
  2
DOTX2
 70
    64
  3
Dot (2x) .  .  .  .  .  .  .  .  .  .  .  .  . 
 72
    65
 73
     2
 40
3.0
 49
0.0
 49
-3.0
  0
LTYPE
  2
HIDDEN
 70
    64
  3
Hidden __ __ __ __ __ __ __ __ __ __ __ __ __ _
 72
    65
 73
     2
 40
4.5
 49
3.0
 49
-1.5
  0
LTYPE
  2
HIDDEN2
 70
    64
  3
Hidden (.5x) _ _ _ _ _ _ _ _ _ _ _ _ _ _ _ _ _
 72
    65
 73
     2
 40
2.25
 49
1.5
 49
-0.75
  0
LTYPE
  2
HIDDENX2
 70
    64
  3
Hidden (2x) ____ ____ ____ ____ ____ ____ ____
 72
    65
 73
     2
 40
9.0
 49
6.0
 49
-3.0
  0
LTYPE
  2
PHANTOM
 70
    64
  3
Phantom ______  __  __  ______  __  __  ______
 72
    65
 73
     6
 40
15.0
 49
7.5
 49
-1.5
 49
1.5
 49
-1.5
 49
1.5
 49
-1.5
  0
LTYPE
  2
PHANTOM2
 70
    64
  3
Phantom (.5x) ___ _ _ ___ _ _ ___ _ _ ___ _ _
 72
    65
 73
     6
 40
7.5
 49
3.75
 49
-0.75
 49
0.75
 49
-0.75
 49
0.75
 49
-0.75
  0
LTYPE
  2
PHANTOMX2
 70
    64
  3
Phantom (2x) ____________    ____    ____   _
 72
    65
 73
     6
 40
30.0
 49
15.0
 49
-3.0
 49
3.0
 49
-3.0
 49
3.0
 49
-3.0
  0
ENDTAB
  0
TABLE
  2
LAYER
 70
     1
  0
LAYER
  2
0
 70
     0
 62
     7
  6
CONTINUOUS
  0
ENDTAB
  0
TABLE
  2
STYLE
 70
     1
  0
STYLE
  2
STANDARD
 70
     0
 40
0.0
 41
1.0
 50
0.0
 71
     0
 42
0.2
  3
txt
  4
BIGFONT
  0
ENDTAB
  0
TABLE
  2
DIMSTYLE
 70
     0
  0
ENDTAB
  0
ENDSEC
  0
SECTION
  2
BLOCKS
  0
ENDSEC
  0
SECTION
  2
ENTITIES
  0
LINE
  8
0
  6
CONTINUOUS
 62
     7
 10
-118.0842931405611
 20
165.6041675417775
 11
-118.0842931405611
 21
160.6041675417775
  0
LINE
  8
0
  6
CONTINUOUS
 62
     4
 10
-121.3342931405611
 20
169.1041675417775
 11
-116.3342931405611
 21
169.1041675417775
  0
LINE
  8
0
  6
CONTINUOUS
 62
     7
 10
-121.5842931405611
 20
165.6041675417775
 11
-121.5842931405611
 21
160.6041675417775
  0
LINE
  8
0
  6
CONTINUOUS
 62
     4
 10
-123.3342931405611
 20
167.1041675417775
 11
-123.3342931405611
 21
159.1041675417775
  0
LINE
  8
0
  6
CENTER
 62
     7
 10
-105.3342931405612
 20
157.8887744753712
 11
-105.3342931405612
 21
152.202190002715
  0
LINE
  8
0
  6
CONTINUOUS
 62
     7
 10
-116.3342931405611
 20
178.1041675417775
 11
-116.3342931405611
 21
155.6041675417775
  0
LINE
  8
0
  6
CONTINUOUS
 62
     7
 10
-98.08429314056117
 20
165.6041675417775
 11
-98.08429314056117
 21
160.6041675417775
  0
LINE
  8
0
  6
CONTINUOUS
 62
     4
 10
-98.33429314056117
 20
169.1041675417775
 11
-103.3342931405612
 21
169.1041675417775
  0
LINE
  8
0
  6
CONTINUOUS
 62
     4
 10
-96.33429314056117
 20
167.1041675417775
 11
-96.33429314056117
 21
159.1041675417775
  0
LINE
  8
0
  6
CONTINUOUS
 62
     7
 10
-101.5842931405612
 20
165.6041675417775
 11
-101.5842931405612
 21
160.6041675417775
  0
LINE
  8
0
  6
CONTINUOUS
 62
     7
 10
-103.3342931405612
 20
178.1041675417775
 11
-103.3342931405612
 21
155.6041675417775
  0
LINE
  8
0
  6
CONTINUOUS
 62
     4
 10
-121.3342931405611
 20
157.1041675417775
 11
-98.33429314056117
 21
157.1041675417775
  0
LINE
  8
0
  6
CONTINUOUS
 62
     7
 10
-107.3342931405612
 20
155.6041675417775
 11
-107.3342931405612
 21
150.6041675417775
  0
LINE
  8
0
  6
CENTER
 62
     7
 10
-109.8342931405612
 20
186.3207202761525
 11
-109.8342931405612
 21
140.3502002566212
  0
LINE
  8
0
  6
CONTINUOUS
 62
     7
 10
-107.3342931405612
 20
150.6041675417775
 11
-112.3342931405611
 21
150.6041675417775
  0
LINE
  8
0
  6
CENTER
 62
     7
 10
-114.3342931405611
 20
157.8887744753712
 11
-114.3342931405611
 21
152.202190002715
  0
LINE
  8
0
  6
DASHED
 62
     7
 10
-104.2342809335299
 20
157.1041675417775
 11
-104.2342809335299
 21
155.6041675417775
  0
LINE
  8
0
  6
CONTINUOUS
 62
     7
 10
-116.3342931405611
 20
155.6041675417775
 11
-103.3342931405612
 21
155.6041675417775
  0
LINE
  8
0
  6
DASHED
 62
     7
 10
-106.4343053475924
 20
157.1041675417775
 11
-106.4343053475924
 21
155.6041675417775
  0
LINE
  8
0
  6
DASHED
 62
     7
 10
-115.4343053475924
 20
157.1041675417775
 11
-115.4343053475924
 21
155.6041675417775
  0
LINE
  8
0
  6
DASHED
 62
     7
 10
-113.2342809335299
 20
157.1041675417775
 11
-113.2342809335299
 21
155.6041675417775
  0
LINE
  8
0
  6
CONTINUOUS
 62
     7
 10
-102.0842931405612
 20
178.6041675417775
 11
-117.5842931405611
 21
178.6041675417775
  0
LINE
  8
0
  6
CONTINUOUS
 62
     7
 10
-117.5842931405611
 20
178.6041675417775
 11
-117.5842931405611
 21
171.6041675417775
  0
LINE
  8
0
  6
CONTINUOUS
 62
     7
 10
-112.3342931405612
 20
155.6041675417775
 11
-112.3342931405612
 21
150.6041675417775
  0
LINE
  8
0
  6
CONTINUOUS
 62
     7
 10
-113.9115821057183
 20
158.3669132391074
 11
-105.9115821057183
 21
158.3669132391074
  0
LINE
  8
0
  6
CONTINUOUS
 62
     7
 10
-105.9115821057183
 20
158.3669132391074
 11
-105.9115821057183
 21
176.3669132391074
  0
LINE
  8
0
  6
CONTINUOUS
 62
     7
 10
-113.9115821057183
 20
158.3669132391074
 11
-113.9115821057183
 21
176.3669132391074
  0
LINE
  8
0
  6
CONTINUOUS
 62
     7
 10
-113.9115821057183
 20
176.3669132391074
 11
-105.9115821057183
 21
176.3669132391074
  0
LINE
  8
0
  6
CONTINUOUS
 62
     7
 10
-118.0842931405611
 20
177.6041675417775
 11
-118.0842931405611
 21
171.6041675417775
  0
LINE
  8
0
  6
CONTINUOUS
 62
     7
 10
-102.0842931405612
 20
177.6041675417775
 11
-101.5842931405612
 21
177.6041675417775
  0
LINE
  8
0
  6
CONTINUOUS
 62
     7
 10
-103.3342931405612
 20
171.6041675417775
 11
-101.5842931405612
 21
171.6041675417775
  0
LINE
  8
0
  6
CONTINUOUS
 62
     7
 10
-118.0842931405611
 20
171.6041675417775
 11
-116.3342931405611
 21
171.6041675417775
  0
LINE
  8
0
  6
CONTINUOUS
 62
     7
 10
-118.0842931405611
 20
177.6041675417775
 11
-117.5842931405611
 21
177.6041675417775
  0
LINE
  8
0
  6
CONTINUOUS
 62
     7
 10
-101.5842931405612
 20
177.6041675417775
 11
-101.5842931405612
 21
171.6041675417775
  0
LINE
  8
0
  6
CONTINUOUS
 62
     7
 10
-102.0842931405612
 20
178.6041675417775
 11
-102.0842931405612
 21
171.6041675417775
  0
LINE
  8
0
  6
CONTINUOUS
 62
     2
 10
-116.0842931405611
 20
155.3041675417775
 11
-116.0842931405611
 21
155.6041675417775
  0
LINE
  8
0
  6
CONTINUOUS
 62
     2
 10
-115.0842931405611
 20
154.3041675417775
 11
-113.5842931405612
 21
154.3041675417775
  0
LINE
  8
0
  6
CONTINUOUS
 62
     2
 10
-107.0842931405611
 20
155.3041675417775
 11
-107.0842931405611
 21
155.6041675417775
  0
LINE
  8
0
  6
CONTINUOUS
 62
     2
 10
-112.5842931405612
 20
155.3041675417775
 11
-112.5842931405612
 21
155.6041675417775
  0
LINE
  8
0
  6
CONTINUOUS
 62
     2
 10
-103.5842931405612
 20
155.3041675417775
 11
-103.5842931405612
 21
155.6041675417775
  0
LINE
  8
0
  6
CONTINUOUS
 62
     2
 10
-104.5842931405612
 20
154.3041675417775
 11
-106.0842931405611
 21
154.3041675417775
  0
LINE
  8
0
  6
CONTINUOUS
 62
     7
 10
-118.0842931405612
 20
115.5498456037612
 11
-118.0842931405612
 21
109.5498456037612
  0
LINE
  8
0
  6
CONTINUOUS
 62
     7
 10
-107.3342931405612
 20
113.9932212767353
 11
-107.3342931405612
 21
111.1064699307871
  0
LINE
  8
0
  6
CONTINUOUS
 62
     7
 10
-112.3342931405611
 20
113.9932212767351
 11
-109.8342931405611
 21
115.4365969497092
  0
LINE
  8
0
  6
CONTINUOUS
 62
     7
 10
-109.834293140561
 20
109.6630942578129
 11
-107.334293140561
 21
111.106469930787
  0
LINE
  8
0
  6
CONTINUOUS
 62
     7
 10
-112.3342931405612
 20
111.1064699307872
 11
-109.8342931405611
 21
109.6630942578131
  0
LINE
  8
0
  6
CONTINUOUS
 62
     7
 10
-112.3342931405612
 20
113.9932212767353
 11
-112.3342931405612
 21
111.1064699307871
  0
LINE
  8
0
  6
CONTINUOUS
 62
     7
 10
-109.8342931405612
 20
115.4365969497093
 11
-107.3342931405612
 21
113.9932212767352
  0
LINE
  8
0
  6
CENTER
 62
     7
 10
-105.3342931405612
 20
104.7498517072768
 11
-105.3342931405612
 21
111.4498395002456
  0
LINE
  8
0
  6
CONTINUOUS
 62
     7
 10
-115.3342931405612
 20
105.5498456037612
 11
-104.3342931405612
 21
105.5498456037612
  0
LINE
  8
0
  6
CENTER
 62
     7
 10
-105.3342931405612
 20
120.4498395002456
 11
-105.3342931405612
 21
113.6498517072768
  0
LINE
  8
0
  6
CONTINUOUS
 62
     7
 10
-103.3342931405612
 20
118.5498456037612
 11
-103.3342931405612
 21
106.5498456037612
  0
LINE
  8
0
  6
CENTER
 62
     7
 10
-119.8342931405612
 20
112.5498456037612
 11
-99.83429314056119
 21
112.5498456037612
  0
LINE
  8
0
  6
CONTINUOUS
 62
     7
 10
-102.0842321054049
 20
108.5498456037612
 11
-102.8342321054049
 21
108.5498456037612
  0
LINE
  8
0
  6
CONTINUOUS
 62
     7
 10
-102.0842931405612
 20
115.5498456037612
 11
-101.5842931405612
 21
115.5498456037612
  0
LINE
  8
0
  6
CONTINUOUS
 62
     7
 10
-117.5843541757174
 20
108.5498456037612
 11
-116.8343541757174
 21
108.5498456037612
  0
LINE
  8
0
  6
CENTER
 62
     7
 10
-109.8342931405612
 20
122.6498456037612
 11
-109.8342931405612
 21
102.6498456037612
  0
LINE
  8
0
  6
CONTINUOUS
 62
     7
 10
-116.3342931405612
 20
118.5498456037612
 11
-116.3342931405612
 21
106.5498452665864
  0
LINE
  8
0
  6
CENTER
 62
     7
 10
-119.8342931405612
 20
112.7121777570815
 11
-119.8342931405612
 21
104.1498456037612
  0
LINE
  8
0
  6
DASHED
 62
     7
 10
-118.0842931405612
 20
107.5498456037612
 11
-118.0842931405612
 21
105.5498456037612
  0
LINE
  8
0
  6
CONTINUOUS
 62
     7
 10
-102.0842321054049
 20
116.5498456037612
 11
-102.8342321054049
 21
116.5498456037612
  0
LINE
  8
0
  6
DASHED
 62
     7
 10
-121.5842931405612
 20
107.5498456037612
 11
-121.5842931405612
 21
105.5498456037612
  0
LINE
  8
0
  6
CONTINUOUS
 62
     7
 10
-117.5843541757174
 20
108.5498456037612
 11
-116.8343541757174
 21
108.5498456037612
  0
LINE
  8
0
  6
CONTINUOUS
 62
     7
 10
-117.5843541757174
 20
116.5498456037612
 11
-116.8343541757174
 21
116.5498456037612
  0
LINE
  8
0
  6
CONTINUOUS
 62
     7
 10
-96.33429314056119
 20
107.5498456037612
 11
-96.33429314056119
 21
105.5498456037612
  0
LINE
  8
0
  6
CONTINUOUS
 62
     7
 10
-116.3342931405612
 20
107.5498456037612
 11
-123.3342931405612
 21
107.5498456037612
  0
LINE
  8
0
  6
CONTINUOUS
 62
     7
 10
-104.3342931405612
 20
105.5498456037612
 11
-96.33429314056119
 21
105.5498456037612
  0
LINE
  8
0
  6
CONTINUOUS
 62
     7
 10
-103.3342931405612
 20
107.5498456037612
 11
-96.33429314056119
 21
107.5498456037612
  0
LINE
  8
0
  6
CONTINUOUS
 62
     7
 10
-123.3342931405612
 20
107.5498456037612
 11
-123.3342931405612
 21
105.5498456037612
  0
LINE
  8
0
  6
CENTER
 62
     7
 10
-99.83429314056119
 20
112.7121777570815
 11
-99.83429314056119
 21
104.1498456037612
  0
LINE
  8
0
  6
CONTINUOUS
 62
     7
 10
-115.3342931405612
 20
105.5498456037612
 11
-123.3342931405612
 21
105.5498456037612
  0
LINE
  8
0
  6
DASHED
 62
     7
 10
-101.5842931405612
 20
107.5498456037612
 11
-101.5842931405612
 21
105.5498456037612
  0
LINE
  8
0
  6
DASHED
 62
     7
 10
-98.08429314056119
 20
107.5498456037612
 11
-98.08429314056119
 21
105.5498456037612
  0
LINE
  8
0
  6
CONTINUOUS
 62
     7
 10
-115.3342931405612
 20
119.5498456037612
 11
-104.3342931405612
 21
119.5498456037612
  0
LINE
  8
0
  6
CENTER
 62
     7
 10
-108.7342870370456
 20
108.0498456037612
 11
-101.9342992440768
 21
108.0498456037612
  0
LINE
  8
0
  6
CENTER
 62
     7
 10
-105.3342931405612
 20
104.7498517072768
 11
-105.3342931405612
 21
111.4498395002456
  0
LINE
  8
0
  6
CONTINUOUS
 62
     7
 10
-117.5842931405612
 20
116.5498456037612
 11
-117.5842931405612
 21
108.5498456037612
  0
LINE
  8
0
  6
CONTINUOUS
 62
     7
 10
-102.0842931405612
 20
116.5498456037612
 11
-102.0842931405612
 21
108.5498456037612
  0
LINE
  8
0
  6
CONTINUOUS
 62
     7
 10
-101.5842931405612
 20
115.5498456037612
 11
-101.5842931405612
 21
109.5498456037612
  0
LINE
  8
0
  6
CONTINUOUS
 62
     7
 10
-118.0842931405612
 20
115.5498456037612
 11
-117.5842931405612
 21
115.5498456037612
  0
LINE
  8
0
  6
CONTINUOUS
 62
     7
 10
-118.0842931405612
 20
109.5498456037612
 11
-117.5842931405612
 21
109.5498456037612
  0
LINE
  8
0
  6
CONTINUOUS
 62
     7
 10
-102.0842931405612
 20
109.5498456037612
 11
-101.5842931405612
 21
109.5498456037612
  0
LINE
  8
0
  6
CENTER
 62
     7
 10
-114.3342931405612
 20
104.7498517072768
 11
-114.3342931405612
 21
111.4498395002456
  0
LINE
  8
0
  6
CENTER
 62
     7
 10
-114.3342931405612
 20
120.4498395002456
 11
-114.3342931405612
 21
113.6498517072768
  0
LINE
  8
0
  6
CENTER
 62
     7
 10
-110.9342992440768
 20
108.0498456037612
 11
-117.7342870370456
 21
108.0498456037612
  0
LINE
  8
0
  6
CENTER
 62
     7
 10
-114.3342931405612
 20
104.7498517072768
 11
-114.3342931405612
 21
111.4498395002456
  0
LINE
  8
0
  6
DASHED
 62
     6
 10
-118.0842931405611
 20
175.0041675417775
 11
-125.5842931405611
 21
175.0041675417775
  0
LINE
  8
0
  6
DASHED
 62
     6
 10
-118.0842931405611
 20
174.2041675417775
 11
-125.5842931405611
 21
174.2041675417775
  0
LINE
  8
0
  6
CONTINUOUS
 62
     6
 10
-125.384293140561
 20
175.7291675417775
 11
-125.584293140561
 21
175.5291675271364
  0
LINE
  8
0
  6
CONTINUOUS
 62
     6
 10
-125.3842931405611
 20
173.4791675417775
 11
-125.5842931405612
 21
173.6791675564185
  0
LINE
  8
0
  6
CONTINUOUS
 62
     6
 10
-125.5842931405611
 20
173.6791675564185
 11
-125.5842931405611
 21
175.5291675271365
  0
LINE
  8
0
  6
CONTINUOUS
 62
     6
 10
-122.4842931405611
 20
176.3341675417775
 11
-123.5842931405612
 21
175.7291675417775
  0
LINE
  8
0
  6
CONTINUOUS
 62
     6
 10
-122.4842931405612
 20
172.8741675417775
 11
-123.5842931405612
 21
173.4791675417774
  0
LINE
  8
0
  6
CONTINUOUS
 62
     6
 10
-123.9842931405612
 20
172.8741675417776
 11
-125.0842931405612
 21
173.4791675417775
  0
LINE
  8
0
  6
CONTINUOUS
 62
     6
 10
-122.4842931405612
 20
176.3341675417775
 11
-122.0842931405611
 21
176.3341675417775
  0
LINE
  8
0
  6
CONTINUOUS
 62
     6
 10
-122.4842931405612
 20
172.8741675417775
 11
-122.0842931405611
 21
172.8741675417775
  0
LINE
  8
0
  6
CONTINUOUS
 62
     6
 10
-125.3842931405612
 20
173.4791675417775
 11
-125.0842931405611
 21
173.4791675417775
  0
LINE
  8
0
  6
CONTINUOUS
 62
     6
 10
-125.3842931405612
 20
175.7291675417775
 11
-125.0842931405611
 21
175.7291675417775
  0
LINE
  8
0
  6
CONTINUOUS
 62
     6
 10
-125.0842931405611
 20
175.7291675417775
 11
-123.9842931405611
 21
176.3341675417775
  0
LINE
  8
0
  6
CONTINUOUS
 62
     6
 10
-122.0842931405611
 20
172.8741675417775
 11
-122.0842931405611
 21
176.3341675417775
  0
LINE
  8
0
  6
CONTINUOUS
 62
     6
 10
-122.4842931405612
 20
172.8741675417775
 11
-122.4842931405612
 21
176.3341675417775
  0
LINE
  8
0
  6
CONTINUOUS
 62
     6
 10
-125.0842931405611
 20
173.4791675417775
 11
-125.0842931405611
 21
175.7291675417775
  0
LINE
  8
0
  6
CONTINUOUS
 62
     6
 10
-122.0842931405611
 20
173.3541675417775
 11
-120.4842931405612
 21
173.3541675417775
  0
LINE
  8
0
  6
CONTINUOUS
 62
     6
 10
-123.9842931405612
 20
172.8741675417775
 11
-123.9842931405612
 21
176.3341675417775
  0
LINE
  8
0
  6
CONTINUOUS
 62
     6
 10
-122.0842931405611
 20
175.8541675417775
 11
-120.4842931405612
 21
175.8541675417775
  0
LINE
  8
0
  6
CONTINUOUS
 62
     6
 10
-123.5842931405611
 20
172.8741675417775
 11
-123.5842931405611
 21
176.3341675417775
  0
LINE
  8
0
  6
CONTINUOUS
 62
     6
 10
-120.0842931405611
 20
176.7259297810494
 11
-119.9648243658938
 21
177.0541675417775
  0
LINE
  8
0
  6
CONTINUOUS
 62
     6
 10
-119.9648243658939
 20
172.1541675417775
 11
-118.0842931405611
 21
172.1541675417775
  0
LINE
  8
0
  6
CONTINUOUS
 62
     6
 10
-118.0842931405611
 20
172.1541675417775
 11
-118.0842931405611
 21
177.0541675417775
  0
LINE
  8
0
  6
CENTER
 62
     6
 10
-126.1842782189065
 20
174.6041675417775
 11
-117.4135937391695
 21
174.6041675417775
  0
LINE
  8
0
  6
CONTINUOUS
 62
     6
 10
-123.9842931405612
 20
176.3341675417775
 11
-123.5842931405611
 21
176.3341675417775
  0
LINE
  8
0
  6
CONTINUOUS
 62
     6
 10
-119.9648243658939
 20
173.4532056474541
 11
-118.0842931405611
 21
173.4532056474541
  0
LINE
  8
0
  6
CONTINUOUS
 62
     6
 10
-120.0842931405612
 20
172.4824053025056
 11
-119.964824365894
 21
172.1541675417774
  0
LINE
  8
0
  6
CONTINUOUS
 62
     6
 10
-123.9842931405612
 20
172.8741675417775
 11
-123.5842931405611
 21
172.8741675417775
  0
LINE
  8
0
  6
CONTINUOUS
 62
     6
 10
-119.9648243658939
 20
177.0541675417775
 11
-118.0842931405611
 21
177.0541675417775
  0
LINE
  8
0
  6
CONTINUOUS
 62
     6
 10
-119.9648243658939
 20
175.7551294361008
 11
-118.0842931405611
 21
175.7551294361008
  0
LINE
  8
0
  6
CONTINUOUS
 62
     6
 10
-120.0842931405611
 20
172.4824053025056
 11
-120.0842931405611
 21
176.7259297810494
  0
LINE
  8
0
  6
CONTINUOUS
 62
     6
 10
-99.58429314056117
 20
172.4824053025056
 11
-99.58429314056117
 21
174.2041675417775
  0
LINE
  8
0
  6
CONTINUOUS
 62
     6
 10
-99.70376191522838
 20
175.7551294361008
 11
-101.5842931405612
 21
175.7551294361008
  0
LINE
  8
0
  6
CONTINUOUS
 62
     6
 10
-101.5842931405612
 20
172.1541675417775
 11
-101.5842931405612
 21
177.0541675417775
  0
LINE
  8
0
  6
CONTINUOUS
 62
     6
 10
-99.70376191522838
 20
172.1541675417775
 11
-101.5842931405612
 21
172.1541675417775
  0
LINE
  8
0
  6
CONTINUOUS
 62
     6
 10
-99.70376191522838
 20
177.0541675417775
 11
-101.5842931405612
 21
177.0541675417775
  0
LINE
  8
0
  6
CONTINUOUS
 62
     6
 10
-99.58429314056117
 20
175.0041675417775
 11
-99.58429314056117
 21
176.7259297810494
  0
LINE
  8
0
  6
CONTINUOUS
 62
     6
 10
-99.58429314056117
 20
175.0041675417775
 11
-100.3842931405612
 21
175.0041675417775
  0
LINE
  8
0
  6
CONTINUOUS
 62
     6
 10
-100.3842931405612
 20
174.2041675417775
 11
-100.3842931405612
 21
175.0041675417775
  0
LINE
  8
0
  6
CONTINUOUS
 62
     6
 10
-99.58429314056117
 20
174.2041675417775
 11
-100.3842931405612
 21
174.2041675417775
  0
LINE
  8
0
  6
CONTINUOUS
 62
     6
 10
-99.58429314056116
 20
176.7259297810493
 11
-99.7037619152284
 21
177.0541675417775
  0
LINE
  8
0
  6
CONTINUOUS
 62
     6
 10
-99.5842931405612
 20
172.4824053025056
 11
-99.70376191522843
 21
172.1541675417775
  0
LINE
  8
0
  6
CONTINUOUS
 62
     6
 10
-99.70376191522838
 20
173.4532056474541
 11
-101.5842931405612
 21
173.4532056474541
  0
LINE
  8
0
  6
DASHED
 62
     6
 10
-118.0842931405612
 20
112.9498456037612
 11
-125.5842931405612
 21
112.9498456037612
  0
LINE
  8
0
  6
DASHED
 62
     6
 10
-118.0842931405612
 20
112.1498456037612
 11
-125.5842931405612
 21
112.1498456037612
  0
LINE
  8
0
  6
CONTINUOUS
 62
     6
 10
-125.384293140561
 20
113.6748456037611
 11
-125.584293140561
 21
113.4748455891201
  0
LINE
  8
0
  6
CONTINUOUS
 62
     6
 10
-125.3842931405612
 20
111.4248456037611
 11
-125.5842931405612
 21
111.6248456184022
  0
LINE
  8
0
  6
CONTINUOUS
 62
     6
 10
-125.5842931405612
 20
111.6248456184022
 11
-125.5842931405612
 21
113.4748455891202
  0
LINE
  8
0
  6
CONTINUOUS
 62
     6
 10
-122.4842931405612
 20
114.2798456037613
 11
-123.5842931405612
 21
113.6748456037612
  0
LINE
  8
0
  6
CONTINUOUS
 62
     6
 10
-122.4842931405612
 20
110.8198456037612
 11
-123.5842931405612
 21
111.4248456037612
  0
LINE
  8
0
  6
CONTINUOUS
 62
     6
 10
-123.9842931405612
 20
110.8198456037612
 11
-125.0842931405612
 21
111.4248456037612
  0
LINE
  8
0
  6
CONTINUOUS
 62
     6
 10
-122.4842931405612
 20
114.2798456037612
 11
-122.0842931405612
 21
114.2798456037612
  0
LINE
  8
0
  6
CONTINUOUS
 62
     6
 10
-122.4842931405612
 20
110.8198456037612
 11
-122.0842931405612
 21
110.8198456037612
  0
LINE
  8
0
  6
CONTINUOUS
 62
     6
 10
-125.3842931405612
 20
111.4248456037612
 11
-125.0842931405612
 21
111.4248456037612
  0
LINE
  8
0
  6
CONTINUOUS
 62
     6
 10
-125.3842931405612
 20
113.6748456037612
 11
-125.0842931405612
 21
113.6748456037612
  0
LINE
  8
0
  6
CONTINUOUS
 62
     6
 10
-125.0842931405612
 20
113.6748456037614
 11
-123.9842931405613
 21
114.2798456037614
  0
LINE
  8
0
  6
CONTINUOUS
 62
     6
 10
-122.0842931405612
 20
110.8198456037612
 11
-122.0842931405612
 21
114.2798456037612
  0
LINE
  8
0
  6
CONTINUOUS
 62
     6
 10
-122.4842931405612
 20
110.8198456037612
 11
-122.4842931405612
 21
114.2798456037612
  0
LINE
  8
0
  6
CONTINUOUS
 62
     6
 10
-125.0842931405612
 20
111.4248456037612
 11
-125.0842931405612
 21
113.6748456037612
  0
LINE
  8
0
  6
CONTINUOUS
 62
     6
 10
-122.0842931405612
 20
111.2998456037612
 11
-120.4842931405612
 21
111.2998456037612
  0
LINE
  8
0
  6
CONTINUOUS
 62
     6
 10
-123.9842931405612
 20
110.8198456037612
 11
-123.9842931405612
 21
114.2798456037612
  0
LINE
  8
0
  6
CONTINUOUS
 62
     6
 10
-122.0842931405612
 20
113.7998456037612
 11
-120.4842931405612
 21
113.7998456037612
  0
LINE
  8
0
  6
CONTINUOUS
 62
     6
 10
-123.5842931405612
 20
110.8198456037612
 11
-123.5842931405612
 21
114.2798456037612
  0
LINE
  8
0
  6
CONTINUOUS
 62
     6
 10
-120.0842931405612
 20
114.6716078430331
 11
-119.964824365894
 21
114.9998456037612
  0
LINE
  8
0
  6
CONTINUOUS
 62
     6
 10
-119.964824365894
 20
110.0998456037611
 11
-118.0842931405612
 21
110.0998456037611
  0
LINE
  8
0
  6
CONTINUOUS
 62
     6
 10
-118.0842931405612
 20
110.0998456037611
 11
-118.0842931405612
 21
114.9998456037612
  0
LINE
  8
0
  6
CENTER
 62
     6
 10
-126.1842782189065
 20
112.5498456037612
 11
-117.4135937391695
 21
112.5498456037612
  0
LINE
  8
0
  6
CONTINUOUS
 62
     6
 10
-123.9842931405612
 20
114.2798456037612
 11
-123.5842931405612
 21
114.2798456037612
  0
LINE
  8
0
  6
CONTINUOUS
 62
     6
 10
-119.964824365894
 20
111.3988837094378
 11
-118.0842931405612
 21
111.3988837094378
  0
LINE
  8
0
  6
CONTINUOUS
 62
     6
 10
-120.0842931405612
 20
110.4280833644893
 11
-119.964824365894
 21
110.0998456037611
  0
LINE
  8
0
  6
CONTINUOUS
 62
     6
 10
-123.9842931405612
 20
110.8198456037612
 11
-123.5842931405612
 21
110.8198456037612
  0
LINE
  8
0
  6
CONTINUOUS
 62
     6
 10
-119.964824365894
 20
114.9998456037612
 11
-118.0842931405612
 21
114.9998456037612
  0
LINE
  8
0
  6
CONTINUOUS
 62
     6
 10
-119.964824365894
 20
113.7008074980845
 11
-118.0842931405612
 21
113.7008074980845
  0
LINE
  8
0
  6
CONTINUOUS
 62
     6
 10
-120.0842931405612
 20
110.4280833644893
 11
-120.0842931405612
 21
114.671607843033
  0
LINE
  8
0
  6
CONTINUOUS
 62
     6
 10
-99.58429314056119
 20
110.4280833644893
 11
-99.58429314056119
 21
112.1498456037612
  0
LINE
  8
0
  6
CONTINUOUS
 62
     6
 10
-99.7037619152284
 20
113.7008074980845
 11
-101.5842931405612
 21
113.7008074980845
  0
LINE
  8
0
  6
CONTINUOUS
 62
     6
 10
-101.5842931405612
 20
110.0998456037612
 11
-101.5842931405612
 21
114.9998456037612
  0
LINE
  8
0
  6
CONTINUOUS
 62
     6
 10
-99.7037619152284
 20
110.0998456037612
 11
-101.5842931405612
 21
110.0998456037612
  0
LINE
  8
0
  6
CONTINUOUS
 62
     6
 10
-99.7037619152284
 20
114.9998456037612
 11
-101.5842931405612
 21
114.9998456037612
  0
LINE
  8
0
  6
CONTINUOUS
 62
     6
 10
-99.58429314056119
 20
112.9498456037612
 11
-99.58429314056119
 21
114.6716078430331
  0
LINE
  8
0
  6
CONTINUOUS
 62
     6
 10
-99.58429314056119
 20
112.9498456037612
 11
-100.3842931405612
 21
112.9498456037612
  0
LINE
  8
0
  6
CONTINUOUS
 62
     6
 10
-100.3842931405612
 20
112.1498456037612
 11
-100.3842931405612
 21
112.9498456037612
  0
LINE
  8
0
  6
CONTINUOUS
 62
     6
 10
-99.58429314056119
 20
112.1498456037612
 11
-100.3842931405612
 21
112.1498456037612
  0
LINE
  8
0
  6
CONTINUOUS
 62
     6
 10
-99.58429314056122
 20
114.671607843033
 11
-99.70376191522844
 21
114.9998456037611
  0
LINE
  8
0
  6
CONTINUOUS
 62
     6
 10
-99.58429314056119
 20
110.4280833644893
 11
-99.70376191522841
 21
110.0998456037612
  0
LINE
  8
0
  6
CONTINUOUS
 62
     6
 10
-99.7037619152284
 20
111.3988837094378
 11
-101.5842931405612
 21
111.3988837094378
  0
LINE
  8
0
  6
CONTINUOUS
 62
     7
 10
-105.5342931405612
 20
116.8498456037612
 11
-105.5342931405612
 21
115.8107993420706
  0
LINE
  8
0
  6
CONTINUOUS
 62
     7
 10
-105.1342931405612
 20
116.8498456037612
 11
-105.1342931405612
 21
115.8107993420706
  0
LINE
  8
0
  6
CONTINUOUS
 62
     7
 10
-104.2303611170059
 20
117.2498456037612
 11
-104.2303611170059
 21
116.8498456037612
  0
LINE
  8
0
  6
CONTINUOUS
 62
     7
 10
-106.5227660854481
 20
117.2498456037612
 11
-105.5342931405612
 21
117.2498456037612
  0
LINE
  8
0
  6
CONTINUOUS
 62
     7
 10
-105.1342931405612
 20
117.2498456037612
 11
-104.2216801708799
 21
117.2498456037612
  0
LINE
  8
0
  6
CONTINUOUS
 62
     7
 10
-105.5342931405612
 20
118.1624585734425
 11
-105.5342931405612
 21
117.2498456037612
  0
LINE
  8
0
  6
CONTINUOUS
 62
     7
 10
-105.5342931405612
 20
115.8305810102462
 11
-105.1342931405612
 21
115.8305810102462
  0
LINE
  8
0
  6
CONTINUOUS
 62
     7
 10
-106.5227660854481
 20
116.8498456037612
 11
-105.5342931405612
 21
116.8498456037612
  0
LINE
  8
0
  6
CONTINUOUS
 62
     7
 10
-105.1342931405612
 20
118.1624585734425
 11
-105.1342931405612
 21
117.2498456037612
  0
LINE
  8
0
  6
CONTINUOUS
 62
     7
 10
-105.5342931405612
 20
118.1732870707007
 11
-105.1342931405612
 21
118.1732870707007
  0
LINE
  8
0
  6
CONTINUOUS
 62
     7
 10
-105.1342931405612
 20
116.8498456037612
 11
-104.2216801708799
 21
116.8498456037612
  0
LINE
  8
0
  6
CONTINUOUS
 62
     7
 10
-106.5381014153641
 20
117.2498456037612
 11
-106.5381014153641
 21
116.8498456037612
  0
LINE
  8
0
  6
CONTINUOUS
 62
     7
 10
-105.5342931405612
 20
107.8498456037612
 11
-105.5342931405612
 21
106.8107993420706
  0
LINE
  8
0
  6
CONTINUOUS
 62
     7
 10
-105.1342931405612
 20
107.8498456037612
 11
-105.1342931405612
 21
106.8107993420706
  0
LINE
  8
0
  6
CONTINUOUS
 62
     7
 10
-104.2303611170059
 20
108.2498456037612
 11
-104.2303611170059
 21
107.8498456037612
  0
LINE
  8
0
  6
CONTINUOUS
 62
     7
 10
-106.5227660854481
 20
108.2498456037612
 11
-105.5342931405612
 21
108.2498456037612
  0
LINE
  8
0
  6
CONTINUOUS
 62
     7
 10
-105.1342931405612
 20
108.2498456037612
 11
-104.2216801708799
 21
108.2498456037612
  0
LINE
  8
0
  6
CONTINUOUS
 62
     7
 10
-105.5342931405612
 20
109.1624585734425
 11
-105.5342931405612
 21
108.2498456037612
  0
LINE
  8
0
  6
CONTINUOUS
 62
     7
 10
-105.5342931405612
 20
106.8305810102462
 11
-105.1342931405612
 21
106.8305810102462
  0
LINE
  8
0
  6
CONTINUOUS
 62
     7
 10
-106.5227660854481
 20
107.8498456037612
 11
-105.5342931405612
 21
107.8498456037612
  0
LINE
  8
0
  6
CONTINUOUS
 62
     7
 10
-105.1342931405612
 20
109.1624585734425
 11
-105.1342931405612
 21
108.2498456037612
  0
LINE
  8
0
  6
CONTINUOUS
 62
     7
 10
-105.5342931405612
 20
109.1732870707007
 11
-105.1342931405612
 21
109.1732870707007
  0
LINE
  8
0
  6
CONTINUOUS
 62
     7
 10
-105.1342931405612
 20
107.8498456037612
 11
-104.2216801708799
 21
107.8498456037612
  0
LINE
  8
0
  6
CONTINUOUS
 62
     7
 10
-106.5381014153641
 20
108.2498456037612
 11
-106.5381014153641
 21
107.8498456037612
  0
LINE
  8
0
  6
CONTINUOUS
 62
     7
 10
-114.1342931405612
 20
116.8498456037612
 11
-114.1342931405612
 21
115.8107993420706
  0
LINE
  8
0
  6
CONTINUOUS
 62
     7
 10
-114.5342931405612
 20
116.8498456037612
 11
-114.5342931405612
 21
115.8107993420706
  0
LINE
  8
0
  6
CONTINUOUS
 62
     7
 10
-115.4382251641165
 20
117.2498456037612
 11
-115.4382251641165
 21
116.8498456037612
  0
LINE
  8
0
  6
CONTINUOUS
 62
     7
 10
-113.1458201956743
 20
117.2498456037612
 11
-114.1342931405612
 21
117.2498456037612
  0
LINE
  8
0
  6
CONTINUOUS
 62
     7
 10
-114.5342931405612
 20
117.2498456037612
 11
-115.4469061102425
 21
117.2498456037612
  0
LINE
  8
0
  6
CONTINUOUS
 62
     7
 10
-114.1342931405612
 20
118.1624585734425
 11
-114.1342931405612
 21
117.2498456037612
  0
LINE
  8
0
  6
CONTINUOUS
 62
     7
 10
-114.1342931405612
 20
115.8305810102462
 11
-114.5342931405612
 21
115.8305810102462
  0
LINE
  8
0
  6
CONTINUOUS
 62
     7
 10
-113.1458201956743
 20
116.8498456037612
 11
-114.1342931405612
 21
116.8498456037612
  0
LINE
  8
0
  6
CONTINUOUS
 62
     7
 10
-114.5342931405612
 20
118.1624585734425
 11
-114.5342931405612
 21
117.2498456037612
  0
LINE
  8
0
  6
CONTINUOUS
 62
     7
 10
-114.1342931405612
 20
118.1732870707007
 11
-114.5342931405612
 21
118.1732870707007
  0
LINE
  8
0
  6
CONTINUOUS
 62
     7
 10
-114.5342931405612
 20
116.8498456037612
 11
-115.4469061102425
 21
116.8498456037612
  0
LINE
  8
0
  6
CONTINUOUS
 62
     7
 10
-113.1304848657583
 20
117.2498456037612
 11
-113.1304848657583
 21
116.8498456037612
  0
LINE
  8
0
  6
CONTINUOUS
 62
     7
 10
-114.1342931405612
 20
107.8498456037612
 11
-114.1342931405612
 21
106.8107993420706
  0
LINE
  8
0
  6
CONTINUOUS
 62
     7
 10
-114.5342931405612
 20
107.8498456037612
 11
-114.5342931405612
 21
106.8107993420706
  0
LINE
  8
0
  6
CONTINUOUS
 62
     7
 10
-115.4382251641165
 20
108.2498456037612
 11
-115.4382251641165
 21
107.8498456037612
  0
LINE
  8
0
  6
CONTINUOUS
 62
     7
 10
-113.1458201956743
 20
108.2498456037612
 11
-114.1342931405612
 21
108.2498456037612
  0
LINE
  8
0
  6
CONTINUOUS
 62
     7
 10
-114.5342931405612
 20
108.2498456037612
 11
-115.4469061102425
 21
108.2498456037612
  0
LINE
  8
0
  6
CONTINUOUS
 62
     7
 10
-114.1342931405612
 20
109.1624585734425
 11
-114.1342931405612
 21
108.2498456037612
  0
LINE
  8
0
  6
CONTINUOUS
 62
     7
 10
-114.1342931405612
 20
106.8305810102462
 11
-114.5342931405612
 21
106.8305810102462
  0
LINE
  8
0
  6
CONTINUOUS
 62
     7
 10
-113.1458201956743
 20
107.8498456037612
 11
-114.1342931405612
 21
107.8498456037612
  0
LINE
  8
0
  6
CONTINUOUS
 62
     7
 10
-114.5342931405612
 20
109.1624585734425
 11
-114.5342931405612
 21
108.2498456037612
  0
LINE
  8
0
  6
CONTINUOUS
 62
     7
 10
-114.1342931405612
 20
109.1732870707007
 11
-114.5342931405612
 21
109.1732870707007
  0
LINE
  8
0
  6
CONTINUOUS
 62
     7
 10
-114.5342931405612
 20
107.8498456037612
 11
-115.4469061102425
 21
107.8498456037612
  0
LINE
  8
0
  6
CONTINUOUS
 62
     7
 10
-113.1304848657583
 20
108.2498456037612
 11
-113.1304848657583
 21
107.8498456037612
  0
LINE
  8
0
  6
CENTER
 62
     7
 10
-115.5442931405611
 20
165.6041675417775
 11
-124.1242931405612
 21
165.6041675417775
  0
LINE
  8
0
  6
CENTER
 62
     7
 10
-119.8342931405611
 20
169.8941675417775
 11
-119.8342931405611
 21
161.3141675417775
  0
LINE
  8
0
  6
CENTER
 62
     7
 10
-115.5442931405611
 20
160.6041675417775
 11
-124.1242931405612
 21
160.6041675417775
  0
LINE
  8
0
  6
CENTER
 62
     7
 10
-119.8342931405611
 20
164.8941675417775
 11
-119.8342931405611
 21
156.3141675417775
  0
LINE
  8
0
  6
CENTER
 62
     7
 10
-95.54429314056117
 20
165.6041675417775
 11
-104.1242931405612
 21
165.6041675417775
  0
LINE
  8
0
  6
CENTER
 62
     7
 10
-99.83429314056117
 20
169.8941675417775
 11
-99.83429314056117
 21
161.3141675417775
  0
LINE
  8
0
  6
CENTER
 62
     7
 10
-95.54429314056117
 20
160.6041675417775
 11
-104.1242931405612
 21
160.6041675417775
  0
LINE
  8
0
  6
CENTER
 62
     7
 10
-99.83429314056117
 20
164.8941675417775
 11
-99.83429314056117
 21
156.3141675417775
  0
LINE
  8
0
  6
CONTINUOUS
 62
     7
 10
-49.95091746758716
 20
169.1041656344289
 11
-49.95091746758716
 21
178.3041778414601
  0
LINE
  8
0
  6
CONTINUOUS
 62
     7
 10
-59.83429314056116
 20
150.6041675417775
 11
-54.06754179461306
 21
150.6041675417775
  0
LINE
  8
0
  6
CONTINUOUS
 62
     7
 10
-63.65089915704027
 20
178.6041656344289
 11
-50.24821971368087
 21
178.6041656344289
  0
LINE
  8
0
  6
CONTINUOUS
 62
     7
 10
-63.95091746758716
 20
155.6041675417775
 11
-63.95091746758716
 21
157.1041675417775
  0
LINE
  8
0
  6
CENTER
 62
     7
 10
-61.45091746758716
 20
151.6041675417775
 11
-61.45091746758716
 21
159.9939914553517
  0
LINE
  8
0
  6
CENTER
 62
     7
 10
-52.45091746758716
 20
151.6041675417775
 11
-52.45091746758716
 21
159.9939914553517
  0
LINE
  8
0
  6
CONTINUOUS
 62
     7
 10
-58.39429314056116
 20
150.6041675417775
 11
-58.39429314056116
 21
155.6041675417775
  0
LINE
  8
0
  6
CONTINUOUS
 62
     7
 10
-55.50754179461306
 20
150.6041675417775
 11
-55.50754179461306
 21
155.6041675417775
  0
LINE
  8
0
  6
CONTINUOUS
 62
     2
 10
-50.05091746758717
 20
155.6041675417775
 11
-54.35091746758717
 21
155.6041675417775
  0
LINE
  8
0
  6
CENTER
 62
     7
 10
-56.95091746758716
 20
147.8458032798807
 11
-56.95091746758716
 21
173.60755490105
  0
LINE
  8
0
  6
CONTINUOUS
 62
     7
 10
-49.95091746758716
 20
155.6041675417775
 11
-49.95091746758716
 21
157.1041675417775
  0
LINE
  8
0
  6
CONTINUOUS
 62
     7
 10
-63.95091746758716
 20
157.1041675417775
 11
-63.95091746758716
 21
178.3041778414601
  0
LINE
  8
0
  6
CONTINUOUS
 62
     7
 10
-49.95091746758716
 20
155.6041675417775
 11
-63.95091746758716
 21
155.6041675417775
  0
LINE
  8
0
  6
CONTINUOUS
 62
     4
 10
-51.95091746758716
 20
169.1041656344289
 11
-49.95091746758716
 21
169.1041656344289
  0
LINE
  8
0
  6
CONTINUOUS
 62
     4
 10
-51.95091746758716
 20
157.1041656344289
 11
-49.95091746758716
 21
157.1041656344289
  0
LINE
  8
0
  6
CONTINUOUS
 62
     4
 10
-51.95091746758716
 20
169.1041656344289
 11
-51.95091746758716
 21
157.1041656344289
  0
LINE
  8
0
  6
CONTINUOUS
 62
     2
 10
-63.20091746758706
 20
155.3041675417775
 11
-63.20091746758706
 21
155.6041675417775
  0
LINE
  8
0
  6
CONTINUOUS
 62
     2
 10
-62.20091746758706
 20
154.3041675417775
 11
-60.70091746758716
 21
154.3041675417775
  0
LINE
  8
0
  6
CONTINUOUS
 62
     2
 10
-54.20091746758706
 20
155.3041675417775
 11
-54.20091746758706
 21
155.6041675417775
  0
LINE
  8
0
  6
CONTINUOUS
 62
     2
 10
-59.70091746758716
 20
155.3041675417775
 11
-59.70091746758716
 21
155.6041675417775
  0
LINE
  8
0
  6
CONTINUOUS
 62
     2
 10
-50.70091746758716
 20
155.3041675417775
 11
-50.70091746758716
 21
155.6041675417775
  0
LINE
  8
0
  6
CONTINUOUS
 62
     2
 10
-51.70091746758716
 20
154.3041675417775
 11
-53.20091746758706
 21
154.3041675417775
  0
LINE
  8
0
  6
CONTINUOUS
 62
     4
 10
-49.95091746758716
 20
169.1041656344289
 11
-49.95091746758716
 21
157.1041656344289
  0
LINE
  8
0
  6
CONTINUOUS
 62
     7
 10
-63.95091746758716
 20
157.1041675417775
 11
-49.95091746758716
 21
157.1041675417775
  0
LINE
  8
0
  6
CONTINUOUS
 62
     7
 10
-59.83429314056116
 20
150.6041675417775
 11
-59.83429314056116
 21
155.6041675417775
  0
LINE
  8
0
  6
CONTINUOUS
 62
     7
 10
-54.06754179461306
 20
150.6041675417775
 11
-54.06754179461306
 21
155.6041675417775
  0
LINE
  8
0
  6
PHANTOM
 62
     7
 10
-59.83429314056116
 20
145.6041675417775
 11
-54.06754179461306
 21
145.6041675417775
  0
LINE
  8
0
  6
PHANTOM
 62
     7
 10
-59.83429314056116
 20
150.6041675417775
 11
-59.83429314056116
 21
145.6041675417775
  0
LINE
  8
0
  6
PHANTOM
 62
     7
 10
-58.39429314056116
 20
150.6041675417775
 11
-58.39429314056116
 21
145.6041675417775
  0
LINE
  8
0
  6
PHANTOM
 62
     7
 10
-55.50754179461306
 20
150.6041675417775
 11
-55.50754179461306
 21
145.6041675417775
  0
LINE
  8
0
  6
PHANTOM
 62
     7
 10
-54.06754179461306
 20
150.6041675417775
 11
-54.06754179461306
 21
145.6041675417775
  0
LINE
  8
0
  6
CENTER
 62
     6
 10
-56.95091746758716
 20
179.2659278737008
 11
-56.95091746758716
 21
169.942403395157
  0
LINE
  8
0
  6
CENTER
 62
     6
 10
-52.28915522831527
 20
174.6041656344289
 11
-61.61267970685907
 21
174.6041656344289
  0
LINE
  8
0
  6
CONTINUOUS
 62
     6
 10
-59.20091746758716
 20
175.7551275287522
 11
-59.20091746758716
 21
173.4532037401055
  0
LINE
  8
0
  6
CONTINUOUS
 62
     6
 10
-54.70091746758716
 20
175.7551275287522
 11
-54.70091746758716
 21
173.4532037401055
  0
LINE
  8
0
  6
CONTINUOUS
 62
     6
 10
-59.20091746758706
 20
175.7551275287522
 11
-56.95091746758715
 21
177.0541656344288
  0
LINE
  8
0
  6
CONTINUOUS
 62
     6
 10
-56.95091746758715
 20
172.1541656344287
 11
-54.70091746758704
 21
173.4532037401054
  0
LINE
  8
0
  6
CONTINUOUS
 62
     6
 10
-59.20091746758715
 20
173.4532037401055
 11
-56.95091746758718
 21
172.1541656344289
  0
LINE
  8
0
  6
CONTINUOUS
 62
     6
 10
-59.20091746758716
 20
174.2041656344289
 11
-54.70091746758716
 21
174.2041656344289
  0
LINE
  8
0
  6
CONTINUOUS
 62
     6
 10
-59.20091746758716
 20
175.0041656344289
 11
-54.70091746758716
 21
175.0041656344289
  0
LINE
  8
0
  6
CONTINUOUS
 62
     6
 10
-56.95091746758718
 20
177.0541656344289
 11
-54.70091746758718
 21
175.7551275287522
  0
LINE
  8
0
  6
CONTINUOUS
 62
     7
 10
-56.95091746758714
 20
171.6041656344288
 11
-59.70176127775973
 21
171.7002272170316
  0
LINE
  8
0
  6
CONTINUOUS
 62
     7
 10
-56.95091746758708
 20
171.6041656344288
 11
-54.20007365741446
 21
171.7002272170316
  0
LINE
  8
0
  6
CONTINUOUS
 62
     7
 10
0
 20
273
 11
0
 21
0
  0
LINE
  8
0
  6
CONTINUOUS
 62
     7
 10
-176.8
 20
0
 11
0
 21
0
  0
LINE
  8
0
  6
CONTINUOUS
 62
     7
 10
-176.8
 20
273
 11
0
 21
273
  0
LINE
  8
0
  6
CONTINUOUS
 62
     7
 10
-176.8
 20
273
 11
-176.8
 21
0
  0
LINE
  8
0
  6
CONTINUOUS
 62
     7
 10
-61.6
 20
38.7
 11
-61.6
 21
0
  0
LINE
  8
0
  6
CONTINUOUS
 62
     7
 10
-61.6
 20
12.7
 11
0
 21
12.7
  0
LINE
  8
0
  6
CONTINUOUS
 62
     7
 10
-61.6
 20
25.2
 11
0
 21
25.2
  0
LINE
  8
0
  6
CONTINUOUS
 62
     7
 10
-61.6
 20
38.7
 11
0
 21
38.7
  0
LINE
  8
0
  6
CONTINUOUS
 62
     7
 10
-176.6
 20
272.8
 11
-176.6
 21
0.2
  0
LINE
  8
0
  6
CONTINUOUS
 62
     7
 10
-176.6
 20
0.2
 11
-0.2
 21
0.2
  0
LINE
  8
0
  6
CONTINUOUS
 62
     7
 10
-0.2
 20
272.8
 11
-0.2
 21
0.2
  0
LINE
  8
0
  6
CONTINUOUS
 62
     7
 10
-176.6
 20
272.8
 11
-0.2
 21
272.8
  0
ARC
  8
0
  6
CONTINUOUS
 62
     7
 10
-119.8342931405611
 20
165.6041675417775
 40
1.75
 50
0
 51
180.0000050089586
  0
ARC
  8
0
  6
CONTINUOUS
 62
     7
 10
-119.8342931405611
 20
160.6041675417775
 40
1.75
 50
179.9999913485786
 51
360
  0
ARC
  8
0
  6
CONTINUOUS
 62
     4
 10
-98.33429314056117
 20
167.1041675417775
 40
2
 50
359.9999949910454
 51
89.9999956742889
  0
ARC
  8
0
  6
CONTINUOUS
 62
     7
 10
-99.83429314056117
 20
165.6041675417775
 40
1.75
 50
359.9999949910447
 51
180.0000050089586
  0
ARC
  8
0
  6
CONTINUOUS
 62
     7
 10
-99.83429314056117
 20
160.6041675417775
 40
1.75
 50
179.9999913485786
 51
360
  0
ARC
  8
0
  6
CONTINUOUS
 62
     4
 10
-121.3342931405611
 20
159.1041675417775
 40
2
 50
179.9999913485778
 51
270.000000683247
  0
ARC
  8
0
  6
CONTINUOUS
 62
     4
 10
-98.33429314056117
 20
159.1041675417775
 40
2
 50
269.9999974955235
 51
8.651422209050229e-006
  0
ARC
  8
0
  6
CONTINUOUS
 62
     4
 10
-121.3342931405611
 20
167.1041675417775
 40
2
 50
90.00000250447806
 51
180.0000050089577
  0
ARC
  8
0
  6
CONTINUOUS
 62
     7
 10
-103.8342931405612
 20
178.1041675417775
 40
0.5
 50
0
 51
90.00000250447847
  0
ARC
  8
0
  6
CONTINUOUS
 62
     7
 10
-115.8342931405611
 20
178.1041675417775
 40
0.5
 50
89.99999749552153
 51
180.0000000000004
  0
ARC
  8
0
  6
CONTINUOUS
 62
     2
 10
-115.0842931405611
 20
155.3041675417775
 40
1
 50
180.0000000000004
 51
270.0000000000015
  0
ARC
  8
0
  6
CONTINUOUS
 62
     2
 10
-104.5842931405612
 20
155.3041675417775
 40
1
 50
270.0000000000005
 51
360
  0
ARC
  8
0
  6
CONTINUOUS
 62
     2
 10
-113.5842931405612
 20
155.3041675417775
 40
1
 50
270.0000000000015
 51
360
  0
ARC
  8
0
  6
CONTINUOUS
 62
     2
 10
-106.0842931405611
 20
155.3041675417775
 40
1
 50
180.0000000000004
 51
270.0000000000015
  0
CIRCLE
  8
0
  6
PHANTOM
 62
     7
 10
-109.8342931405612
 20
112.5498456037612
 40
2.886751345948127
  0
ARC
  8
0
  6
CONTINUOUS
 62
     7
 10
-115.3342931405612
 20
106.5498456037612
 40
1
 50
179.9999913485778
 51
270.000000683247
  0
ARC
  8
0
  6
CONTINUOUS
 62
     7
 10
-102.8342321054049
 20
108.0498456037612
 40
0.5
 50
89.99999931675538
 51
180.0000086514221
  0
ARC
  8
0
  6
CONTINUOUS
 62
     7
 10
-116.8343541757174
 20
108.0498456037612
 40
0.5
 50
359.9999913485793
 51
90.00000068324624
  0
ARC
  8
0
  6
CONTINUOUS
 62
     7
 10
-116.8343541757174
 20
117.0498456037612
 40
0.5
 50
269.9999974955239
 51
8.651421394828107e-006
  0
CIRCLE
  8
0
  6
CONTINUOUS
 62
     7
 10
-109.8342931405612
 20
112.5498456037612
 40
1.5
  0
CIRCLE
  8
0
  6
CONTINUOUS
 62
     7
 10
-109.8342931405612
 20
112.5498456037612
 40
1.22950005531311
  0
ARC
  8
0
  6
CONTINUOUS
 62
     7
 10
-102.8342321054049
 20
117.0498456037612
 40
0.5
 50
179.9999913485786
 51
270.000000683247
  0
ARC
  8
0
  6
CONTINUOUS
 62
     7
 10
-104.3342931405612
 20
118.5498456037612
 40
1
 50
0
 51
90.00000250447847
  0
ARC
  8
0
  6
CONTINUOUS
 62
     7
 10
-115.3342931405612
 20
118.5498456037612
 40
1
 50
90.00000250447847
 51
180.0000050089577
  0
ARC
  8
0
  6
CONTINUOUS
 62
     7
 10
-104.3342931405612
 20
106.5498456037612
 40
1
 50
269.9999974955231
 51
360
  0
ARC
  8
0
  6
CONTINUOUS
 62
     6
 10
-120.4842931405612
 20
172.9541675417775
 40
0.4
 50
0
 51
90.00000000000019
  0
ARC
  8
0
  6
CONTINUOUS
 62
     6
 10
-120.4842931405612
 20
176.2541675417775
 40
0.4
 50
270.0000000000005
 51
360
  0
ARC
  8
0
  6
CONTINUOUS
 62
     6
 10
-114.4803766609846
 20
174.6041675417775
 40
5.603916479576535
 50
168.1479467387898
 51
175.9068237770682
  0
ARC
  8
0
  6
CONTINUOUS
 62
     6
 10
-114.4803766609846
 20
174.6041675417775
 40
5.603916479576535
 50
184.0931762229331
 51
191.8520532612118
  0
ARC
  8
0
  6
CONTINUOUS
 62
     6
 10
-118.2589300306772
 20
172.8036865946158
 40
1.825363109883962
 50
159.155674993946
 51
180.0000031025588
  0
ARC
  8
0
  6
CONTINUOUS
 62
     6
 10
-118.2589300306734
 20
176.4046484889392
 40
1.825363109887769
 50
179.999998520914
 51
200.8443250060101
  0
ARC
  8
0
  6
CONTINUOUS
 62
     6
 10
-101.4096562504489
 20
176.4046484889392
 40
1.825363109887769
 50
339.1556749939925
 51
1.479085963437607e-006
  0
ARC
  8
0
  6
CONTINUOUS
 62
     6
 10
-101.4096562504451
 20
172.8036865946158
 40
1.825363109883962
 50
359.9999968974444
 51
20.84432500605398
  0
ARC
  8
0
  6
CONTINUOUS
 62
     6
 10
-105.1882096201377
 20
174.6041675417775
 40
5.603916479576535
 50
348.1479467387908
 51
355.9068237770695
  0
ARC
  8
0
  6
CONTINUOUS
 62
     6
 10
-105.1882096201377
 20
174.6041675417775
 40
5.603916479576535
 50
4.093176222931843
 51
11.85205326121047
  0
ARC
  8
0
  6
CONTINUOUS
 62
     6
 10
-120.4842931405612
 20
110.8998456037612
 40
0.4
 50
0
 51
90.00000000000019
  0
ARC
  8
0
  6
CONTINUOUS
 62
     6
 10
-120.4842931405612
 20
114.1998456037612
 40
0.4
 50
270.0000000000005
 51
360
  0
ARC
  8
0
  6
CONTINUOUS
 62
     6
 10
-114.4803766609846
 20
112.5498456037612
 40
5.603916479576535
 50
168.1479467387897
 51
175.9068237770682
  0
ARC
  8
0
  6
CONTINUOUS
 62
     6
 10
-114.4803766609846
 20
112.5498456037612
 40
5.603916479576535
 50
184.0931762229333
 51
191.8520532612119
  0
ARC
  8
0
  6
CONTINUOUS
 62
     6
 10
-118.2589300306772
 20
110.7493646565995
 40
1.825363109883962
 50
159.1556749939462
 51
180.0000031025588
  0
ARC
  8
0
  6
CONTINUOUS
 62
     6
 10
-118.2589300306734
 20
114.3503265509228
 40
1.825363109887769
 50
179.999998520914
 51
200.8443250060101
  0
ARC
  8
0
  6
CONTINUOUS
 62
     6
 10
-101.4096562504489
 20
114.3503265509229
 40
1.825363109887769
 50
339.1556749939923
 51
1.479085963437607e-006
  0
ARC
  8
0
  6
CONTINUOUS
 62
     6
 10
-101.4096562504452
 20
110.7493646565995
 40
1.825363109883962
 50
359.9999968974444
 51
20.84432500605382
  0
ARC
  8
0
  6
CONTINUOUS
 62
     6
 10
-105.1882096201377
 20
112.5498456037612
 40
5.603916479576535
 50
348.147946738791
 51
355.9068237770696
  0
ARC
  8
0
  6
CONTINUOUS
 62
     6
 10
-105.1882096201377
 20
112.5498456037612
 40
5.603916479576535
 50
4.093176222931834
 51
11.85205326121033
  0
CIRCLE
  8
0
  6
CONTINUOUS
 62
     7
 10
-105.3342931405612
 20
117.0498456037612
 40
1.75
  0
CIRCLE
  8
0
  6
CONTINUOUS
 62
     7
 10
-105.3342931405612
 20
108.0498456037612
 40
1.75
  0
CIRCLE
  8
0
  6
CONTINUOUS
 62
     7
 10
-114.3342931405612
 20
117.0498456037612
 40
1.75
  0
CIRCLE
  8
0
  6
CONTINUOUS
 62
     7
 10
-114.3342931405612
 20
108.0498456037612
 40
1.75
  0
ARC
  8
0
  6
CONTINUOUS
 62
     7
 10
-63.65089915704027
 20
178.3041778414601
 40
0.300000011920929
 50
90.00000000000019
 51
180.0000025044824
  0
ARC
  8
0
  6
CONTINUOUS
 62
     7
 10
-50.25092051934496
 20
178.3041778414601
 40
0.300000011920929
 50
359.9999974955246
 51
90.00000000000019
  0
ARC
  8
0
  6
CONTINUOUS
 62
     2
 10
-62.20091746758706
 20
155.3041675417775
 40
1
 50
180.0000000000004
 51
270.0000000000015
  0
ARC
  8
0
  6
CONTINUOUS
 62
     2
 10
-51.70091746758716
 20
155.3041675417775
 40
1
 50
270.0000000000015
 51
360
  0
ARC
  8
0
  6
CONTINUOUS
 62
     2
 10
-60.70091746758716
 20
155.3041675417775
 40
1
 50
270.0000000000015
 51
360
  0
ARC
  8
0
  6
CONTINUOUS
 62
     2
 10
-53.20091746758706
 20
155.3041675417775
 40
1
 50
180.0000000000004
 51
270.0000000000015
  0
ARC
  8
0
  6
CONTINUOUS
 62
     6
 10
-56.95091746758716
 20
174.6041656344289
 40
2.121762239271888
 50
190.8665736859134
 51
349.1334263140896
  0
ARC
  8
0
  6
CONTINUOUS
 62
     6
 10
-56.95091746758716
 20
174.6041656344289
 40
2.121762239271888
 50
10.86657368591191
 51
169.1334263140881
  0
ARC
  8
0
  6
CONTINUOUS
 62
     7
 10
-56.95091746758716
 20
174.6041656344289
 40
4
 50
313.4491829542728
 51
226.5508170457298
  0
TEXT
  8
0
  6
CONTINUOUS
 62
     7
 10
-109.6863656929759
 20
168.0045085244203
 40
1
 41
0.8526940143644605
  1
ＵＭＣＤ－５
 50
90.00000000000003
  0
TEXT
  8
0
  6
CONTINUOUS
 62
     7
 10
-109.6863656929759
 20
158.3815330473415
 40
1.5
 41
0.8594350199193058
  1
ＳＴＡＲ
 50
90.00000000000003
  0
TEXT
  8
0
  6
CONTINUOUS
 62
     7
 10
-112.2054619533638
 20
159.6144955187988
 40
1
 41
0.8458650135877966
  1
ＭＩＮＩ－ＣＹＬＩＮＤＥＲ
 50
90.00000000000003
  0
TEXT
  8
0
  6
CONTINUOUS
 62
     7
 10
-107.3154515655521
 20
161.7072289668884
 40
1
 41
0.8475800124986109
  1
ＳＴＡＲＴＥＣＨＮＯ
 50
90.00000000000003
  0
TEXT
  8
0
  6
CONTINUOUS
 62
     7
 10
-57.85852296127077
 20
28.65044057652705
 40
4.800000190734863
 41
0.8440946691665613
  1
マイクロミニシリンダー
  0
TEXT
  8
0
  6
CONTINUOUS
 62
     7
 10
-44.55432396585437
 20
16.54002576114836
 40
4.800000190734863
 41
0.847411023324896
  1
ＵＭＣＤ－５
  0
TEXT
  8
0
  6
CONTINUOUS
 62
     7
 10
-43.43643952135788
 20
4.056982797604185
 40
4.800000190734863
 41
0.847411023324896
  1
２００１２２
  0
ENDSEC
  0
EOF
