  0
SECTION
  2
HEADER
  9
$EXTMAX
 10
0
 20
297
 30
0
  9
$EXTMIN
 10
-420
 20
0
 30
0
  9
$LIMMAX
 10
0
 20
297
  9
$LIMMIN
 10
-420
 20
0
  9
$PLIMMAX
 10
0
 20
297
  9
$PLIMMIN
 10
-420
 20
0
  9
$PEXTMAX
 10
0
 20
297
 30
0
  9
$PEXTMIN
 10
-420
 20
0
 30
0
  9
$TEXTSIZE
 40
3.2
  9
$DIMSHO
 70
     0
  9
$DIMASZ
 40
1.0
  9
$DIMTAD
 70
     1
  9
$DIMTIH
 70
     0
  9
$DIMTOH
 70
     0
  9
$DIMEXE
 40
2.54
  9
$DIMEXO
 40
2.54
  9
$DIMTVP
 40
1.0
  9
$DIMSAH
 70
     1
  9
$DIMDLE
 40
0.0
  9
$DIMTXT
 40
3.200000047683716
  9
$DIMGAP
 40
1.600000023841858
  0
ENDSEC
  0
SECTION
  2
TABLES
  0
TABLE
  2
LTYPE
 70
     39
  0
LTYPE
  2
CONTINUOUS
 70
    64
  3
Solid line
 72
    65
 73
     0
 40
0.0
  0
LTYPE
  2
ACAD_ISO02W100
 70
     0
  3
ISO dash __ __ __ __ __ __ __ __ __ __ __ __ __
 72
    65
 73
     2
 40
15.0
 49
12.0
 49
-3.0
  0
LTYPE
  2
ACAD_ISO03W100
 70
     0
  3
ISO dash space __    __    __    __    __    __
 72
    65
 73
     2
 40
30.0
 49
12.0
 49
-18.0
  0
LTYPE
  2
ACAD_ISO04W100
 70
     0
  3
ISO long-dash dot ____ . ____ . ____ . ____ . _
 72
    65
 73
     4
 40
30.0
 49
24.0
 49
-3.0
 49
0.0
 49
-3.0
  0
LTYPE
  2
ACAD_ISO05W100
 70
     0
  3
ISO long-dash double-dot ____ .. ____ .. ____ .
 72
    65
 73
     6
 40
33.0
 49
24.0
 49
-3.0
 49
0.0
 49
-3.0
 49
0.0
 49
-3.0
  0
LTYPE
  2
ACAD_ISO06W100
 70
     0
  3
ISO long-dash triple-dot ____ ... ____ ... ____
 72
    65
 73
     8
 40
36.0
 49
24.0
 49
-3.0
 49
0.0
 49
-3.0
 49
0.0
 49
-3.0
 49
0.0
 49
-3.0
  0
LTYPE
  2
ACAD_ISO07W100
 70
     0
  3
ISO dot . . . . . . . . . . . . . . . . . . . .
 72
    65
 73
     2
 40
3.0
 49
0.0
 49
-3.0
  0
LTYPE
  2
ACAD_ISO08W100
 70
     0
  3
ISO long-dash short-dash ____ __ ____ __ ____ _
 72
    65
 73
     4
 40
36.0
 49
24.0
 49
-3.0
 49
6.0
 49
-3.0
  0
LTYPE
  2
ACAD_ISO09W100
 70
     0
  3
ISO long-dash double-short-dash ____ __ __ ____
 72
    65
 73
     6
 40
45.0
 49
24.0
 49
-3.0
 49
6.0
 49
-3.0
 49
6.0
 49
-3.0
  0
LTYPE
  2
ACAD_ISO10W100
 70
     0
  3
ISO dash dot __ . __ . __ . __ . __ . __ . __ .
 72
    65
 73
     4
 40
18.0
 49
12.0
 49
-3.0
 49
0.0
 49
-3.0
  0
LTYPE
  2
ACAD_ISO11W100
 70
     0
  3
ISO double-dash dot __ __ . __ __ . __ __ . __ 
 72
    65
 73
     6
 40
33.0
 49
12.0
 49
-3.0
 49
12.0
 49
-3.0
 49
0.0
 49
-3.0
  0
LTYPE
  2
ACAD_ISO12W100
 70
     0
  3
ISO dash double-dot __ . . __ . . __ . . __ . .
 72
    65
 73
     6
 40
21.0
 49
12.0
 49
-3.0
 49
0.0
 49
-3.0
 49
0.0
 49
-3.0
  0
LTYPE
  2
ACAD_ISO13W100
 70
     0
  3
ISO double-dash double-dot __ __ . . __ __ . . 
 72
    65
 73
     8
 40
36.0
 49
12.0
 49
-3.0
 49
12.0
 49
-3.0
 49
0.0
 49
-3.0
 49
0.0
 49
-3.0
  0
LTYPE
  2
ACAD_ISO14W100
 70
     0
  3
ISO dash triple-dot __ . . . __ . . . __ . . . 
 72
    65
 73
     8
 40
24.0
 49
12.0
 49
-3.0
 49
0.0
 49
-3.0
 49
0.0
 49
-3.0
 49
0.0
 49
-3.0
  0
LTYPE
  2
ACAD_ISO15W100
 70
     0
  3
ISO double-dash triple-dot __ __ . . . __ __ . 
 72
    65
 73
    10
 40
39.0
 49
12.0
 49
-3.0
 49
12.0
 49
-3.0
 49
0.0
 49
-3.0
 49
0.0
 49
-3.0
 49
0.0
 49
-3.0
  0
LTYPE
  2
BORDER
 70
    64
  3
Border __ __ . __ __ . __ __ . __ __ . __ __ .
 72
    65
 73
     6
 40
3.5
 49
1.0
 49
-0.5
 49
1.0
 49
-0.5
 49
0.0
 49
-0.5
  0
LTYPE
  2
BORDER2
 70
    64
  3
Border (.5x) __.__.__.__.__.__.__.__.__.__.__.
 72
    65
 73
     6
 40
1.75
 49
0.5
 49
-0.25
 49
0.5
 49
-0.25
 49
0.0
 49
-0.25
  0
LTYPE
  2
BORDERX2
 70
    64
  3
Border (2x) ____  ____  .  ____  ____  .  ___
 72
    65
 73
     6
 40
7.0
 49
2.0
 49
-1.0
 49
2.0
 49
-1.0
 49
0.0
 49
-1.0
  0
LTYPE
  2
CENTER
 70
    64
  3
Center ____ _ ____ _ ____ _ ____ _ ____ _ ____
 72
    65
 73
     4
 40
12.0
 49
7.5
 49
-1.5
 49
1.5
 49
-1.5
  0
LTYPE
  2
CENTER2
 70
    64
  3
Center (.5x) ___ _ ___ _ ___ _ ___ _ ___ _ ___
 72
    65
 73
     4
 40
6.0
 49
3.75
 49
-0.75
 49
0.75
 49
-0.75
  0
LTYPE
  2
CENTERX2
 70
    64
  3
Center (2x) ________  __  ________  __  _____
 72
    65
 73
     4
 40
24.0
 49
15.0
 49
-3.0
 49
3.0
 49
-3.0
  0
LTYPE
  2
DASHDOT
 70
    64
  3
Dash dot __ . __ . __ . __ . __ . __ . __ . __
 72
    65
 73
     4
 40
6.0
 49
3.0
 49
-1.5
 49
0.0
 49
-1.5
  0
LTYPE
  2
DASHDOT2
 70
    64
  3
Dash dot (.5x) _._._._._._._._._._._._._._._.
 72
    65
 73
     4
 40
3.0
 49
1.5
 49
-0.75
 49
0.0
 49
-0.75
  0
LTYPE
  2
DASHDOTX2
 70
    64
  3
Dash dot (2x) ____  .  ____  .  ____  .  ___
 72
    65
 73
     4
 40
12.0
 49
6.0
 49
-3.0
 49
0.0
 49
-3.0
  0
LTYPE
  2
DASHED
 70
    64
  3
Dashed __ __ __ __ __ __ __ __ __ __ __ __ __ _
 72
    65
 73
     2
 40
4.5
 49
3.0
 49
-1.5
  0
LTYPE
  2
DASHED2
 70
    64
  3
Dashed (.5x) _ _ _ _ _ _ _ _ _ _ _ _ _ _ _ _ _
 72
    65
 73
     2
 40
2.25
 49
1.5
 49
-0.75
  0
LTYPE
  2
DASHEDX2
 70
    64
  3
Dashed (2x) ____  ____  ____  ____  ____  ___
 72
    65
 73
     2
 40
9.0
 49
6.0
 49
-3.0
  0
LTYPE
  2
DIVIDE
 70
    64
  3
Divide ____ . . ____ . . ____ . . ____ . . ____
 72
    65
 73
     6
 40
7.5
 49
3.0
 49
-1.5
 49
0.0
 49
-1.5
 49
0.0
 49
-1.5
  0
LTYPE
  2
DIVIDE2
 70
    64
  3
Divide (.5x) __..__..__..__..__..__..__..__.._
 72
    65
 73
     6
 40
3.75
 49
1.5
 49
-0.75
 49
0.0
 49
-0.75
 49
0.0
 49
-0.75
  0
LTYPE
  2
DIVIDEX2
 70
    64
  3
Divide (2x) ________  .  .  ________  .  .  _
 72
    65
 73
     6
 40
15.0
 49
6.0
 49
-3.0
 49
0.0
 49
-3.0
 49
0.0
 49
-3.0
  0
LTYPE
  2
DOT
 70
    64
  3
Dot . . . . . . . . . . . . . . . . . . . . . .
 72
    65
 73
     2
 40
1.5
 49
0.0
 49
-1.5
  0
LTYPE
  2
DOT2
 70
    64
  3
Dot (.5x) .....................................
 72
    65
 73
     2
 40
0.75
 49
0.0
 49
-0.75
  0
LTYPE
  2
DOTX2
 70
    64
  3
Dot (2x) .  .  .  .  .  .  .  .  .  .  .  .  . 
 72
    65
 73
     2
 40
3.0
 49
0.0
 49
-3.0
  0
LTYPE
  2
HIDDEN
 70
    64
  3
Hidden __ __ __ __ __ __ __ __ __ __ __ __ __ _
 72
    65
 73
     2
 40
4.5
 49
3.0
 49
-1.5
  0
LTYPE
  2
HIDDEN2
 70
    64
  3
Hidden (.5x) _ _ _ _ _ _ _ _ _ _ _ _ _ _ _ _ _
 72
    65
 73
     2
 40
2.25
 49
1.5
 49
-0.75
  0
LTYPE
  2
HIDDENX2
 70
    64
  3
Hidden (2x) ____ ____ ____ ____ ____ ____ ____
 72
    65
 73
     2
 40
9.0
 49
6.0
 49
-3.0
  0
LTYPE
  2
PHANTOM
 70
    64
  3
Phantom ______  __  __  ______  __  __  ______
 72
    65
 73
     6
 40
15.0
 49
7.5
 49
-1.5
 49
1.5
 49
-1.5
 49
1.5
 49
-1.5
  0
LTYPE
  2
PHANTOM2
 70
    64
  3
Phantom (.5x) ___ _ _ ___ _ _ ___ _ _ ___ _ _
 72
    65
 73
     6
 40
7.5
 49
3.75
 49
-0.75
 49
0.75
 49
-0.75
 49
0.75
 49
-0.75
  0
LTYPE
  2
PHANTOMX2
 70
    64
  3
Phantom (2x) ____________    ____    ____   _
 72
    65
 73
     6
 40
30.0
 49
15.0
 49
-3.0
 49
3.0
 49
-3.0
 49
3.0
 49
-3.0
  0
ENDTAB
  0
TABLE
  2
LAYER
 70
     1
  0
LAYER
  2
0
 70
     0
 62
     7
  6
CONTINUOUS
  0
ENDTAB
  0
TABLE
  2
STYLE
 70
     1
  0
STYLE
  2
STANDARD
 70
     0
 40
0.0
 41
1.0
 50
0.0
 71
     0
 42
0.2
  3
txt
  4
BIGFONT
  0
ENDTAB
  0
TABLE
  2
DIMSTYLE
 70
     0
  0
ENDTAB
  0
ENDSEC
  0
SECTION
  2
BLOCKS
  0
ENDSEC
  0
SECTION
  2
ENTITIES
  0
LINE
  8
0
  6
CONTINUOUS
 62
     7
 10
-118.5989353322846
 20
172.4362070412462
 11
-110.5989353322846
 21
172.4362070412462
  0
LINE
  8
0
  6
CONTINUOUS
 62
     7
 10
-110.5989353322846
 20
172.4362070412462
 11
-110.5989353322846
 21
190.4362070412462
  0
LINE
  8
0
  6
CONTINUOUS
 62
     7
 10
-118.5989353322846
 20
172.4362070412462
 11
-118.5989353322846
 21
190.4362070412462
  0
LINE
  8
0
  6
CONTINUOUS
 62
     7
 10
-118.5989353322846
 20
190.4362070412462
 11
-110.5989353322846
 21
190.4362070412462
  0
LINE
  8
0
  6
CONTINUOUS
 62
     7
 10
-120.9781073397274
 20
167.9998999542336
 11
-107.9781073397274
 21
167.9998999542336
  0
LINE
  8
0
  6
CONTINUOUS
 62
     7
 10
-111.9781073397274
 20
161.4998999542336
 11
-116.9781073397274
 21
161.4998999542336
  0
LINE
  8
0
  6
CONTINUOUS
 62
     7
 10
-111.9781073397274
 20
166.4998999542336
 11
-111.9781073397274
 21
161.4998999542336
  0
LINE
  8
0
  6
CONTINUOUS
 62
     7
 10
-125.9781073397274
 20
184.9998999542336
 11
-120.9781073397274
 21
184.9998999542336
  0
LINE
  8
0
  6
CENTER
 62
     7
 10
-124.4781073397274
 20
185.7898779815773
 11
-124.4781073397274
 21
172.2098914093117
  0
LINE
  8
0
  6
CONTINUOUS
 62
     7
 10
-126.2281073397274
 20
181.4998999542336
 11
-126.2281073397274
 21
176.4998999542336
  0
LINE
  8
0
  6
CENTER
 62
     7
 10
-120.1880987948055
 20
176.4998999542336
 11
-128.7681158846492
 21
176.4998999542336
  0
LINE
  8
0
  6
CONTINUOUS
 62
     7
 10
-127.9781073397274
 20
182.9998999542336
 11
-127.9781073397274
 21
174.9998999542336
  0
LINE
  8
0
  6
CONTINUOUS
 62
     7
 10
-122.7281073397274
 20
181.4998999542336
 11
-122.7281073397274
 21
176.4998999542336
  0
LINE
  8
0
  6
CENTER
 62
     7
 10
-120.1880987948055
 20
181.4998999542336
 11
-128.7681158846492
 21
181.4998999542336
  0
LINE
  8
0
  6
CONTINUOUS
 62
     7
 10
-106.7281073397274
 20
194.4998999542336
 11
-122.2281073397274
 21
194.4998999542336
  0
LINE
  8
0
  6
CONTINUOUS
 62
     7
 10
-125.9781073397274
 20
172.9998999542336
 11
-120.9781073397274
 21
172.9998999542336
  0
LINE
  8
0
  6
CONTINUOUS
 62
     7
 10
-107.9781073397274
 20
193.9998999542336
 11
-107.9781073397274
 21
166.4998999542336
  0
LINE
  8
0
  6
CONTINUOUS
 62
     7
 10
-116.9781073397274
 20
166.4998999542336
 11
-116.9781073397274
 21
161.4998999542336
  0
LINE
  8
0
  6
CONTINUOUS
 62
     7
 10
-111.3516119783992
 20
166.4998999542336
 11
-107.9781073397274
 21
166.4998999542336
  0
LINE
  8
0
  6
CENTER
 62
     7
 10
-108.7681158846492
 20
181.4998999542336
 11
-100.1880987948055
 21
181.4998999542336
  0
LINE
  8
0
  6
CONTINUOUS
 62
     7
 10
-106.2281073397274
 20
181.4998999542336
 11
-106.2281073397274
 21
176.4998999542336
  0
LINE
  8
0
  6
CENTER
 62
     7
 10
-108.7681158846492
 20
176.4998999542336
 11
-100.1880987948055
 21
176.4998999542336
  0
LINE
  8
0
  6
CONTINUOUS
 62
     7
 10
-100.9781073397274
 20
182.9998999542336
 11
-100.9781073397274
 21
174.9998999542336
  0
LINE
  8
0
  6
CONTINUOUS
 62
     7
 10
-102.9781073397274
 20
184.9998999542336
 11
-107.9781073397274
 21
184.9998999542336
  0
LINE
  8
0
  6
CONTINUOUS
 62
     7
 10
-102.7281073397274
 20
181.4998999542336
 11
-102.7281073397274
 21
176.4998999542336
  0
LINE
  8
0
  6
CONTINUOUS
 62
     7
 10
-120.9781073397274
 20
193.9998999542336
 11
-120.9781073397274
 21
166.4998999542336
  0
LINE
  8
0
  6
CENTER
 62
     7
 10
-104.4781073397274
 20
185.7898779815773
 11
-104.4781073397274
 21
172.2098914093117
  0
LINE
  8
0
  6
CONTINUOUS
 62
     7
 10
-102.9781073397274
 20
172.9998999542336
 11
-107.9781073397274
 21
172.9998999542336
  0
LINE
  8
0
  6
DASHED
 62
     7
 10
-120.1781195467586
 20
167.9998999542336
 11
-119.9781073397274
 21
167.9998999542336
  0
LINE
  8
0
  6
DASHED
 62
     7
 10
-117.078113443243
 20
166.4998999542336
 11
-120.9781073397274
 21
166.4998999542336
  0
LINE
  8
0
  6
CONTINUOUS
 62
     7
 10
-107.9781073397274
 20
166.4998999542336
 11
-120.9781073397274
 21
166.4998999542336
  0
LINE
  8
0
  6
CONTINUOUS
 62
     7
 10
-122.7281073397274
 20
193.4998999542336
 11
-122.7281073397274
 21
187.4998999542336
  0
LINE
  8
0
  6
CONTINUOUS
 62
     7
 10
-107.9781073397274
 20
187.4998999542335
 11
-106.7281073397274
 21
187.4998999542335
  0
LINE
  8
0
  6
CONTINUOUS
 62
     7
 10
-122.2281073397274
 20
194.4998999542336
 11
-122.2281073397274
 21
187.4998999542335
  0
LINE
  8
0
  6
CONTINUOUS
 62
     7
 10
-106.7281073397274
 20
193.4998999542336
 11
-106.2281073397274
 21
193.4998999542336
  0
LINE
  8
0
  6
CONTINUOUS
 62
     7
 10
-106.7281073397274
 20
187.4998999542336
 11
-106.2281073397274
 21
187.4998999542336
  0
LINE
  8
0
  6
CONTINUOUS
 62
     7
 10
-122.7281073397274
 20
187.4998999542336
 11
-122.2281073397274
 21
187.4998999542336
  0
LINE
  8
0
  6
CONTINUOUS
 62
     7
 10
-122.7281073397274
 20
193.4998999542336
 11
-122.2281073397274
 21
193.4998999542336
  0
LINE
  8
0
  6
CONTINUOUS
 62
     7
 10
-106.2281073397274
 20
193.4998999542336
 11
-106.2281073397274
 21
187.4998999542336
  0
LINE
  8
0
  6
CONTINUOUS
 62
     7
 10
-106.7281073397274
 20
194.4998999542336
 11
-106.7281073397274
 21
187.4998999542335
  0
LINE
  8
0
  6
CONTINUOUS
 62
     7
 10
-122.2281073397274
 20
187.4998999542335
 11
-120.9781073397274
 21
187.4998999542335
  0
LINE
  8
0
  6
CENTER
 62
     7
 10
-114.4781073397274
 20
199.1229018587149
 11
-114.4781073397274
 21
150.9594931551017
  0
LINE
  8
0
  6
CONTINUOUS
 62
     7
 10
-120.7281073397273
 20
166.1998999542336
 11
-120.7281073397273
 21
166.4998999542336
  0
LINE
  8
0
  6
CONTINUOUS
 62
     7
 10
-119.7281073397273
 20
165.1998999542336
 11
-118.2281073397274
 21
165.1998999542336
  0
LINE
  8
0
  6
CONTINUOUS
 62
     7
 10
-111.7281073397273
 20
166.1998999542336
 11
-111.7281073397273
 21
166.4998999542336
  0
LINE
  8
0
  6
CONTINUOUS
 62
     7
 10
-117.2281073397274
 20
166.1998999542336
 11
-117.2281073397274
 21
166.4998999542336
  0
LINE
  8
0
  6
CONTINUOUS
 62
     7
 10
-108.2281073397274
 20
166.1998999542336
 11
-108.2281073397274
 21
166.4998999542336
  0
LINE
  8
0
  6
CONTINUOUS
 62
     7
 10
-109.2281073397274
 20
165.1998999542336
 11
-110.7281073397273
 21
165.1998999542336
  0
LINE
  8
0
  6
CONTINUOUS
 62
     7
 10
-122.7281073397274
 20
124.8204281052734
 11
-122.7281073397274
 21
118.8204281052733
  0
LINE
  8
0
  6
CONTINUOUS
 62
     7
 10
-111.9781073397274
 20
123.2638037782474
 11
-111.9781073397274
 21
120.3770524322993
  0
LINE
  8
0
  6
CONTINUOUS
 62
     7
 10
-116.9781073397273
 20
123.2638037782473
 11
-114.4781073397274
 21
124.7071794512214
  0
LINE
  8
0
  6
CONTINUOUS
 62
     7
 10
-114.4781073397273
 20
118.9336767593253
 11
-111.9781073397274
 21
120.3770524322993
  0
LINE
  8
0
  6
CONTINUOUS
 62
     7
 10
-116.9781073397273
 20
120.3770524322993
 11
-114.4781073397273
 21
118.9336767593252
  0
LINE
  8
0
  6
CONTINUOUS
 62
     7
 10
-116.9781073397274
 20
123.2638037782474
 11
-116.9781073397274
 21
120.3770524322993
  0
LINE
  8
0
  6
CONTINUOUS
 62
     7
 10
-114.4781073397274
 20
124.7071794512215
 11
-111.9781073397273
 21
123.2638037782474
  0
LINE
  8
0
  6
CONTINUOUS
 62
     7
 10
-119.9781073397274
 20
114.8204281052734
 11
-108.9781073397274
 21
114.8204281052734
  0
LINE
  8
0
  6
CONTINUOUS
 62
     7
 10
-107.9781073397274
 20
128.3204281052734
 11
-107.9781073397274
 21
115.8204281052733
  0
LINE
  8
0
  6
CENTER
 62
     7
 10
-124.4781073397274
 20
121.8204281052734
 11
-104.4781073397274
 21
121.8204281052734
  0
LINE
  8
0
  6
CONTINUOUS
 62
     7
 10
-106.7280463045711
 20
117.8204281052734
 11
-107.4780463045711
 21
117.8204281052734
  0
LINE
  8
0
  6
CONTINUOUS
 62
     7
 10
-106.7281073397274
 20
124.8204281052734
 11
-106.2281073397274
 21
124.8204281052734
  0
LINE
  8
0
  6
CONTINUOUS
 62
     7
 10
-122.2281683748836
 20
117.8204281052734
 11
-121.4781683748836
 21
117.8204281052734
  0
LINE
  8
0
  6
CENTER
 62
     7
 10
-114.4781073397274
 20
129.5664955939489
 11
-114.4781073397274
 21
114.0268299994883
  0
LINE
  8
0
  6
CONTINUOUS
 62
     7
 10
-120.9781073397274
 20
127.8204281052734
 11
-120.9781073397274
 21
115.8204277680986
  0
LINE
  8
0
  6
CENTER
 62
     7
 10
-124.4781073397274
 20
121.8827602585937
 11
-124.4781073397274
 21
113.3204281052733
  0
LINE
  8
0
  6
DASHED
 62
     7
 10
-122.7281073397274
 20
116.8204281052734
 11
-122.7281073397274
 21
114.8204281052734
  0
LINE
  8
0
  6
CONTINUOUS
 62
     7
 10
-106.7280463045711
 20
125.8204281052734
 11
-107.4780463045711
 21
125.8204281052734
  0
LINE
  8
0
  6
DASHED
 62
     7
 10
-126.2281073397274
 20
116.8204281052734
 11
-126.2281073397274
 21
114.8204281052734
  0
LINE
  8
0
  6
CONTINUOUS
 62
     7
 10
-122.2281683748836
 20
117.8204281052734
 11
-121.4781683748836
 21
117.8204281052734
  0
LINE
  8
0
  6
CONTINUOUS
 62
     7
 10
-122.2281683748836
 20
125.8204281052734
 11
-121.4781683748836
 21
125.8204281052734
  0
LINE
  8
0
  6
CONTINUOUS
 62
     7
 10
-100.9781073397274
 20
116.8204281052733
 11
-100.9781073397274
 21
114.8204281052734
  0
LINE
  8
0
  6
CONTINUOUS
 62
     7
 10
-120.9781073397274
 20
116.8204281052734
 11
-127.9781073397274
 21
116.8204281052734
  0
LINE
  8
0
  6
CONTINUOUS
 62
     7
 10
-108.9781073397274
 20
114.8204281052734
 11
-107.7281073397274
 21
114.8204281052734
  0
LINE
  8
0
  6
CONTINUOUS
 62
     7
 10
-107.9781073397274
 20
116.8204281052734
 11
-100.9781073397274
 21
116.8204281052734
  0
LINE
  8
0
  6
CONTINUOUS
 62
     7
 10
-127.9781073397274
 20
116.8204281052733
 11
-127.9781073397274
 21
114.8204281052734
  0
LINE
  8
0
  6
CENTER
 62
     7
 10
-104.4781073397274
 20
121.8827602585937
 11
-104.4781073397274
 21
113.3204281052733
  0
LINE
  8
0
  6
CONTINUOUS
 62
     7
 10
-119.9781073397274
 20
114.8204281052734
 11
-127.9781073397274
 21
114.8204281052734
  0
LINE
  8
0
  6
CONTINUOUS
 62
     7
 10
-105.9780463045711
 20
117.8204281052734
 11
-106.4780463045711
 21
117.8204281052734
  0
LINE
  8
0
  6
DASHED
 62
     7
 10
-106.2281073397274
 20
116.8204281052733
 11
-106.2281073397274
 21
114.8204281052734
  0
LINE
  8
0
  6
DASHED
 62
     7
 10
-102.7281073397274
 20
116.8204281052733
 11
-102.7281073397274
 21
114.8204281052734
  0
LINE
  8
0
  6
CONTINUOUS
 62
     7
 10
-119.9781073397274
 20
128.8204281052734
 11
-108.9781073397274
 21
128.8204281052734
  0
LINE
  8
0
  6
CONTINUOUS
 62
     7
 10
-122.2281073397274
 20
125.8204281052734
 11
-122.2281073397274
 21
117.8204281052733
  0
LINE
  8
0
  6
CONTINUOUS
 62
     7
 10
-106.7281073397274
 20
125.8204281052734
 11
-106.7281073397274
 21
117.8204281052733
  0
LINE
  8
0
  6
CONTINUOUS
 62
     7
 10
-106.2281073397274
 20
124.8204281052734
 11
-106.2281073397274
 21
118.8204281052733
  0
LINE
  8
0
  6
CONTINUOUS
 62
     7
 10
-122.7281073397274
 20
124.8204281052734
 11
-122.2281073397274
 21
124.8204281052734
  0
LINE
  8
0
  6
CONTINUOUS
 62
     7
 10
-122.7281073397274
 20
118.8204281052734
 11
-122.2281073397274
 21
118.8204281052734
  0
LINE
  8
0
  6
CONTINUOUS
 62
     7
 10
-106.7281073397274
 20
118.8204281052734
 11
-106.2281073397274
 21
118.8204281052734
  0
LINE
  8
0
  6
CONTINUOUS
 62
     7
 10
-108.9781073397274
 20
114.8204281052734
 11
-100.9781073397274
 21
114.8204281052734
  0
LINE
  8
0
  6
DASHED
 62
     7
 10
-122.7281073397274
 20
190.8998999542336
 11
-130.2281073397274
 21
190.8998999542336
  0
LINE
  8
0
  6
DASHED
 62
     7
 10
-122.7281073397274
 20
190.0998999542336
 11
-130.2281073397274
 21
190.0998999542336
  0
LINE
  8
0
  6
CONTINUOUS
 62
     7
 10
-130.0281073397272
 20
191.6248999542335
 11
-130.2281073397272
 21
191.4248999395924
  0
LINE
  8
0
  6
CONTINUOUS
 62
     7
 10
-130.0281073397274
 20
189.3748999542337
 11
-130.2281073397274
 21
189.5748999688747
  0
LINE
  8
0
  6
CONTINUOUS
 62
     7
 10
-130.2281073397274
 20
189.5748999688746
 11
-130.2281073397274
 21
191.4248999395926
  0
LINE
  8
0
  6
CONTINUOUS
 62
     7
 10
-127.1281073397273
 20
192.2298999542334
 11
-128.2281073397273
 21
191.6248999542334
  0
LINE
  8
0
  6
CONTINUOUS
 62
     7
 10
-127.1281073397274
 20
188.7698999542335
 11
-128.2281073397275
 21
189.3748999542335
  0
LINE
  8
0
  6
CONTINUOUS
 62
     7
 10
-128.6281073397274
 20
188.7698999542339
 11
-129.7281073397273
 21
189.3748999542339
  0
LINE
  8
0
  6
CONTINUOUS
 62
     7
 10
-127.1281073397274
 20
192.2298999542336
 11
-126.7281073397274
 21
192.2298999542336
  0
LINE
  8
0
  6
CONTINUOUS
 62
     7
 10
-127.1281073397274
 20
188.7698999542336
 11
-126.7281073397274
 21
188.7698999542336
  0
LINE
  8
0
  6
CONTINUOUS
 62
     7
 10
-130.0281073397274
 20
189.3748999542336
 11
-129.7281073397274
 21
189.3748999542336
  0
LINE
  8
0
  6
CONTINUOUS
 62
     7
 10
-130.0281073397274
 20
191.6248999542336
 11
-129.7281073397274
 21
191.6248999542336
  0
LINE
  8
0
  6
CONTINUOUS
 62
     7
 10
-129.7281073397276
 20
191.6248999542341
 11
-128.6281073397276
 21
192.2298999542341
  0
LINE
  8
0
  6
CONTINUOUS
 62
     7
 10
-126.7281073397274
 20
188.7698999542336
 11
-126.7281073397274
 21
192.2298999542336
  0
LINE
  8
0
  6
CONTINUOUS
 62
     7
 10
-127.1281073397274
 20
188.7698999542336
 11
-127.1281073397274
 21
192.2298999542336
  0
LINE
  8
0
  6
CONTINUOUS
 62
     7
 10
-129.7281073397274
 20
189.3748999542336
 11
-129.7281073397274
 21
191.6248999542336
  0
LINE
  8
0
  6
CONTINUOUS
 62
     7
 10
-126.7281073397274
 20
189.2498999542336
 11
-125.1281073397274
 21
189.2498999542336
  0
LINE
  8
0
  6
CONTINUOUS
 62
     7
 10
-128.6281073397274
 20
188.7698999542336
 11
-128.6281073397274
 21
192.2298999542336
  0
LINE
  8
0
  6
CONTINUOUS
 62
     7
 10
-126.7281073397274
 20
191.7498999542336
 11
-125.1281073397274
 21
191.7498999542336
  0
LINE
  8
0
  6
CONTINUOUS
 62
     7
 10
-128.2281073397274
 20
188.7698999542336
 11
-128.2281073397274
 21
192.2298999542336
  0
LINE
  8
0
  6
CONTINUOUS
 62
     7
 10
-124.7281073397275
 20
192.6216621935056
 11
-124.6086385650603
 21
192.9498999542337
  0
LINE
  8
0
  6
CONTINUOUS
 62
     7
 10
-124.6086385650602
 20
188.0498999542336
 11
-122.7281073397274
 21
188.0498999542336
  0
LINE
  8
0
  6
CONTINUOUS
 62
     7
 10
-122.7281073397274
 20
188.0498999542336
 11
-122.7281073397274
 21
192.9498999542336
  0
LINE
  8
0
  6
CENTER
 62
     7
 10
-130.8280924180727
 20
190.4998999542336
 11
-122.0574079383357
 21
190.4998999542336
  0
LINE
  8
0
  6
CONTINUOUS
 62
     7
 10
-128.6281073397274
 20
192.2298999542336
 11
-128.2281073397274
 21
192.2298999542336
  0
LINE
  8
0
  6
CONTINUOUS
 62
     7
 10
-124.6086385650602
 20
189.3489380599102
 11
-122.7281073397274
 21
189.3489380599102
  0
LINE
  8
0
  6
CONTINUOUS
 62
     7
 10
-124.7281073397274
 20
188.3781377149616
 11
-124.6086385650602
 21
188.0498999542335
  0
LINE
  8
0
  6
CONTINUOUS
 62
     7
 10
-128.6281073397274
 20
188.7698999542336
 11
-128.2281073397274
 21
188.7698999542336
  0
LINE
  8
0
  6
CONTINUOUS
 62
     7
 10
-124.6086385650602
 20
192.9498999542336
 11
-122.7281073397274
 21
192.9498999542336
  0
LINE
  8
0
  6
CONTINUOUS
 62
     7
 10
-124.6086385650602
 20
191.6508618485569
 11
-122.7281073397274
 21
191.6508618485569
  0
LINE
  8
0
  6
CONTINUOUS
 62
     7
 10
-124.7281073397274
 20
188.3781377149617
 11
-124.7281073397274
 21
192.6216621935055
  0
LINE
  8
0
  6
CONTINUOUS
 62
     7
 10
-104.2281073397274
 20
188.3781377149617
 11
-104.2281073397274
 21
190.0998999542336
  0
LINE
  8
0
  6
CONTINUOUS
 62
     7
 10
-104.3475761143946
 20
191.6508618485569
 11
-106.2281073397274
 21
191.6508618485569
  0
LINE
  8
0
  6
CONTINUOUS
 62
     7
 10
-106.2281073397274
 20
188.0498999542336
 11
-106.2281073397274
 21
192.9498999542336
  0
LINE
  8
0
  6
CONTINUOUS
 62
     7
 10
-104.3475761143946
 20
188.0498999542336
 11
-106.2281073397274
 21
188.0498999542336
  0
LINE
  8
0
  6
CONTINUOUS
 62
     7
 10
-104.3475761143946
 20
192.9498999542336
 11
-106.2281073397274
 21
192.9498999542336
  0
LINE
  8
0
  6
CONTINUOUS
 62
     7
 10
-104.2281073397274
 20
190.8998999542336
 11
-104.2281073397274
 21
192.6216621935055
  0
LINE
  8
0
  6
CONTINUOUS
 62
     7
 10
-104.2281073397274
 20
190.8998999542336
 11
-105.0281073397273
 21
190.8998999542336
  0
LINE
  8
0
  6
CONTINUOUS
 62
     7
 10
-105.0281073397273
 20
190.0998999542336
 11
-105.0281073397273
 21
190.8998999542336
  0
LINE
  8
0
  6
CONTINUOUS
 62
     7
 10
-104.2281073397274
 20
190.0998999542336
 11
-105.0281073397273
 21
190.0998999542336
  0
LINE
  8
0
  6
CONTINUOUS
 62
     7
 10
-104.2281073397274
 20
192.6216621935055
 11
-104.3475761143947
 21
192.9498999542336
  0
LINE
  8
0
  6
CONTINUOUS
 62
     7
 10
-104.2281073397276
 20
188.3781377149618
 11
-104.3475761143948
 21
188.0498999542337
  0
LINE
  8
0
  6
CONTINUOUS
 62
     7
 10
-104.3475761143946
 20
189.3489380599102
 11
-106.2281073397274
 21
189.3489380599102
  0
LINE
  8
0
  6
CONTINUOUS
 62
     7
 10
-118.7781073397273
 20
126.1204281052734
 11
-118.7781073397273
 21
125.0813818435828
  0
LINE
  8
0
  6
CONTINUOUS
 62
     7
 10
-119.1781073397274
 20
126.1204281052734
 11
-119.1781073397274
 21
125.0813818435828
  0
LINE
  8
0
  6
CONTINUOUS
 62
     7
 10
-120.0820393632827
 20
126.5204281052734
 11
-120.0820393632827
 21
126.1204281052734
  0
LINE
  8
0
  6
CONTINUOUS
 62
     7
 10
-117.7896343948404
 20
126.5204281052734
 11
-118.7781073397273
 21
126.5204281052734
  0
LINE
  8
0
  6
CONTINUOUS
 62
     7
 10
-119.1781073397274
 20
126.5204281052734
 11
-120.0907203094087
 21
126.5204281052734
  0
LINE
  8
0
  6
CONTINUOUS
 62
     7
 10
-118.7781073397273
 20
127.4330410749547
 11
-118.7781073397273
 21
126.5204281052734
  0
LINE
  8
0
  6
CONTINUOUS
 62
     7
 10
-118.7781073397273
 20
125.1011635117584
 11
-119.1781073397274
 21
125.1011635117584
  0
LINE
  8
0
  6
CONTINUOUS
 62
     7
 10
-117.7896343948404
 20
126.1204281052734
 11
-118.7781073397273
 21
126.1204281052734
  0
LINE
  8
0
  6
CONTINUOUS
 62
     7
 10
-119.1781073397274
 20
127.4330410749547
 11
-119.1781073397274
 21
126.5204281052734
  0
LINE
  8
0
  6
CONTINUOUS
 62
     7
 10
-118.7781073397273
 20
127.4438695722129
 11
-119.1781073397274
 21
127.4438695722129
  0
LINE
  8
0
  6
CONTINUOUS
 62
     7
 10
-119.1781073397274
 20
126.1204281052734
 11
-120.0907203094087
 21
126.1204281052734
  0
LINE
  8
0
  6
CONTINUOUS
 62
     7
 10
-117.7742990649245
 20
126.5204281052734
 11
-117.7742990649245
 21
126.1204281052734
  0
LINE
  8
0
  6
CENTER
 62
     7
 10
-121.1949494449905
 20
126.3204281052734
 11
-116.6381073397274
 21
126.3204281052734
  0
LINE
  8
0
  6
CENTER
 62
     7
 10
-118.9781073397274
 20
128.6234807368523
 11
-118.9781073397274
 21
123.9681123157997
  0
LINE
  8
0
  6
CONTINUOUS
 62
     7
 10
-110.1781073397274
 20
126.1204281052734
 11
-110.1781073397274
 21
125.0813818435828
  0
LINE
  8
0
  6
CONTINUOUS
 62
     7
 10
-109.7781073397274
 20
126.1204281052734
 11
-109.7781073397274
 21
125.0813818435828
  0
LINE
  8
0
  6
CONTINUOUS
 62
     7
 10
-108.874175316172
 20
126.5204281052734
 11
-108.874175316172
 21
126.1204281052734
  0
LINE
  8
0
  6
CONTINUOUS
 62
     7
 10
-111.1665802846143
 20
126.5204281052734
 11
-110.1781073397274
 21
126.5204281052734
  0
LINE
  8
0
  6
CONTINUOUS
 62
     7
 10
-109.7781073397274
 20
126.5204281052734
 11
-108.8654943700461
 21
126.5204281052734
  0
LINE
  8
0
  6
CONTINUOUS
 62
     7
 10
-110.1781073397274
 20
127.4330410749547
 11
-110.1781073397274
 21
126.5204281052734
  0
LINE
  8
0
  6
CONTINUOUS
 62
     7
 10
-110.1781073397274
 20
125.1011635117584
 11
-109.7781073397274
 21
125.1011635117584
  0
LINE
  8
0
  6
CONTINUOUS
 62
     7
 10
-111.1665802846143
 20
126.1204281052734
 11
-110.1781073397274
 21
126.1204281052734
  0
LINE
  8
0
  6
CONTINUOUS
 62
     7
 10
-109.7781073397274
 20
127.4330410749547
 11
-109.7781073397274
 21
126.5204281052734
  0
LINE
  8
0
  6
CONTINUOUS
 62
     7
 10
-110.1781073397274
 20
127.4438695722129
 11
-109.7781073397274
 21
127.4438695722129
  0
LINE
  8
0
  6
CONTINUOUS
 62
     7
 10
-109.7781073397274
 20
126.1204281052734
 11
-108.8654943700461
 21
126.1204281052734
  0
LINE
  8
0
  6
CONTINUOUS
 62
     7
 10
-111.1819156145302
 20
126.5204281052734
 11
-111.1819156145302
 21
126.1204281052734
  0
LINE
  8
0
  6
CENTER
 62
     7
 10
-107.7612652344642
 20
126.3204281052734
 11
-112.3181073397274
 21
126.3204281052734
  0
LINE
  8
0
  6
CENTER
 62
     7
 10
-109.9781073397274
 20
128.6234807368523
 11
-109.9781073397274
 21
123.9681123157997
  0
LINE
  8
0
  6
CONTINUOUS
 62
     7
 10
-110.1781073397274
 20
117.1204281052734
 11
-110.1781073397274
 21
116.0813818435828
  0
LINE
  8
0
  6
CONTINUOUS
 62
     7
 10
-109.7781073397274
 20
117.1204281052734
 11
-109.7781073397274
 21
116.0813818435828
  0
LINE
  8
0
  6
CONTINUOUS
 62
     7
 10
-108.874175316172
 20
117.5204281052734
 11
-108.874175316172
 21
117.1204281052734
  0
LINE
  8
0
  6
CONTINUOUS
 62
     7
 10
-111.1665802846143
 20
117.5204281052734
 11
-110.1781073397274
 21
117.5204281052734
  0
LINE
  8
0
  6
CONTINUOUS
 62
     7
 10
-109.7781073397274
 20
117.5204281052734
 11
-108.8654943700461
 21
117.5204281052734
  0
LINE
  8
0
  6
CONTINUOUS
 62
     7
 10
-110.1781073397274
 20
118.4330410749547
 11
-110.1781073397274
 21
117.5204281052734
  0
LINE
  8
0
  6
CONTINUOUS
 62
     7
 10
-110.1781073397274
 20
116.1011635117584
 11
-109.7781073397274
 21
116.1011635117584
  0
LINE
  8
0
  6
CONTINUOUS
 62
     7
 10
-111.1665802846143
 20
117.1204281052734
 11
-110.1781073397274
 21
117.1204281052734
  0
LINE
  8
0
  6
CONTINUOUS
 62
     7
 10
-109.7781073397274
 20
118.4330410749547
 11
-109.7781073397274
 21
117.5204281052734
  0
LINE
  8
0
  6
CONTINUOUS
 62
     7
 10
-110.1781073397274
 20
118.4438695722129
 11
-109.7781073397274
 21
118.4438695722129
  0
LINE
  8
0
  6
CONTINUOUS
 62
     7
 10
-109.7781073397274
 20
117.1204281052734
 11
-108.8654943700461
 21
117.1204281052734
  0
LINE
  8
0
  6
CONTINUOUS
 62
     7
 10
-111.1819156145302
 20
117.5204281052734
 11
-111.1819156145302
 21
117.1204281052734
  0
LINE
  8
0
  6
CENTER
 62
     7
 10
-107.7612652344642
 20
117.3204281052734
 11
-112.3181073397274
 21
117.3204281052734
  0
LINE
  8
0
  6
CENTER
 62
     7
 10
-109.9781073397274
 20
119.6234807368523
 11
-109.9781073397274
 21
114.9681123157997
  0
LINE
  8
0
  6
DASHED
 62
     7
 10
-122.7281073397274
 20
122.2204281052734
 11
-130.2281073397274
 21
122.2204281052734
  0
LINE
  8
0
  6
DASHED
 62
     7
 10
-122.7281073397274
 20
121.4204281052734
 11
-130.2281073397274
 21
121.4204281052734
  0
LINE
  8
0
  6
CONTINUOUS
 62
     7
 10
-130.0281073397272
 20
122.9454281052733
 11
-130.2281073397272
 21
122.7454280906323
  0
LINE
  8
0
  6
CONTINUOUS
 62
     7
 10
-130.0281073397274
 20
120.6954281052733
 11
-130.2281073397274
 21
120.8954281199144
  0
LINE
  8
0
  6
CONTINUOUS
 62
     7
 10
-130.2281073397274
 20
120.8954281199144
 11
-130.2281073397274
 21
122.7454280906323
  0
LINE
  8
0
  6
CONTINUOUS
 62
     7
 10
-127.1281073397275
 20
123.5504281052736
 11
-128.2281073397275
 21
122.9454281052735
  0
LINE
  8
0
  6
CONTINUOUS
 62
     7
 10
-127.1281073397274
 20
120.0904281052733
 11
-128.2281073397274
 21
120.6954281052733
  0
LINE
  8
0
  6
CONTINUOUS
 62
     7
 10
-128.6281073397274
 20
120.0904281052735
 11
-129.7281073397274
 21
120.6954281052734
  0
LINE
  8
0
  6
CONTINUOUS
 62
     7
 10
-127.1281073397274
 20
123.5504281052734
 11
-126.7281073397274
 21
123.5504281052734
  0
LINE
  8
0
  6
CONTINUOUS
 62
     7
 10
-127.1281073397274
 20
120.0904281052734
 11
-126.7281073397274
 21
120.0904281052734
  0
LINE
  8
0
  6
CONTINUOUS
 62
     7
 10
-130.0281073397274
 20
120.6954281052734
 11
-129.7281073397274
 21
120.6954281052734
  0
LINE
  8
0
  6
CONTINUOUS
 62
     7
 10
-130.0281073397274
 20
122.9454281052734
 11
-129.7281073397274
 21
122.9454281052734
  0
LINE
  8
0
  6
CONTINUOUS
 62
     7
 10
-129.7281073397276
 20
122.9454281052738
 11
-128.6281073397276
 21
123.5504281052738
  0
LINE
  8
0
  6
CONTINUOUS
 62
     7
 10
-126.7281073397274
 20
120.0904281052734
 11
-126.7281073397274
 21
123.5504281052734
  0
LINE
  8
0
  6
CONTINUOUS
 62
     7
 10
-127.1281073397274
 20
120.0904281052734
 11
-127.1281073397274
 21
123.5504281052734
  0
LINE
  8
0
  6
CONTINUOUS
 62
     7
 10
-129.7281073397274
 20
120.6954281052734
 11
-129.7281073397274
 21
122.9454281052734
  0
LINE
  8
0
  6
CONTINUOUS
 62
     7
 10
-126.7281073397274
 20
120.5704281052734
 11
-125.1281073397274
 21
120.5704281052734
  0
LINE
  8
0
  6
CONTINUOUS
 62
     7
 10
-128.6281073397274
 20
120.0904281052734
 11
-128.6281073397274
 21
123.5504281052734
  0
LINE
  8
0
  6
CONTINUOUS
 62
     7
 10
-126.7281073397274
 20
123.0704281052734
 11
-125.1281073397274
 21
123.0704281052734
  0
LINE
  8
0
  6
CONTINUOUS
 62
     7
 10
-128.2281073397274
 20
120.0904281052734
 11
-128.2281073397274
 21
123.5504281052734
  0
LINE
  8
0
  6
CONTINUOUS
 62
     7
 10
-124.7281073397273
 20
123.9421903445453
 11
-124.6086385650601
 21
124.2704281052733
  0
LINE
  8
0
  6
CONTINUOUS
 62
     7
 10
-124.6086385650602
 20
119.3704281052733
 11
-122.7281073397274
 21
119.3704281052733
  0
LINE
  8
0
  6
CONTINUOUS
 62
     7
 10
-122.7281073397274
 20
119.3704281052733
 11
-122.7281073397274
 21
124.2704281052733
  0
LINE
  8
0
  6
CENTER
 62
     7
 10
-130.8280924180727
 20
121.8204281052734
 11
-122.0574079383357
 21
121.8204281052734
  0
LINE
  8
0
  6
CONTINUOUS
 62
     7
 10
-128.6281073397274
 20
123.5504281052734
 11
-128.2281073397274
 21
123.5504281052734
  0
LINE
  8
0
  6
CONTINUOUS
 62
     7
 10
-124.6086385650602
 20
120.66946621095
 11
-122.7281073397274
 21
120.66946621095
  0
LINE
  8
0
  6
CONTINUOUS
 62
     7
 10
-124.7281073397274
 20
119.6986658660014
 11
-124.6086385650601
 21
119.3704281052733
  0
LINE
  8
0
  6
CONTINUOUS
 62
     7
 10
-128.6281073397274
 20
120.0904281052734
 11
-128.2281073397274
 21
120.0904281052734
  0
LINE
  8
0
  6
CONTINUOUS
 62
     7
 10
-124.6086385650602
 20
124.2704281052733
 11
-122.7281073397274
 21
124.2704281052733
  0
LINE
  8
0
  6
CONTINUOUS
 62
     7
 10
-124.6086385650602
 20
122.9713899995967
 11
-122.7281073397274
 21
122.9713899995967
  0
LINE
  8
0
  6
CONTINUOUS
 62
     7
 10
-124.7281073397274
 20
119.6986658660015
 11
-124.7281073397274
 21
123.9421903445452
  0
LINE
  8
0
  6
CONTINUOUS
 62
     7
 10
-104.2281073397274
 20
119.6986658660015
 11
-104.2281073397274
 21
121.4204281052733
  0
LINE
  8
0
  6
CONTINUOUS
 62
     7
 10
-104.3475761143946
 20
122.9713899995967
 11
-106.2281073397274
 21
122.9713899995967
  0
LINE
  8
0
  6
CONTINUOUS
 62
     7
 10
-106.2281073397274
 20
119.3704281052733
 11
-106.2281073397274
 21
124.2704281052733
  0
LINE
  8
0
  6
CONTINUOUS
 62
     7
 10
-104.3475761143946
 20
119.3704281052733
 11
-106.2281073397274
 21
119.3704281052733
  0
LINE
  8
0
  6
CONTINUOUS
 62
     7
 10
-104.3475761143946
 20
124.2704281052734
 11
-106.2281073397274
 21
124.2704281052734
  0
LINE
  8
0
  6
CONTINUOUS
 62
     7
 10
-104.2281073397274
 20
122.2204281052734
 11
-104.2281073397274
 21
123.9421903445453
  0
LINE
  8
0
  6
CONTINUOUS
 62
     7
 10
-104.2281073397274
 20
122.2204281052734
 11
-105.0281073397273
 21
122.2204281052734
  0
LINE
  8
0
  6
CONTINUOUS
 62
     7
 10
-105.0281073397273
 20
121.4204281052733
 11
-105.0281073397273
 21
122.2204281052734
  0
LINE
  8
0
  6
CONTINUOUS
 62
     7
 10
-104.2281073397274
 20
121.4204281052733
 11
-105.0281073397273
 21
121.4204281052733
  0
LINE
  8
0
  6
CONTINUOUS
 62
     7
 10
-104.2281073397274
 20
123.9421903445452
 11
-104.3475761143946
 21
124.2704281052733
  0
LINE
  8
0
  6
CONTINUOUS
 62
     7
 10
-104.2281073397274
 20
119.6986658660015
 11
-104.3475761143946
 21
119.3704281052733
  0
LINE
  8
0
  6
CONTINUOUS
 62
     7
 10
-104.3475761143946
 20
120.66946621095
 11
-106.2281073397274
 21
120.66946621095
  0
LINE
  8
0
  6
CONTINUOUS
 62
     7
 10
-118.7781073397273
 20
117.1204281052734
 11
-118.7781073397273
 21
116.0813818435828
  0
LINE
  8
0
  6
CONTINUOUS
 62
     7
 10
-119.1781073397274
 20
117.1204281052734
 11
-119.1781073397274
 21
116.0813818435828
  0
LINE
  8
0
  6
CONTINUOUS
 62
     7
 10
-120.0820393632827
 20
117.5204281052734
 11
-120.0820393632827
 21
117.1204281052734
  0
LINE
  8
0
  6
CONTINUOUS
 62
     7
 10
-117.7896343948404
 20
117.5204281052734
 11
-118.7781073397273
 21
117.5204281052734
  0
LINE
  8
0
  6
CONTINUOUS
 62
     7
 10
-119.1781073397274
 20
117.5204281052734
 11
-120.0907203094087
 21
117.5204281052734
  0
LINE
  8
0
  6
CONTINUOUS
 62
     7
 10
-118.7781073397273
 20
118.4330410749547
 11
-118.7781073397273
 21
117.5204281052734
  0
LINE
  8
0
  6
CONTINUOUS
 62
     7
 10
-118.7781073397273
 20
116.1011635117584
 11
-119.1781073397274
 21
116.1011635117584
  0
LINE
  8
0
  6
CONTINUOUS
 62
     7
 10
-117.7896343948404
 20
117.1204281052734
 11
-118.7781073397273
 21
117.1204281052734
  0
LINE
  8
0
  6
CONTINUOUS
 62
     7
 10
-119.1781073397274
 20
118.4330410749547
 11
-119.1781073397274
 21
117.5204281052734
  0
LINE
  8
0
  6
CONTINUOUS
 62
     7
 10
-118.7781073397273
 20
118.4438695722129
 11
-119.1781073397274
 21
118.4438695722129
  0
LINE
  8
0
  6
CONTINUOUS
 62
     7
 10
-119.1781073397274
 20
117.1204281052734
 11
-120.0907203094087
 21
117.1204281052734
  0
LINE
  8
0
  6
CONTINUOUS
 62
     7
 10
-117.7742990649245
 20
117.5204281052734
 11
-117.7742990649245
 21
117.1204281052734
  0
LINE
  8
0
  6
CENTER
 62
     7
 10
-121.1949494449905
 20
117.3204281052734
 11
-116.6381073397274
 21
117.3204281052734
  0
LINE
  8
0
  6
CENTER
 62
     7
 10
-118.9781073397274
 20
119.6234807368523
 11
-118.9781073397274
 21
114.9681123157997
  0
LINE
  8
0
  6
CONTINUOUS
 62
     7
 10
-43.97810733972736
 20
167.9999018615823
 11
-43.97810733972736
 21
172.9998999542336
  0
LINE
  8
0
  6
CONTINUOUS
 62
     7
 10
-53.86148301270136
 20
161.4999018615823
 11
-48.09473166675326
 21
161.4999018615823
  0
LINE
  8
0
  6
CONTINUOUS
 62
     7
 10
-57.67808902918046
 20
194.4998999542336
 11
-44.27540958582105
 21
194.4998999542336
  0
LINE
  8
0
  6
CONTINUOUS
 62
     7
 10
-57.97810733972736
 20
166.4999018615823
 11
-57.97810733972736
 21
167.9999018615823
  0
LINE
  8
0
  6
CONTINUOUS
 62
     7
 10
-57.97810733972736
 20
167.9999018615823
 11
-43.97810733972736
 21
167.9999018615823
  0
LINE
  8
0
  6
CONTINUOUS
 62
     7
 10
-52.42148301270146
 20
161.4999018615823
 11
-52.42148301270146
 21
166.4999018615823
  0
LINE
  8
0
  6
CONTINUOUS
 62
     7
 10
-49.53473166675326
 20
161.4999018615823
 11
-49.53473166675326
 21
166.4999018615823
  0
LINE
  8
0
  6
CONTINUOUS
 62
     7
 10
-44.07810733972735
 20
166.4999018615823
 11
-48.37810733972745
 21
166.4999018615823
  0
LINE
  8
0
  6
CENTER
 62
     7
 10
-50.97810733972736
 20
150.9830376428544
 11
-50.97810733972736
 21
189.5032892208548
  0
LINE
  8
0
  6
CONTINUOUS
 62
     7
 10
-43.97810733972736
 20
166.4999018615823
 11
-43.97810733972736
 21
167.9999018615823
  0
LINE
  8
0
  6
CONTINUOUS
 62
     7
 10
-57.97810733972736
 20
167.9999018615823
 11
-57.97810733972736
 21
194.1999121612649
  0
LINE
  8
0
  6
CONTINUOUS
 62
     7
 10
-43.97810733972736
 20
166.4999018615823
 11
-57.97810733972736
 21
166.4999018615823
  0
LINE
  8
0
  6
CONTINUOUS
 62
     7
 10
-45.97810733972736
 20
172.9998999542336
 11
-43.97810733972736
 21
172.9998999542336
  0
LINE
  8
0
  6
CONTINUOUS
 62
     7
 10
-45.97810733972736
 20
184.9998999542336
 11
-43.97810733972736
 21
184.9998999542336
  0
LINE
  8
0
  6
CONTINUOUS
 62
     7
 10
-45.97810733972736
 20
184.9998999542336
 11
-45.97810733972736
 21
172.9998999542336
  0
LINE
  8
0
  6
CONTINUOUS
 62
     7
 10
-53.72810733972736
 20
166.1999018615823
 11
-53.72810733972736
 21
166.4999018615823
  0
LINE
  8
0
  6
CONTINUOUS
 62
     7
 10
-56.22810733972736
 20
165.1999018615823
 11
-54.72810733972736
 21
165.1999018615823
  0
LINE
  8
0
  6
CONTINUOUS
 62
     7
 10
-57.22810733972736
 20
166.1999018615823
 11
-57.22810733972736
 21
166.4999018615823
  0
LINE
  8
0
  6
CONTINUOUS
 62
     7
 10
-48.22810733972736
 20
166.1999018615823
 11
-48.22810733972736
 21
166.4999018615823
  0
LINE
  8
0
  6
CONTINUOUS
 62
     7
 10
-44.72810733972736
 20
166.1999018615823
 11
-44.72810733972736
 21
166.4999018615823
  0
LINE
  8
0
  6
CONTINUOUS
 62
     7
 10
-45.72810733972736
 20
165.1999018615823
 11
-47.22810733972736
 21
165.1999018615823
  0
LINE
  8
0
  6
CONTINUOUS
 62
     7
 10
-43.97810733972736
 20
184.9998999542336
 11
-43.97810733972736
 21
194.1999121612649
  0
LINE
  8
0
  6
CONTINUOUS
 62
     7
 10
-43.97810733972736
 20
184.9998999542336
 11
-43.97810733972736
 21
172.9998999542336
  0
LINE
  8
0
  6
PHANTOM
 62
     7
 10
-53.86148301270136
 20
151.4999018615823
 11
-48.09473166675326
 21
151.4999018615823
  0
LINE
  8
0
  6
PHANTOM
 62
     7
 10
-52.42148301270146
 20
161.4999018615823
 11
-52.42148301270146
 21
151.4999018615823
  0
LINE
  8
0
  6
PHANTOM
 62
     7
 10
-49.53473166675326
 20
161.4999018615823
 11
-49.53473166675326
 21
151.4999018615823
  0
LINE
  8
0
  6
CONTINUOUS
 62
     7
 10
-53.86148301270136
 20
161.4999018615823
 11
-53.86148301270136
 21
166.4999018615823
  0
LINE
  8
0
  6
CONTINUOUS
 62
     7
 10
-48.09473166675326
 20
161.4999018615823
 11
-48.09473166675326
 21
166.4999018615823
  0
LINE
  8
0
  6
PHANTOM
 62
     7
 10
-53.86148301270136
 20
161.4999018615823
 11
-53.86148301270136
 21
151.4999018615823
  0
LINE
  8
0
  6
PHANTOM
 62
     7
 10
-48.09473166675326
 20
161.4999018615823
 11
-48.09473166675326
 21
151.4999018615823
  0
LINE
  8
0
  6
CENTER
 62
     7
 10
-50.97810733972736
 20
195.1616621935055
 11
-50.97810733972736
 21
185.8381377149617
  0
LINE
  8
0
  6
CENTER
 62
     7
 10
-46.31634510045545
 20
190.4998999542336
 11
-55.63986957899925
 21
190.4998999542336
  0
LINE
  8
0
  6
CONTINUOUS
 62
     7
 10
-53.22810733972736
 20
191.650861848557
 11
-53.22810733972736
 21
189.3489380599103
  0
LINE
  8
0
  6
CONTINUOUS
 62
     7
 10
-48.72810733972736
 20
191.650861848557
 11
-48.72810733972736
 21
189.3489380599103
  0
LINE
  8
0
  6
CONTINUOUS
 62
     7
 10
-53.22810733972739
 20
191.6508618485569
 11
-50.97810733972739
 21
192.9498999542336
  0
LINE
  8
0
  6
CONTINUOUS
 62
     7
 10
-50.97810733972737
 20
188.0498999542335
 11
-48.72810733972738
 21
189.3489380599102
  0
LINE
  8
0
  6
CONTINUOUS
 62
     7
 10
-53.22810733972735
 20
189.3489380599103
 11
-50.97810733972737
 21
188.0498999542336
  0
LINE
  8
0
  6
CONTINUOUS
 62
     7
 10
-53.22810733972736
 20
190.0998999542336
 11
-48.72810733972736
 21
190.0998999542336
  0
LINE
  8
0
  6
CONTINUOUS
 62
     7
 10
-53.22810733972736
 20
190.8998999542336
 11
-48.72810733972736
 21
190.8998999542336
  0
LINE
  8
0
  6
CONTINUOUS
 62
     7
 10
-50.97810733972746
 20
192.9498999542336
 11
-48.72810733972737
 21
191.650861848557
  0
LINE
  8
0
  6
CONTINUOUS
 62
     7
 10
-50.97810733972739
 20
187.4998999542336
 11
-53.72895114989997
 21
187.5959615368364
  0
LINE
  8
0
  6
CONTINUOUS
 62
     7
 10
-50.97810733972736
 20
187.4998999542333
 11
-48.22726352955475
 21
187.5959615368363
  0
LINE
  8
0
  6
CONTINUOUS
 62
     7
 10
-176.8
 20
0
 11
0
 21
0
  0
LINE
  8
0
  6
CONTINUOUS
 62
     7
 10
0
 20
274.5
 11
0
 21
0
  0
LINE
  8
0
  6
CONTINUOUS
 62
     7
 10
-176.8
 20
274.5
 11
-176.8
 21
0
  0
LINE
  8
0
  6
CONTINUOUS
 62
     7
 10
-176.8
 20
274.5
 11
0
 21
274.5
  0
LINE
  8
0
  6
CONTINUOUS
 62
     7
 10
-61.6
 20
12.7
 11
0
 21
12.7
  0
LINE
  8
0
  6
CONTINUOUS
 62
     7
 10
-61.6
 20
25.2
 11
0
 21
25.2
  0
LINE
  8
0
  6
CONTINUOUS
 62
     7
 10
-61.6
 20
38.7
 11
0
 21
38.7
  0
LINE
  8
0
  6
CONTINUOUS
 62
     7
 10
-61.6
 20
38.7
 11
-61.6
 21
0
  0
LINE
  8
0
  6
CONTINUOUS
 62
     7
 10
-176.6
 20
0.2
 11
0
 21
0.2
  0
LINE
  8
0
  6
CONTINUOUS
 62
     7
 10
-176.6
 20
274.5
 11
-176.6
 21
0.2
  0
LINE
  8
0
  6
CONTINUOUS
 62
     7
 10
0.2
 20
274.7
 11
0.2
 21
0
  0
LINE
  8
0
  6
CONTINUOUS
 62
     7
 10
-176.8
 20
274.7
 11
0.2
 21
274.7
  0
ARC
  8
0
  6
CONTINUOUS
 62
     7
 10
-124.4781073397274
 20
181.4998999542336
 40
1.75
 50
0
 51
180.0000050089586
  0
ARC
  8
0
  6
CONTINUOUS
 62
     7
 10
-125.9781073397274
 20
182.9998999542336
 40
2
 50
90.00000250447806
 51
180.0000050089577
  0
ARC
  8
0
  6
CONTINUOUS
 62
     7
 10
-124.4781073397274
 20
176.4998999542336
 40
1.75
 50
179.9999913485786
 51
360
  0
ARC
  8
0
  6
CONTINUOUS
 62
     7
 10
-102.9781073397274
 20
174.9998999542336
 40
2
 50
269.9999974955235
 51
8.651422209050229e-006
  0
ARC
  8
0
  6
CONTINUOUS
 62
     7
 10
-125.9781073397274
 20
174.9998999542336
 40
2
 50
179.9999913485778
 51
270.000000683247
  0
ARC
  8
0
  6
CONTINUOUS
 62
     7
 10
-102.9781073397274
 20
182.9998999542336
 40
2
 50
359.9999949910454
 51
89.9999956742889
  0
ARC
  8
0
  6
CONTINUOUS
 62
     7
 10
-104.4781073397274
 20
181.4998999542336
 40
1.75
 50
359.9999949910447
 51
180.0000050089586
  0
ARC
  8
0
  6
CONTINUOUS
 62
     7
 10
-104.4781073397274
 20
176.4998999542336
 40
1.75
 50
179.9999913485786
 51
360
  0
ARC
  8
0
  6
CONTINUOUS
 62
     7
 10
-108.4781073397274
 20
193.9998999542336
 40
0.5
 50
0
 51
90.00000250447847
  0
ARC
  8
0
  6
CONTINUOUS
 62
     7
 10
-120.4781073397274
 20
193.9998999542336
 40
0.5
 50
89.99999749552153
 51
180.0000000000004
  0
ARC
  8
0
  6
CONTINUOUS
 62
     7
 10
-119.7281073397273
 20
166.1998999542336
 40
1
 50
180.0000000000004
 51
270.0000000000015
  0
ARC
  8
0
  6
CONTINUOUS
 62
     7
 10
-109.2281073397274
 20
166.1998999542336
 40
1
 50
270.0000000000005
 51
360
  0
ARC
  8
0
  6
CONTINUOUS
 62
     7
 10
-118.2281073397274
 20
166.1998999542336
 40
1
 50
270.0000000000015
 51
360
  0
ARC
  8
0
  6
CONTINUOUS
 62
     7
 10
-110.7281073397273
 20
166.1998999542336
 40
1
 50
180.0000000000004
 51
270.0000000000015
  0
ARC
  8
0
  6
CONTINUOUS
 62
     7
 10
-119.9781073397274
 20
115.8204281052734
 40
1
 50
179.9999913485778
 51
270.000000683247
  0
ARC
  8
0
  6
CONTINUOUS
 62
     7
 10
-107.4780463045711
 20
117.3204281052734
 40
0.5
 50
89.99999931675538
 51
180.0000086514221
  0
ARC
  8
0
  6
CONTINUOUS
 62
     7
 10
-121.4781683748836
 20
117.3204281052734
 40
0.5
 50
359.9999913485793
 51
90.00000068324624
  0
ARC
  8
0
  6
CONTINUOUS
 62
     7
 10
-121.4781683748836
 20
126.3204281052734
 40
0.5
 50
269.9999974955239
 51
8.651421394828107e-006
  0
CIRCLE
  8
0
  6
CONTINUOUS
 62
     7
 10
-114.4781073397274
 20
121.8204281052734
 40
1.5
  0
CIRCLE
  8
0
  6
CONTINUOUS
 62
     7
 10
-114.4781073397274
 20
121.8204281052734
 40
1.22950005531311
  0
ARC
  8
0
  6
CONTINUOUS
 62
     7
 10
-107.4780463045711
 20
126.3204281052734
 40
0.5
 50
179.9999913485786
 51
270.000000683247
  0
ARC
  8
0
  6
CONTINUOUS
 62
     7
 10
-108.9781073397274
 20
127.8204281052734
 40
1
 50
0
 51
90.00000250447847
  0
ARC
  8
0
  6
CONTINUOUS
 62
     7
 10
-119.9781073397274
 20
127.8204281052734
 40
1
 50
90.00000250447847
 51
180.0000050089577
  0
ARC
  8
0
  6
CONTINUOUS
 62
     7
 10
-108.9781073397274
 20
115.8204281052734
 40
1
 50
297.0056089583022
 51
360
  0
ARC
  8
0
  6
CONTINUOUS
 62
     7
 10
-125.1281073397274
 20
188.8498999542336
 40
0.4
 50
0
 51
90.00000000000019
  0
ARC
  8
0
  6
CONTINUOUS
 62
     7
 10
-125.1281073397274
 20
192.1498999542336
 40
0.4
 50
270.0000000000005
 51
360
  0
ARC
  8
0
  6
CONTINUOUS
 62
     7
 10
-119.1241908601508
 20
190.4998999542336
 40
5.603916479576535
 50
168.1479467387898
 51
175.9068237770682
  0
ARC
  8
0
  6
CONTINUOUS
 62
     7
 10
-119.1241908601508
 20
190.4998999542336
 40
5.603916479576535
 50
184.0931762229331
 51
191.8520532612118
  0
ARC
  8
0
  6
CONTINUOUS
 62
     7
 10
-122.9027442298434
 20
188.6994190070719
 40
1.825363109883962
 50
159.1556749939462
 51
180.0000031025588
  0
ARC
  8
0
  6
CONTINUOUS
 62
     7
 10
-122.9027442298396
 20
192.3003809013953
 40
1.825363109887769
 50
179.999998520914
 51
200.8443250060101
  0
ARC
  8
0
  6
CONTINUOUS
 62
     7
 10
-106.0534704496151
 20
192.3003809013953
 40
1.825363109887769
 50
339.1556749939925
 51
1.479085963437607e-006
  0
ARC
  8
0
  6
CONTINUOUS
 62
     7
 10
-106.0534704496113
 20
188.6994190070719
 40
1.825363109883962
 50
359.9999968974444
 51
20.84432500605382
  0
ARC
  8
0
  6
CONTINUOUS
 62
     7
 10
-109.8320238193039
 20
190.4998999542336
 40
5.603916479576535
 50
348.1479467387908
 51
355.9068237770695
  0
ARC
  8
0
  6
CONTINUOUS
 62
     7
 10
-109.8320238193039
 20
190.4998999542336
 40
5.603916479576535
 50
4.093176222931834
 51
11.85205326121047
  0
CIRCLE
  8
0
  6
CONTINUOUS
 62
     7
 10
-118.9781073397274
 20
126.3204281052734
 40
1.75
  0
CIRCLE
  8
0
  6
CONTINUOUS
 62
     7
 10
-109.9781073397274
 20
126.3204281052734
 40
1.75
  0
CIRCLE
  8
0
  6
CONTINUOUS
 62
     7
 10
-109.9781073397274
 20
117.3204281052734
 40
1.75
  0
ARC
  8
0
  6
CONTINUOUS
 62
     7
 10
-125.1281073397274
 20
120.1704281052734
 40
0.4
 50
0
 51
90.00000000000019
  0
ARC
  8
0
  6
CONTINUOUS
 62
     7
 10
-125.1281073397274
 20
123.4704281052734
 40
0.4
 50
270.0000000000005
 51
360
  0
ARC
  8
0
  6
CONTINUOUS
 62
     7
 10
-119.1241908601508
 20
121.8204281052734
 40
5.603916479576535
 50
168.1479467387897
 51
175.9068237770682
  0
ARC
  8
0
  6
CONTINUOUS
 62
     7
 10
-119.1241908601508
 20
121.8204281052734
 40
5.603916479576535
 50
184.0931762229333
 51
191.8520532612119
  0
ARC
  8
0
  6
CONTINUOUS
 62
     7
 10
-122.9027442298434
 20
120.0199471581117
 40
1.825363109883962
 50
159.1556749939462
 51
180.0000031025588
  0
ARC
  8
0
  6
CONTINUOUS
 62
     7
 10
-122.9027442298396
 20
123.620909052435
 40
1.825363109887769
 50
179.999998520914
 51
200.8443250060101
  0
ARC
  8
0
  6
CONTINUOUS
 62
     7
 10
-106.0534704496151
 20
123.620909052435
 40
1.825363109887769
 50
339.1556749939929
 51
1.479085963437607e-006
  0
ARC
  8
0
  6
CONTINUOUS
 62
     7
 10
-106.0534704496113
 20
120.0199471581117
 40
1.825363109883962
 50
359.9999968974444
 51
20.84432500605382
  0
ARC
  8
0
  6
CONTINUOUS
 62
     7
 10
-109.8320238193039
 20
121.8204281052734
 40
5.603916479576535
 50
348.147946738791
 51
355.9068237770696
  0
ARC
  8
0
  6
CONTINUOUS
 62
     7
 10
-109.8320238193039
 20
121.8204281052734
 40
5.603916479576535
 50
4.093176222931834
 51
11.85205326121033
  0
CIRCLE
  8
0
  6
CONTINUOUS
 62
     7
 10
-118.9781073397274
 20
117.3204281052734
 40
1.75
  0
ARC
  8
0
  6
CONTINUOUS
 62
     7
 10
-57.67808902918046
 20
194.1999121612649
 40
0.300000011920929
 50
90.00000000000019
 51
180.0000025044824
  0
ARC
  8
0
  6
CONTINUOUS
 62
     7
 10
-44.27811039148516
 20
194.1999121612649
 40
0.300000011920929
 50
359.9999974955246
 51
90.00000000000019
  0
ARC
  8
0
  6
CONTINUOUS
 62
     7
 10
-54.72810733972736
 20
166.1999018615823
 40
1
 50
270.0000000000015
 51
360
  0
ARC
  8
0
  6
CONTINUOUS
 62
     7
 10
-56.22810733972736
 20
166.1999018615823
 40
1
 50
180.0000000000004
 51
270.0000000000015
  0
ARC
  8
0
  6
CONTINUOUS
 62
     7
 10
-45.72810733972736
 20
166.1999018615823
 40
1
 50
270.0000000000015
 51
360
  0
ARC
  8
0
  6
CONTINUOUS
 62
     7
 10
-47.22810733972736
 20
166.1999018615823
 40
1
 50
180.0000000000004
 51
270.0000000000015
  0
ARC
  8
0
  6
CONTINUOUS
 62
     7
 10
-50.97810733972736
 20
190.4998999542336
 40
2.121762239271888
 50
190.8665736859134
 51
349.1334263140896
  0
ARC
  8
0
  6
CONTINUOUS
 62
     7
 10
-50.97810733972736
 20
190.4998999542336
 40
2.121762239271888
 50
10.86657368591191
 51
169.1334263140881
  0
ARC
  8
0
  6
CONTINUOUS
 62
     7
 10
-50.97810733972736
 20
190.4998999542336
 40
4
 50
313.4491829542728
 51
226.5508170457298
  0
TEXT
  8
0
  6
CONTINUOUS
 62
     7
 10
-114.3737189195423
 20
181.5738035860134
 40
1
 41
0.8508399830144996
  1
ＵＭＣＤ－１０
 50
90.00000000000003
  0
TEXT
  8
0
  6
CONTINUOUS
 62
     7
 10
-114.3737189195423
 20
172.4508268494802
 40
1.5
 41
0.8594350199193058
  1
ＳＴＡＲ
 50
90.00000000000003
  0
TEXT
  8
0
  6
CONTINUOUS
 62
     7
 10
-116.8928151799301
 20
173.6837893209375
 40
1
 41
0.8458650135877966
  1
ＭＩＮＩ－ＣＹＬＩＮＤＥＲ
 50
90.00000000000003
  0
TEXT
  8
0
  6
CONTINUOUS
 62
     7
 10
-112.0028047921184
 20
175.7765227690272
 40
1
 41
0.8475800124986109
  1
ＳＴＡＲＴＥＣＨＮＯ
 50
90.00000000000003
  0
TEXT
  8
0
  6
CONTINUOUS
 62
     7
 10
-56.23113237920389
 20
29.9979449626485
 40
4.800000190734863
 41
0.8440946691665613
  1
マイクロミニシリンダー
  0
TEXT
  8
0
  6
CONTINUOUS
 62
     7
 10
-47.59179986884543
 20
17.22106227686854
 40
4.800000190734863
 41
0.8463497899942289
  1
ＵＭＣＤ－１０
  0
TEXT
  8
0
  6
CONTINUOUS
 62
     7
 10
-44.23113190236673
 20
3.963845655532948
 40
4.800000190734863
 41
0.847411023324896
  1
２００１２３
  0
ENDSEC
  0
EOF
