  0
SECTION
  2
HEADER
  9
$EXTMAX
 10
0
 20
297
 30
0
  9
$EXTMIN
 10
-420
 20
0
 30
0
  9
$LIMMAX
 10
0
 20
297
  9
$LIMMIN
 10
-420
 20
0
  9
$PLIMMAX
 10
0
 20
297
  9
$PLIMMIN
 10
-420
 20
0
  9
$PEXTMAX
 10
0
 20
297
 30
0
  9
$PEXTMIN
 10
-420
 20
0
 30
0
  9
$TEXTSIZE
 40
3.2
  9
$DIMSHO
 70
     0
  9
$DIMASZ
 40
1.0
  9
$DIMTAD
 70
     1
  9
$DIMTIH
 70
     0
  9
$DIMTOH
 70
     0
  9
$DIMEXE
 40
2.54
  9
$DIMEXO
 40
2.54
  9
$DIMTVP
 40
1.0
  9
$DIMSAH
 70
     1
  9
$DIMDLE
 40
0.0
  9
$DIMTXT
 40
3.200000047683716
  9
$DIMGAP
 40
1.600000023841858
  0
ENDSEC
  0
SECTION
  2
TABLES
  0
TABLE
  2
LTYPE
 70
     39
  0
LTYPE
  2
CONTINUOUS
 70
    64
  3
Solid line
 72
    65
 73
     0
 40
0.0
  0
LTYPE
  2
ACAD_ISO02W100
 70
     0
  3
ISO dash __ __ __ __ __ __ __ __ __ __ __ __ __
 72
    65
 73
     2
 40
15.0
 49
12.0
 49
-3.0
  0
LTYPE
  2
ACAD_ISO03W100
 70
     0
  3
ISO dash space __    __    __    __    __    __
 72
    65
 73
     2
 40
30.0
 49
12.0
 49
-18.0
  0
LTYPE
  2
ACAD_ISO04W100
 70
     0
  3
ISO long-dash dot ____ . ____ . ____ . ____ . _
 72
    65
 73
     4
 40
30.0
 49
24.0
 49
-3.0
 49
0.0
 49
-3.0
  0
LTYPE
  2
ACAD_ISO05W100
 70
     0
  3
ISO long-dash double-dot ____ .. ____ .. ____ .
 72
    65
 73
     6
 40
33.0
 49
24.0
 49
-3.0
 49
0.0
 49
-3.0
 49
0.0
 49
-3.0
  0
LTYPE
  2
ACAD_ISO06W100
 70
     0
  3
ISO long-dash triple-dot ____ ... ____ ... ____
 72
    65
 73
     8
 40
36.0
 49
24.0
 49
-3.0
 49
0.0
 49
-3.0
 49
0.0
 49
-3.0
 49
0.0
 49
-3.0
  0
LTYPE
  2
ACAD_ISO07W100
 70
     0
  3
ISO dot . . . . . . . . . . . . . . . . . . . .
 72
    65
 73
     2
 40
3.0
 49
0.0
 49
-3.0
  0
LTYPE
  2
ACAD_ISO08W100
 70
     0
  3
ISO long-dash short-dash ____ __ ____ __ ____ _
 72
    65
 73
     4
 40
36.0
 49
24.0
 49
-3.0
 49
6.0
 49
-3.0
  0
LTYPE
  2
ACAD_ISO09W100
 70
     0
  3
ISO long-dash double-short-dash ____ __ __ ____
 72
    65
 73
     6
 40
45.0
 49
24.0
 49
-3.0
 49
6.0
 49
-3.0
 49
6.0
 49
-3.0
  0
LTYPE
  2
ACAD_ISO10W100
 70
     0
  3
ISO dash dot __ . __ . __ . __ . __ . __ . __ .
 72
    65
 73
     4
 40
18.0
 49
12.0
 49
-3.0
 49
0.0
 49
-3.0
  0
LTYPE
  2
ACAD_ISO11W100
 70
     0
  3
ISO double-dash dot __ __ . __ __ . __ __ . __ 
 72
    65
 73
     6
 40
33.0
 49
12.0
 49
-3.0
 49
12.0
 49
-3.0
 49
0.0
 49
-3.0
  0
LTYPE
  2
ACAD_ISO12W100
 70
     0
  3
ISO dash double-dot __ . . __ . . __ . . __ . .
 72
    65
 73
     6
 40
21.0
 49
12.0
 49
-3.0
 49
0.0
 49
-3.0
 49
0.0
 49
-3.0
  0
LTYPE
  2
ACAD_ISO13W100
 70
     0
  3
ISO double-dash double-dot __ __ . . __ __ . . 
 72
    65
 73
     8
 40
36.0
 49
12.0
 49
-3.0
 49
12.0
 49
-3.0
 49
0.0
 49
-3.0
 49
0.0
 49
-3.0
  0
LTYPE
  2
ACAD_ISO14W100
 70
     0
  3
ISO dash triple-dot __ . . . __ . . . __ . . . 
 72
    65
 73
     8
 40
24.0
 49
12.0
 49
-3.0
 49
0.0
 49
-3.0
 49
0.0
 49
-3.0
 49
0.0
 49
-3.0
  0
LTYPE
  2
ACAD_ISO15W100
 70
     0
  3
ISO double-dash triple-dot __ __ . . . __ __ . 
 72
    65
 73
    10
 40
39.0
 49
12.0
 49
-3.0
 49
12.0
 49
-3.0
 49
0.0
 49
-3.0
 49
0.0
 49
-3.0
 49
0.0
 49
-3.0
  0
LTYPE
  2
BORDER
 70
    64
  3
Border __ __ . __ __ . __ __ . __ __ . __ __ .
 72
    65
 73
     6
 40
3.5
 49
1.0
 49
-0.5
 49
1.0
 49
-0.5
 49
0.0
 49
-0.5
  0
LTYPE
  2
BORDER2
 70
    64
  3
Border (.5x) __.__.__.__.__.__.__.__.__.__.__.
 72
    65
 73
     6
 40
1.75
 49
0.5
 49
-0.25
 49
0.5
 49
-0.25
 49
0.0
 49
-0.25
  0
LTYPE
  2
BORDERX2
 70
    64
  3
Border (2x) ____  ____  .  ____  ____  .  ___
 72
    65
 73
     6
 40
7.0
 49
2.0
 49
-1.0
 49
2.0
 49
-1.0
 49
0.0
 49
-1.0
  0
LTYPE
  2
CENTER
 70
    64
  3
Center ____ _ ____ _ ____ _ ____ _ ____ _ ____
 72
    65
 73
     4
 40
12.0
 49
7.5
 49
-1.5
 49
1.5
 49
-1.5
  0
LTYPE
  2
CENTER2
 70
    64
  3
Center (.5x) ___ _ ___ _ ___ _ ___ _ ___ _ ___
 72
    65
 73
     4
 40
6.0
 49
3.75
 49
-0.75
 49
0.75
 49
-0.75
  0
LTYPE
  2
CENTERX2
 70
    64
  3
Center (2x) ________  __  ________  __  _____
 72
    65
 73
     4
 40
24.0
 49
15.0
 49
-3.0
 49
3.0
 49
-3.0
  0
LTYPE
  2
DASHDOT
 70
    64
  3
Dash dot __ . __ . __ . __ . __ . __ . __ . __
 72
    65
 73
     4
 40
6.0
 49
3.0
 49
-1.5
 49
0.0
 49
-1.5
  0
LTYPE
  2
DASHDOT2
 70
    64
  3
Dash dot (.5x) _._._._._._._._._._._._._._._.
 72
    65
 73
     4
 40
3.0
 49
1.5
 49
-0.75
 49
0.0
 49
-0.75
  0
LTYPE
  2
DASHDOTX2
 70
    64
  3
Dash dot (2x) ____  .  ____  .  ____  .  ___
 72
    65
 73
     4
 40
12.0
 49
6.0
 49
-3.0
 49
0.0
 49
-3.0
  0
LTYPE
  2
DASHED
 70
    64
  3
Dashed __ __ __ __ __ __ __ __ __ __ __ __ __ _
 72
    65
 73
     2
 40
4.5
 49
3.0
 49
-1.5
  0
LTYPE
  2
DASHED2
 70
    64
  3
Dashed (.5x) _ _ _ _ _ _ _ _ _ _ _ _ _ _ _ _ _
 72
    65
 73
     2
 40
2.25
 49
1.5
 49
-0.75
  0
LTYPE
  2
DASHEDX2
 70
    64
  3
Dashed (2x) ____  ____  ____  ____  ____  ___
 72
    65
 73
     2
 40
9.0
 49
6.0
 49
-3.0
  0
LTYPE
  2
DIVIDE
 70
    64
  3
Divide ____ . . ____ . . ____ . . ____ . . ____
 72
    65
 73
     6
 40
7.5
 49
3.0
 49
-1.5
 49
0.0
 49
-1.5
 49
0.0
 49
-1.5
  0
LTYPE
  2
DIVIDE2
 70
    64
  3
Divide (.5x) __..__..__..__..__..__..__..__.._
 72
    65
 73
     6
 40
3.75
 49
1.5
 49
-0.75
 49
0.0
 49
-0.75
 49
0.0
 49
-0.75
  0
LTYPE
  2
DIVIDEX2
 70
    64
  3
Divide (2x) ________  .  .  ________  .  .  _
 72
    65
 73
     6
 40
15.0
 49
6.0
 49
-3.0
 49
0.0
 49
-3.0
 49
0.0
 49
-3.0
  0
LTYPE
  2
DOT
 70
    64
  3
Dot . . . . . . . . . . . . . . . . . . . . . .
 72
    65
 73
     2
 40
1.5
 49
0.0
 49
-1.5
  0
LTYPE
  2
DOT2
 70
    64
  3
Dot (.5x) .....................................
 72
    65
 73
     2
 40
0.75
 49
0.0
 49
-0.75
  0
LTYPE
  2
DOTX2
 70
    64
  3
Dot (2x) .  .  .  .  .  .  .  .  .  .  .  .  . 
 72
    65
 73
     2
 40
3.0
 49
0.0
 49
-3.0
  0
LTYPE
  2
HIDDEN
 70
    64
  3
Hidden __ __ __ __ __ __ __ __ __ __ __ __ __ _
 72
    65
 73
     2
 40
4.5
 49
3.0
 49
-1.5
  0
LTYPE
  2
HIDDEN2
 70
    64
  3
Hidden (.5x) _ _ _ _ _ _ _ _ _ _ _ _ _ _ _ _ _
 72
    65
 73
     2
 40
2.25
 49
1.5
 49
-0.75
  0
LTYPE
  2
HIDDENX2
 70
    64
  3
Hidden (2x) ____ ____ ____ ____ ____ ____ ____
 72
    65
 73
     2
 40
9.0
 49
6.0
 49
-3.0
  0
LTYPE
  2
PHANTOM
 70
    64
  3
Phantom ______  __  __  ______  __  __  ______
 72
    65
 73
     6
 40
15.0
 49
7.5
 49
-1.5
 49
1.5
 49
-1.5
 49
1.5
 49
-1.5
  0
LTYPE
  2
PHANTOM2
 70
    64
  3
Phantom (.5x) ___ _ _ ___ _ _ ___ _ _ ___ _ _
 72
    65
 73
     6
 40
7.5
 49
3.75
 49
-0.75
 49
0.75
 49
-0.75
 49
0.75
 49
-0.75
  0
LTYPE
  2
PHANTOMX2
 70
    64
  3
Phantom (2x) ____________    ____    ____   _
 72
    65
 73
     6
 40
30.0
 49
15.0
 49
-3.0
 49
3.0
 49
-3.0
 49
3.0
 49
-3.0
  0
ENDTAB
  0
TABLE
  2
LAYER
 70
     1
  0
LAYER
  2
0
 70
     0
 62
     7
  6
CONTINUOUS
  0
ENDTAB
  0
TABLE
  2
STYLE
 70
     1
  0
STYLE
  2
STANDARD
 70
     0
 40
0.0
 41
1.0
 50
0.0
 71
     0
 42
0.2
  3
txt
  4
BIGFONT
  0
ENDTAB
  0
TABLE
  2
DIMSTYLE
 70
     0
  0
ENDTAB
  0
ENDSEC
  0
SECTION
  2
BLOCKS
  0
BLOCK
  8
0
  2
KOZU0001
 70
    64
 10
0
 20
0
  0
LINE
  8
0
  6
CONTINUOUS
 62
     7
 10
0
 20
0
 11
8.115552959323992
 21
-7.419969693230001
  0
LINE
  8
0
  6
CONTINUOUS
 62
     7
 10
0
 20
0
 11
2.687770326289126
 21
-1.695912252959816
  0
LINE
  8
0
  6
CONTINUOUS
 62
     7
 10
0
 20
0
 11
1.929327777614853
 21
-2.525454815106246
  0
TEXT
  8
0
  6
CONTINUOUS
 62
     7
 10
10.90694957856119
 20
-6.619969681309101
 40
3.200000047683716
 41
0.851270039185933
  1
２－Ｍ３
  0
LINE
  8
0
  6
CONTINUOUS
 62
     7
 10
0
 20
0
 11
8.115552959323992
 21
-7.419969693230001
  0
LINE
  8
0
  6
CONTINUOUS
 62
     7
 10
8.115552959323992
 20
-7.419969693230001
 11
24.6209495056051
 21
-7.41996969323003
  0
ENDBLK
  8
0
  0
ENDSEC
  0
SECTION
  2
ENTITIES
  0
LINE
  8
0
  6
CONTINUOUS
 62
     7
 10
-115.9565094714568
 20
156.191192172195
 11
-107.9565094714568
 21
156.191192172195
  0
LINE
  8
0
  6
CONTINUOUS
 62
     7
 10
-107.9565094714568
 20
156.191192172195
 11
-107.9565094714568
 21
174.1911921721949
  0
LINE
  8
0
  6
CONTINUOUS
 62
     7
 10
-115.9565094714568
 20
156.191192172195
 11
-115.9565094714568
 21
174.1911921721949
  0
LINE
  8
0
  6
CONTINUOUS
 62
     7
 10
-115.9565094714568
 20
174.1911921721948
 11
-107.9565094714568
 21
174.1911921721948
  0
LINE
  8
0
  6
CONTINUOUS
 62
     7
 10
-103.1946600499138
 20
162.2537237063899
 11
-103.1946600499138
 21
154.4537237063898
  0
LINE
  8
0
  6
CONTINUOUS
 62
     7
 10
-104.6946600499132
 20
152.9537237063892
 11
-103.1946600499132
 21
154.4537238161968
  0
LINE
  8
0
  6
CENTER
 62
     7
 10
-104.2304535381224
 20
165.3537237063899
 11
-100.411124090416
 21
165.3537237063899
  0
LINE
  8
0
  6
CONTINUOUS
 62
     7
 10
-104.1946600499138
 20
167.45372370639
 11
-104.1946600499138
 21
163.2537237063899
  0
LINE
  8
0
  6
CENTER
 62
     7
 10
-104.2304535381224
 20
157.3537237063899
 11
-100.411124090416
 21
157.3537237063899
  0
LINE
  8
0
  6
CONTINUOUS
 62
     7
 10
-104.1946600499138
 20
159.45372370639
 11
-104.1946600499138
 21
155.2537237063899
  0
LINE
  8
0
  6
CONTINUOUS
 62
     7
 10
-120.1946600499138
 20
151.3537237063899
 11
-102.5946600499138
 21
151.3537237063899
  0
LINE
  8
0
  6
CONTINUOUS
 62
     7
 10
-103.1946600499138
 20
172.3537237063899
 11
-101.5946600499138
 21
172.3537237063899
  0
LINE
  8
0
  6
CONTINUOUS
 62
     7
 10
-109.2946600499138
 20
152.9537237063898
 11
-105.1946600499138
 21
152.9537237063898
  0
LINE
  8
0
  6
CONTINUOUS
 62
     7
 10
-114.0946600499138
 20
152.9537237063898
 11
-118.1946600499138
 21
152.9537237063898
  0
LINE
  8
0
  6
CENTER
 62
     7
 10
-116.1946600499138
 20
155.2383306399836
 11
-116.1946600499138
 21
149.5517461673273
  0
LINE
  8
0
  6
CONTINUOUS
 62
     7
 10
-118.1946600499138
 20
154.4537237063898
 11
-105.1946600499138
 21
154.4537237063898
  0
LINE
  8
0
  6
CONTINUOUS
 62
     7
 10
-118.1946600499138
 20
152.9537237063898
 11
-118.1946600499138
 21
154.4537237063898
  0
LINE
  8
0
  6
CONTINUOUS
 62
     7
 10
-105.1946600499138
 20
175.45372370639
 11
-105.1946600499138
 21
154.4537237063898
  0
LINE
  8
0
  6
CONTINUOUS
 62
     7
 10
-118.1946600499138
 20
175.45372370639
 11
-118.1946600499138
 21
154.4537237063898
  0
LINE
  8
0
  6
CONTINUOUS
 62
     7
 10
-105.1946600499138
 20
152.9537237063898
 11
-105.1946600499138
 21
154.4537237063898
  0
LINE
  8
0
  6
CONTINUOUS
 62
     7
 10
-114.1946600499138
 20
151.3537237063899
 11
-114.1946600499138
 21
147.9537237063898
  0
LINE
  8
0
  6
CENTER
 62
     7
 10
-111.6946600499138
 20
183.670276440765
 11
-111.6946600499138
 21
146.5772001606835
  0
LINE
  8
0
  6
CONTINUOUS
 62
     7
 10
-114.1946600499138
 20
147.9537237063898
 11
-109.1946600499138
 21
147.9537237063898
  0
LINE
  8
0
  6
CENTER
 62
     7
 10
-107.1946600499138
 20
155.2383306399836
 11
-107.1946600499138
 21
149.5517461673273
  0
LINE
  8
0
  6
CONTINUOUS
 62
     7
 10
-101.5946600499138
 20
172.3537237063899
 11
-101.5946600499138
 21
152.3537237063899
  0
LINE
  8
0
  6
CONTINUOUS
 62
     7
 10
-110.2512843769398
 20
147.9537237063898
 11
-110.2512843769398
 21
151.3537237063899
  0
LINE
  8
0
  6
CONTINUOUS
 62
     7
 10
-113.1380357228879
 20
147.9537237063898
 11
-113.1380357228879
 21
151.3537237063899
  0
LINE
  8
0
  6
CONTINUOUS
 62
     7
 10
-119.4446600499138
 20
175.9537237063899
 11
-103.9446600499138
 21
175.9537237063899
  0
LINE
  8
0
  6
CONTINUOUS
 62
     7
 10
-120.1946600499138
 20
152.9537237063898
 11
-104.6946600499138
 21
152.9537237063898
  0
LINE
  8
0
  6
CONTINUOUS
 62
     7
 10
-120.1946600499138
 20
152.9537237063898
 11
-120.1946600499138
 21
151.3537237063899
  0
LINE
  8
0
  6
CONTINUOUS
 62
     7
 10
-103.1946600499138
 20
172.3537237063899
 11
-103.1946600499138
 21
168.45372370639
  0
LINE
  8
0
  6
CONTINUOUS
 62
     7
 10
-103.9446600499138
 20
175.95372370639
 11
-103.9446600499138
 21
168.95372370639
  0
LINE
  8
0
  6
CONTINUOUS
 62
     7
 10
-109.1946600499138
 20
151.3537237063899
 11
-109.1946600499138
 21
147.9537237063898
  0
LINE
  8
0
  6
CONTINUOUS
 62
     7
 10
-119.4446600499138
 20
175.95372370639
 11
-119.4446600499138
 21
168.95372370639
  0
LINE
  8
0
  6
CONTINUOUS
 62
     7
 10
-119.4446600499138
 20
168.9537237063899
 11
-118.1946600499138
 21
168.9537237063899
  0
LINE
  8
0
  6
CONTINUOUS
 62
     7
 10
-103.9446600499138
 20
168.9537237063899
 11
-105.1946600499138
 21
168.9537237063899
  0
LINE
  8
0
  6
CONTINUOUS
 62
     7
 10
-104.1946600499138
 20
166.8537237063899
 11
-101.5946600499138
 21
166.8537237063899
  0
LINE
  8
0
  6
CONTINUOUS
 62
     7
 10
-104.1946600499138
 20
163.8537237063899
 11
-101.5946600499138
 21
163.8537237063899
  0
LINE
  8
0
  6
CONTINUOUS
 62
     7
 10
-104.1946600499138
 20
166.5537237063899
 11
-101.5946600499138
 21
166.5537237063899
  0
LINE
  8
0
  6
CONTINUOUS
 62
     7
 10
-104.1946600499138
 20
164.1537237063899
 11
-101.5946600499138
 21
164.1537237063899
  0
LINE
  8
0
  6
CONTINUOUS
 62
     7
 10
-101.5946600499138
 20
121.3346447590215
 11
-101.5946600499138
 21
107.3346447590215
  0
LINE
  8
0
  6
CONTINUOUS
 62
     7
 10
-111.6946600499139
 20
111.4478934130733
 11
-114.1946600499139
 21
112.8912690860474
  0
LINE
  8
0
  6
CONTINUOUS
 62
     7
 10
-109.1946600499138
 20
112.8912690860474
 11
-109.1946600499138
 21
115.7780204319956
  0
LINE
  8
0
  6
CONTINUOUS
 62
     7
 10
-114.1946600499138
 20
112.8912690860474
 11
-114.1946600499138
 21
115.7780204319956
  0
LINE
  8
0
  6
CENTER
 62
     7
 10
-104.6946600499138
 20
118.8346447590215
 11
-109.6946600499138
 21
118.8346447590215
  0
LINE
  8
0
  6
CONTINUOUS
 62
     7
 10
-118.1946600499138
 20
121.3346447590215
 11
-101.5946600499138
 21
121.3346447590215
  0
LINE
  8
0
  6
CONTINUOUS
 62
     7
 10
-120.1946600499138
 20
119.3346447590215
 11
-120.1946600499138
 21
109.3346447590215
  0
LINE
  8
0
  6
CONTINUOUS
 62
     7
 10
-109.1946600499136
 20
112.8912690860472
 11
-111.6946600499136
 21
111.4478934130731
  0
LINE
  8
0
  6
CONTINUOUS
 62
     7
 10
-109.1946600499137
 20
115.7780204319956
 11
-111.6946600499138
 21
117.2213961049697
  0
LINE
  8
0
  6
CONTINUOUS
 62
     7
 10
-111.6946600499139
 20
117.2213961049696
 11
-114.1946600499139
 21
115.7780204319956
  0
LINE
  8
0
  6
CENTER
 62
     7
 10
-104.6946600499138
 20
109.8346447590215
 11
-109.6946600499138
 21
109.8346447590215
  0
LINE
  8
0
  6
CENTER
 62
     7
 10
-112.7946661534295
 20
109.8346447590215
 11
-119.5946539463982
 21
109.8346447590215
  0
LINE
  8
0
  6
CENTER
 62
     7
 10
-116.1946600499138
 20
106.4346508625371
 11
-116.1946600499138
 21
113.2346386555059
  0
LINE
  8
0
  6
CENTER
 62
     7
 10
-111.6946600499138
 20
103.8346447590215
 11
-111.6946600499138
 21
123.8346447590214
  0
LINE
  8
0
  6
CENTER
 62
     7
 10
-116.1946600499138
 20
122.2346386555058
 11
-116.1946600499138
 21
115.4346508625371
  0
LINE
  8
0
  6
CENTER
 62
     7
 10
-112.7946661534295
 20
118.8346447590215
 11
-119.5946539463982
 21
118.8346447590215
  0
LINE
  8
0
  6
CENTER
 62
     7
 10
-107.1946600499138
 20
121.3346447590215
 11
-107.1946600499138
 21
116.3346447590215
  0
LINE
  8
0
  6
CENTER
 62
     7
 10
-101.6946600499138
 20
114.3346447590215
 11
-121.6946600499138
 21
114.3346447590215
  0
LINE
  8
0
  6
CENTER
 62
     7
 10
-112.7946661534295
 20
118.8346447590215
 11
-119.5946539463982
 21
118.8346447590215
  0
LINE
  8
0
  6
CONTINUOUS
 62
     7
 10
-106.1946600499138
 20
121.3346447590215
 11
-117.1946600499138
 21
121.3346447590215
  0
LINE
  8
0
  6
CONTINUOUS
 62
     7
 10
-118.1946600499138
 20
107.3346447590215
 11
-101.5946600499138
 21
107.3346447590215
  0
LINE
  8
0
  6
DASHED
 62
     7
 10
-103.1946600499138
 20
121.3346447590215
 11
-103.1946600499138
 21
107.3346447590215
  0
LINE
  8
0
  6
CONTINUOUS
 62
     7
 10
-106.1946600499138
 20
107.3346447590215
 11
-117.1946600499138
 21
107.3346447590215
  0
LINE
  8
0
  6
CENTER
 62
     7
 10
-116.1946600499138
 20
122.7346386555058
 11
-116.1946600499138
 21
115.4346508625371
  0
LINE
  8
0
  6
CENTER
 62
     7
 10
-107.1946600499138
 20
107.3346447590215
 11
-107.1946600499138
 21
112.3346447590215
  0
LINE
  8
0
  6
CONTINUOUS
 62
     7
 10
-108.6946600499138
 20
176.4537237063899
 11
-114.6946600499138
 21
176.4537237063899
  0
LINE
  8
0
  6
CONTINUOUS
 62
     7
 10
-108.6946600499138
 20
176.45372370639
 11
-108.6946600499138
 21
175.95372370639
  0
LINE
  8
0
  6
CONTINUOUS
 62
     7
 10
-114.6946600499138
 20
176.45372370639
 11
-114.6946600499138
 21
175.95372370639
  0
LINE
  8
0
  6
DASHED
 62
     7
 10
-111.2946600499138
 20
176.45372370639
 11
-111.2946600499138
 21
183.95372370639
  0
LINE
  8
0
  6
DASHED
 62
     7
 10
-112.0946600499138
 20
176.45372370639
 11
-112.0946600499138
 21
183.95372370639
  0
LINE
  8
0
  6
CONTINUOUS
 62
     7
 10
-110.5696600499138
 20
183.7537237063899
 11
-110.7696600645548
 21
183.9537237063898
  0
LINE
  8
0
  6
CONTINUOUS
 62
     7
 10
-112.8196600499134
 20
183.7537237063894
 11
-112.6196600352724
 21
183.9537237063894
  0
LINE
  8
0
  6
CONTINUOUS
 62
     7
 10
-112.6196600352728
 20
183.9537237063899
 11
-110.7696600645549
 21
183.9537237063899
  0
LINE
  8
0
  6
CONTINUOUS
 62
     7
 10
-109.9646600499138
 20
180.8537237063899
 11
-110.5696600499139
 21
181.95372370639
  0
LINE
  8
0
  6
CONTINUOUS
 62
     7
 10
-113.4246600499138
 20
180.8537237063899
 11
-112.8196600499138
 21
181.9537237063899
  0
LINE
  8
0
  6
CONTINUOUS
 62
     7
 10
-113.424660049914
 20
182.35372370639
 11
-112.819660049914
 21
183.45372370639
  0
LINE
  8
0
  6
CONTINUOUS
 62
     7
 10
-109.9646600499138
 20
180.8537237063899
 11
-109.9646600499138
 21
180.45372370639
  0
LINE
  8
0
  6
CONTINUOUS
 62
     7
 10
-113.4246600499139
 20
180.8537237063899
 11
-113.4246600499139
 21
180.45372370639
  0
LINE
  8
0
  6
CONTINUOUS
 62
     7
 10
-112.8196600499138
 20
183.7537237063899
 11
-112.8196600499138
 21
183.45372370639
  0
LINE
  8
0
  6
CONTINUOUS
 62
     7
 10
-110.5696600499138
 20
183.7537237063899
 11
-110.5696600499138
 21
183.45372370639
  0
LINE
  8
0
  6
CONTINUOUS
 62
     7
 10
-110.5696600499138
 20
183.4537237063899
 11
-109.9646600499138
 21
182.3537237063899
  0
LINE
  8
0
  6
CONTINUOUS
 62
     7
 10
-113.4246600499139
 20
180.4537237063899
 11
-109.9646600499138
 21
180.4537237063899
  0
LINE
  8
0
  6
CONTINUOUS
 62
     7
 10
-113.4246600499139
 20
180.8537237063899
 11
-109.9646600499138
 21
180.8537237063899
  0
LINE
  8
0
  6
CONTINUOUS
 62
     7
 10
-112.8196600499138
 20
183.4537237063899
 11
-110.5696600499138
 21
183.4537237063899
  0
LINE
  8
0
  6
CONTINUOUS
 62
     7
 10
-112.9446600499138
 20
180.45372370639
 11
-112.9446600499138
 21
178.8537237063899
  0
LINE
  8
0
  6
CONTINUOUS
 62
     7
 10
-113.4246600499139
 20
182.3537237063899
 11
-109.9646600499138
 21
182.3537237063899
  0
LINE
  8
0
  6
CONTINUOUS
 62
     7
 10
-110.4446600499138
 20
180.45372370639
 11
-110.4446600499138
 21
178.8537237063899
  0
LINE
  8
0
  6
CONTINUOUS
 62
     7
 10
-113.4246600499139
 20
181.9537237063899
 11
-109.9646600499138
 21
181.9537237063899
  0
LINE
  8
0
  6
CONTINUOUS
 62
     7
 10
-109.572897810642
 20
178.45372370639
 11
-109.2446600499138
 21
178.3342549317227
  0
LINE
  8
0
  6
CONTINUOUS
 62
     7
 10
-114.1446600499139
 20
178.3342549317227
 11
-114.1446600499139
 21
176.45372370639
  0
LINE
  8
0
  6
CONTINUOUS
 62
     7
 10
-114.1446600499139
 20
176.4537237063899
 11
-109.2446600499139
 21
176.4537237063899
  0
LINE
  8
0
  6
CENTER
 62
     7
 10
-111.6946600499138
 20
184.5537087847353
 11
-111.6946600499138
 21
175.7830243049982
  0
LINE
  8
0
  6
CONTINUOUS
 62
     7
 10
-109.9646600499138
 20
182.3537237063899
 11
-109.9646600499138
 21
181.95372370639
  0
LINE
  8
0
  6
CONTINUOUS
 62
     7
 10
-112.8456219442372
 20
178.3342549317227
 11
-112.8456219442372
 21
176.45372370639
  0
LINE
  8
0
  6
CONTINUOUS
 62
     7
 10
-113.8164222891856
 20
178.4537237063893
 11
-114.1446600499137
 21
178.3342549317221
  0
LINE
  8
0
  6
CONTINUOUS
 62
     7
 10
-113.4246600499139
 20
182.3537237063899
 11
-113.4246600499139
 21
181.95372370639
  0
LINE
  8
0
  6
CONTINUOUS
 62
     7
 10
-109.2446600499139
 20
178.3342549317227
 11
-109.2446600499139
 21
176.45372370639
  0
LINE
  8
0
  6
CONTINUOUS
 62
     7
 10
-110.5436981555905
 20
178.3342549317227
 11
-110.5436981555905
 21
176.45372370639
  0
LINE
  8
0
  6
CONTINUOUS
 62
     7
 10
-113.8164222891857
 20
178.4537237063899
 11
-109.572897810642
 21
178.4537237063899
  0
LINE
  8
0
  6
CONTINUOUS
 62
     7
 10
-121.9446600499138
 20
174.0754859456619
 11
-121.9446600499138
 21
172.3537237063899
  0
LINE
  8
0
  6
CONTINUOUS
 62
     7
 10
-121.8251912752466
 20
170.8027618120666
 11
-120.1946600499138
 21
170.8027618120666
  0
LINE
  8
0
  6
CONTINUOUS
 62
     7
 10
-121.8251912752466
 20
174.4037237063899
 11
-120.1946600499138
 21
174.4037237063899
  0
LINE
  8
0
  6
CONTINUOUS
 62
     7
 10
-121.8251912752466
 20
169.5037237063899
 11
-120.1946600499138
 21
169.5037237063899
  0
LINE
  8
0
  6
CONTINUOUS
 62
     7
 10
-121.9446600499138
 20
171.5537237063899
 11
-121.9446600499138
 21
169.8319614671181
  0
LINE
  8
0
  6
CONTINUOUS
 62
     7
 10
-121.9446600499138
 20
171.5537237063898
 11
-121.1446600499138
 21
171.5537237063898
  0
LINE
  8
0
  6
CONTINUOUS
 62
     7
 10
-121.1446600499138
 20
172.3537237063899
 11
-121.1446600499138
 21
171.5537237063899
  0
LINE
  8
0
  6
CONTINUOUS
 62
     7
 10
-121.9446600499138
 20
172.3537237063899
 11
-121.1446600499138
 21
172.3537237063899
  0
LINE
  8
0
  6
CONTINUOUS
 62
     7
 10
-121.9446600499137
 20
169.831961467118
 11
-121.8251912752465
 21
169.5037237063899
  0
LINE
  8
0
  6
CONTINUOUS
 62
     7
 10
-121.9446600499135
 20
174.0754859456616
 11
-121.8251912752463
 21
174.4037237063897
  0
LINE
  8
0
  6
CONTINUOUS
 62
     7
 10
-121.8251912752466
 20
173.1046856007132
 11
-120.1946600499138
 21
173.1046856007132
  0
LINE
  8
0
  6
CONTINUOUS
 62
     7
 10
-121.9446600499138
 20
116.4564069982934
 11
-121.9446600499138
 21
114.7346447590215
  0
LINE
  8
0
  6
CONTINUOUS
 62
     7
 10
-121.8251912752466
 20
113.1836828646981
 11
-120.1946600499138
 21
113.1836828646981
  0
LINE
  8
0
  6
CONTINUOUS
 62
     7
 10
-121.8251912752466
 20
116.7846447590215
 11
-120.1946600499138
 21
116.7846447590215
  0
LINE
  8
0
  6
CONTINUOUS
 62
     7
 10
-121.8251912752466
 20
111.8846447590215
 11
-120.1946600499138
 21
111.8846447590215
  0
LINE
  8
0
  6
CONTINUOUS
 62
     7
 10
-121.9446600499138
 20
113.9346447590215
 11
-121.9446600499138
 21
112.2128825197496
  0
LINE
  8
0
  6
CONTINUOUS
 62
     7
 10
-121.9446600499138
 20
113.9346447590215
 11
-121.1446600499138
 21
113.9346447590215
  0
LINE
  8
0
  6
CONTINUOUS
 62
     7
 10
-121.1446600499138
 20
114.7346447590215
 11
-121.1446600499138
 21
113.9346447590215
  0
LINE
  8
0
  6
CONTINUOUS
 62
     7
 10
-121.9446600499138
 20
114.7346447590215
 11
-121.1446600499138
 21
114.7346447590215
  0
LINE
  8
0
  6
CONTINUOUS
 62
     7
 10
-121.9446600499138
 20
112.2128825197495
 11
-121.8251912752466
 21
111.8846447590215
  0
LINE
  8
0
  6
CONTINUOUS
 62
     7
 10
-121.9446600499139
 20
116.4564069982934
 11
-121.8251912752467
 21
116.7846447590215
  0
LINE
  8
0
  6
CONTINUOUS
 62
     7
 10
-121.8251912752466
 20
115.4856066533449
 11
-120.1946600499138
 21
115.4856066533449
  0
LINE
  8
0
  6
CONTINUOUS
 62
     7
 10
-107.3946600499138
 20
118.6346447590215
 11
-107.3946600499138
 21
117.5955984973309
  0
LINE
  8
0
  6
CONTINUOUS
 62
     7
 10
-106.9946600499138
 20
118.6346447590215
 11
-106.9946600499138
 21
117.5955984973309
  0
LINE
  8
0
  6
CONTINUOUS
 62
     7
 10
-106.0907280263585
 20
119.0346447590215
 11
-106.0907280263585
 21
118.6346447590215
  0
LINE
  8
0
  6
CONTINUOUS
 62
     7
 10
-108.3831329948007
 20
119.0346447590215
 11
-107.3946600499138
 21
119.0346447590215
  0
LINE
  8
0
  6
CONTINUOUS
 62
     7
 10
-106.9946600499138
 20
119.0346447590215
 11
-106.0820470802325
 21
119.0346447590215
  0
LINE
  8
0
  6
CONTINUOUS
 62
     7
 10
-107.3946600499138
 20
119.9472577287028
 11
-107.3946600499138
 21
119.0346447590215
  0
LINE
  8
0
  6
CONTINUOUS
 62
     7
 10
-107.3946600499138
 20
117.6153801655065
 11
-106.9946600499138
 21
117.6153801655065
  0
LINE
  8
0
  6
CONTINUOUS
 62
     7
 10
-108.3831329948007
 20
118.6346447590215
 11
-107.3946600499138
 21
118.6346447590215
  0
LINE
  8
0
  6
CONTINUOUS
 62
     7
 10
-106.9946600499138
 20
119.9472577287028
 11
-106.9946600499138
 21
119.0346447590215
  0
LINE
  8
0
  6
CONTINUOUS
 62
     7
 10
-107.3946600499138
 20
119.958086225961
 11
-106.9946600499138
 21
119.958086225961
  0
LINE
  8
0
  6
CONTINUOUS
 62
     7
 10
-106.9946600499138
 20
118.6346447590215
 11
-106.0820470802325
 21
118.6346447590215
  0
LINE
  8
0
  6
CONTINUOUS
 62
     7
 10
-108.3984683247167
 20
119.0346447590215
 11
-108.3984683247167
 21
118.6346447590215
  0
LINE
  8
0
  6
CONTINUOUS
 62
     7
 10
-116.3946600499138
 20
109.6346447590215
 11
-116.3946600499138
 21
108.5955984973309
  0
LINE
  8
0
  6
CONTINUOUS
 62
     7
 10
-115.9946600499139
 20
109.6346447590215
 11
-115.9946600499139
 21
108.5955984973309
  0
LINE
  8
0
  6
CONTINUOUS
 62
     7
 10
-115.0907280263585
 20
110.0346447590215
 11
-115.0907280263585
 21
109.6346447590215
  0
LINE
  8
0
  6
CONTINUOUS
 62
     7
 10
-117.3831329948008
 20
110.0346447590215
 11
-116.3946600499138
 21
110.0346447590215
  0
LINE
  8
0
  6
CONTINUOUS
 62
     7
 10
-115.9946600499139
 20
110.0346447590215
 11
-115.0820470802325
 21
110.0346447590215
  0
LINE
  8
0
  6
CONTINUOUS
 62
     7
 10
-116.3946600499138
 20
110.9472577287028
 11
-116.3946600499138
 21
110.0346447590215
  0
LINE
  8
0
  6
CONTINUOUS
 62
     7
 10
-116.3946600499138
 20
108.6153801655065
 11
-115.9946600499139
 21
108.6153801655065
  0
LINE
  8
0
  6
CONTINUOUS
 62
     7
 10
-117.3831329948008
 20
109.6346447590215
 11
-116.3946600499138
 21
109.6346447590215
  0
LINE
  8
0
  6
CONTINUOUS
 62
     7
 10
-115.9946600499139
 20
110.9472577287028
 11
-115.9946600499139
 21
110.0346447590215
  0
LINE
  8
0
  6
CONTINUOUS
 62
     7
 10
-116.3946600499138
 20
110.958086225961
 11
-115.9946600499139
 21
110.958086225961
  0
LINE
  8
0
  6
CONTINUOUS
 62
     7
 10
-115.9946600499139
 20
109.6346447590215
 11
-115.0820470802325
 21
109.6346447590215
  0
LINE
  8
0
  6
CONTINUOUS
 62
     7
 10
-117.3984683247167
 20
110.0346447590215
 11
-117.3984683247167
 21
109.6346447590215
  0
LINE
  8
0
  6
CONTINUOUS
 62
     7
 10
-107.3946600499138
 20
109.6346447590215
 11
-107.3946600499138
 21
108.5955984973309
  0
LINE
  8
0
  6
CONTINUOUS
 62
     7
 10
-106.9946600499138
 20
109.6346447590215
 11
-106.9946600499138
 21
108.5955984973309
  0
LINE
  8
0
  6
CONTINUOUS
 62
     7
 10
-106.0907280263584
 20
110.0346447590215
 11
-106.0907280263584
 21
109.6346447590215
  0
LINE
  8
0
  6
CONTINUOUS
 62
     7
 10
-108.3831329948007
 20
110.0346447590215
 11
-107.3946600499138
 21
110.0346447590215
  0
LINE
  8
0
  6
CONTINUOUS
 62
     7
 10
-106.9946600499138
 20
110.0346447590215
 11
-106.0820470802324
 21
110.0346447590215
  0
LINE
  8
0
  6
CONTINUOUS
 62
     7
 10
-107.3946600499138
 20
110.9472577287028
 11
-107.3946600499138
 21
110.0346447590215
  0
LINE
  8
0
  6
CONTINUOUS
 62
     7
 10
-107.3946600499138
 20
108.6153801655065
 11
-106.9946600499138
 21
108.6153801655065
  0
LINE
  8
0
  6
CONTINUOUS
 62
     7
 10
-108.3831329948007
 20
109.6346447590215
 11
-107.3946600499138
 21
109.6346447590215
  0
LINE
  8
0
  6
CONTINUOUS
 62
     7
 10
-106.9946600499138
 20
110.9472577287028
 11
-106.9946600499138
 21
110.0346447590215
  0
LINE
  8
0
  6
CONTINUOUS
 62
     7
 10
-107.3946600499138
 20
110.958086225961
 11
-106.9946600499138
 21
110.958086225961
  0
LINE
  8
0
  6
CONTINUOUS
 62
     7
 10
-106.9946600499138
 20
109.6346447590215
 11
-106.0820470802324
 21
109.6346447590215
  0
LINE
  8
0
  6
CONTINUOUS
 62
     7
 10
-108.3984683247166
 20
110.0346447590215
 11
-108.3984683247166
 21
109.6346447590215
  0
LINE
  8
0
  6
CONTINUOUS
 62
     7
 10
-116.3946600499138
 20
118.6346447590215
 11
-116.3946600499138
 21
117.5955984973309
  0
LINE
  8
0
  6
CONTINUOUS
 62
     7
 10
-115.9946600499138
 20
118.6346447590215
 11
-115.9946600499138
 21
117.5955984973309
  0
LINE
  8
0
  6
CONTINUOUS
 62
     7
 10
-115.0907280263585
 20
119.0346447590215
 11
-115.0907280263585
 21
118.6346447590215
  0
LINE
  8
0
  6
CONTINUOUS
 62
     7
 10
-117.3831329948007
 20
119.0346447590215
 11
-116.3946600499138
 21
119.0346447590215
  0
LINE
  8
0
  6
CONTINUOUS
 62
     7
 10
-115.9946600499138
 20
119.0346447590215
 11
-115.0820470802325
 21
119.0346447590215
  0
LINE
  8
0
  6
CONTINUOUS
 62
     7
 10
-116.3946600499138
 20
119.9472577287028
 11
-116.3946600499138
 21
119.0346447590215
  0
LINE
  8
0
  6
CONTINUOUS
 62
     7
 10
-116.3946600499138
 20
117.6153801655065
 11
-115.9946600499138
 21
117.6153801655065
  0
LINE
  8
0
  6
CONTINUOUS
 62
     7
 10
-117.3831329948007
 20
118.6346447590215
 11
-116.3946600499138
 21
118.6346447590215
  0
LINE
  8
0
  6
CONTINUOUS
 62
     7
 10
-115.9946600499138
 20
119.9472577287028
 11
-115.9946600499138
 21
119.0346447590215
  0
LINE
  8
0
  6
CONTINUOUS
 62
     7
 10
-116.3946600499138
 20
119.958086225961
 11
-115.9946600499138
 21
119.958086225961
  0
LINE
  8
0
  6
CONTINUOUS
 62
     7
 10
-115.9946600499138
 20
118.6346447590215
 11
-115.0820470802325
 21
118.6346447590215
  0
LINE
  8
0
  6
CONTINUOUS
 62
     7
 10
-117.3984683247167
 20
119.0346447590215
 11
-117.3984683247167
 21
118.6346447590215
  0
LINE
  8
0
  6
CENTER
 62
     7
 10
-55.44466004991378
 20
171.9537237063899
 11
-66.44466004991378
 21
171.9537237063899
  0
LINE
  8
0
  6
CONTINUOUS
 62
     7
 10
-67.94466004991378
 20
154.4537256137386
 11
-67.94466004991378
 21
175.6537359134212
  0
LINE
  8
0
  6
CONTINUOUS
 62
     7
 10
-58.06128437693971
 20
147.9537256137386
 11
-63.8280357228879
 21
147.9537256137386
  0
LINE
  8
0
  6
CONTINUOUS
 62
     7
 10
-54.24467836046071
 20
175.9537237063899
 11
-67.64735780381997
 21
175.9537237063899
  0
LINE
  8
0
  6
CONTINUOUS
 62
     7
 10
-53.94466004991381
 20
152.9537256137386
 11
-53.94466004991381
 21
154.4537256137386
  0
LINE
  8
0
  6
CENTER
 62
     7
 10
-56.44466004991378
 20
148.9537256137386
 11
-56.44466004991378
 21
154.6391708795873
  0
LINE
  8
0
  6
CENTER
 62
     7
 10
-65.44466004991378
 20
148.9537256137386
 11
-65.44466004991378
 21
154.5343441898641
  0
LINE
  8
0
  6
CONTINUOUS
 62
     7
 10
-59.50128437693971
 20
147.9537256137386
 11
-59.50128437693971
 21
151.3537237063899
  0
LINE
  8
0
  6
CONTINUOUS
 62
     7
 10
-62.38803572288791
 20
147.9537256137386
 11
-62.38803572288791
 21
151.3537237063899
  0
LINE
  8
0
  6
CENTER
 62
     7
 10
-60.94466004991378
 20
145.1953613518417
 11
-60.94466004991378
 21
170.9571129730111
  0
LINE
  8
0
  6
CONTINUOUS
 62
     7
 10
-67.94466004991378
 20
152.9537256137386
 11
-67.94466004991378
 21
154.4537256137386
  0
LINE
  8
0
  6
CONTINUOUS
 62
     7
 10
-53.94466004991381
 20
154.4537256137386
 11
-53.94466004991381
 21
175.6537359134212
  0
LINE
  8
0
  6
CONTINUOUS
 62
     7
 10
-67.94466004991378
 20
151.3537237063899
 11
-53.94466004991381
 21
151.3537237063899
  0
LINE
  8
0
  6
CONTINUOUS
 62
     7
 10
-65.94466004991378
 20
172.3537237063899
 11
-55.94466004991378
 21
172.3537237063899
  0
LINE
  8
0
  6
CONTINUOUS
 62
     7
 10
-67.94466004991378
 20
170.3537237063899
 11
-67.94466004991378
 21
151.3537237063899
  0
LINE
  8
0
  6
CONTINUOUS
 62
     7
 10
-53.94466004991381
 20
170.3537237063899
 11
-53.94466004991381
 21
151.3537237063899
  0
LINE
  8
0
  6
DASHED
 62
     7
 10
-63.59041136097838
 20
168.9537237063899
 11
-58.29890873884918
 21
168.9537237063899
  0
LINE
  8
0
  6
CONTINUOUS
 62
     7
 10
-58.06128437693971
 20
147.9537256137386
 11
-58.06128437693971
 21
151.3537237063899
  0
LINE
  8
0
  6
CONTINUOUS
 62
     7
 10
-63.8280357228879
 20
147.9537256137386
 11
-63.8280357228879
 21
151.3537237063899
  0
LINE
  8
0
  6
PHANTOM
 62
     7
 10
-58.06128437693971
 20
142.9537256137386
 11
-63.8280357228879
 21
142.9537256137386
  0
LINE
  8
0
  6
PHANTOM
 62
     7
 10
-63.8280357228879
 20
147.9537256137386
 11
-63.8280357228879
 21
142.9537256137386
  0
LINE
  8
0
  6
PHANTOM
 62
     7
 10
-62.38803572288791
 20
147.9537256137386
 11
-62.38803572288791
 21
142.9537256137386
  0
LINE
  8
0
  6
PHANTOM
 62
     7
 10
-59.50128437693971
 20
147.9537256137386
 11
-59.50128437693971
 21
142.9537256137386
  0
LINE
  8
0
  6
PHANTOM
 62
     7
 10
-58.06128437693971
 20
147.9537256137386
 11
-58.06128437693971
 21
142.9537256137386
  0
LINE
  8
0
  6
CONTINUOUS
 62
     7
 10
-57.94466004991378
 20
176.4537237063899
 11
-63.94466004991378
 21
176.4537237063899
  0
LINE
  8
0
  6
CONTINUOUS
 62
     7
 10
-57.94466004991378
 20
176.45372370639
 11
-57.94466004991378
 21
175.95372370639
  0
LINE
  8
0
  6
CONTINUOUS
 62
     7
 10
-63.94466004991378
 20
176.45372370639
 11
-63.94466004991378
 21
175.95372370639
  0
LINE
  8
0
  6
DASHED
 62
     7
 10
-60.5446600499138
 20
176.45372370639
 11
-60.5446600499138
 21
183.95372370639
  0
LINE
  8
0
  6
DASHED
 62
     7
 10
-61.34466004991381
 20
176.45372370639
 11
-61.34466004991381
 21
183.95372370639
  0
LINE
  8
0
  6
CONTINUOUS
 62
     7
 10
-59.81966004991379
 20
183.7537237063898
 11
-60.01966006455479
 21
183.9537237063898
  0
LINE
  8
0
  6
CONTINUOUS
 62
     7
 10
-62.06966004991384
 20
183.75372370639
 11
-61.86966003527285
 21
183.95372370639
  0
LINE
  8
0
  6
CONTINUOUS
 62
     7
 10
-61.8696600352728
 20
183.9537237063899
 11
-60.01966006455481
 21
183.9537237063899
  0
LINE
  8
0
  6
CONTINUOUS
 62
     7
 10
-59.21466004991378
 20
180.85372370639
 11
-59.81966004991378
 21
181.9537237063901
  0
LINE
  8
0
  6
CONTINUOUS
 62
     7
 10
-62.67466004991362
 20
180.85372370639
 11
-62.06966004991362
 21
181.95372370639
  0
LINE
  8
0
  6
CONTINUOUS
 62
     7
 10
-62.67466004991362
 20
182.35372370639
 11
-62.06966004991362
 21
183.45372370639
  0
LINE
  8
0
  6
CONTINUOUS
 62
     7
 10
-59.21466004991382
 20
180.85372370639
 11
-59.21466004991382
 21
180.45372370639
  0
LINE
  8
0
  6
CONTINUOUS
 62
     7
 10
-62.6746600499138
 20
180.85372370639
 11
-62.6746600499138
 21
180.45372370639
  0
LINE
  8
0
  6
CONTINUOUS
 62
     7
 10
-62.06966004991378
 20
183.75372370639
 11
-62.06966004991378
 21
183.45372370639
  0
LINE
  8
0
  6
CONTINUOUS
 62
     7
 10
-59.81966004991378
 20
183.75372370639
 11
-59.81966004991378
 21
183.45372370639
  0
LINE
  8
0
  6
CONTINUOUS
 62
     7
 10
-59.81966004991378
 20
183.4537237063898
 11
-59.21466004991379
 21
182.3537237063898
  0
LINE
  8
0
  6
CONTINUOUS
 62
     7
 10
-62.6746600499138
 20
180.4537237063899
 11
-59.21466004991382
 21
180.4537237063899
  0
LINE
  8
0
  6
CONTINUOUS
 62
     7
 10
-62.6746600499138
 20
180.85372370639
 11
-59.21466004991382
 21
180.85372370639
  0
LINE
  8
0
  6
CONTINUOUS
 62
     7
 10
-62.06966004991378
 20
183.4537237063899
 11
-59.81966004991378
 21
183.4537237063899
  0
LINE
  8
0
  6
CONTINUOUS
 62
     7
 10
-62.19466004991378
 20
180.45372370639
 11
-62.19466004991378
 21
178.85372370639
  0
LINE
  8
0
  6
CONTINUOUS
 62
     7
 10
-62.6746600499138
 20
182.35372370639
 11
-59.21466004991382
 21
182.35372370639
  0
LINE
  8
0
  6
CONTINUOUS
 62
     7
 10
-59.69466004991378
 20
180.45372370639
 11
-59.69466004991378
 21
178.85372370639
  0
LINE
  8
0
  6
CONTINUOUS
 62
     7
 10
-62.6746600499138
 20
181.9537237063899
 11
-59.21466004991382
 21
181.9537237063899
  0
LINE
  8
0
  6
CONTINUOUS
 62
     7
 10
-58.82289781064185
 20
178.4537237063898
 11
-58.49466004991379
 21
178.3342549317226
  0
LINE
  8
0
  6
CONTINUOUS
 62
     7
 10
-63.39466004991382
 20
178.3342549317227
 11
-63.39466004991382
 21
176.45372370639
  0
LINE
  8
0
  6
CONTINUOUS
 62
     7
 10
-63.39466004991382
 20
176.4537237063899
 11
-58.49466004991379
 21
176.4537237063899
  0
LINE
  8
0
  6
CENTER
 62
     7
 10
-60.94466004991378
 20
184.5537087847353
 11
-60.94466004991378
 21
175.7830243049983
  0
LINE
  8
0
  6
CONTINUOUS
 62
     7
 10
-59.21466004991382
 20
182.35372370639
 11
-59.21466004991382
 21
181.95372370639
  0
LINE
  8
0
  6
CONTINUOUS
 62
     7
 10
-62.0956219442372
 20
178.3342549317227
 11
-62.0956219442372
 21
176.45372370639
  0
LINE
  8
0
  6
CONTINUOUS
 62
     7
 10
-63.06642228918581
 20
178.4537237063904
 11
-63.39466004991392
 21
178.3342549317231
  0
LINE
  8
0
  6
CONTINUOUS
 62
     7
 10
-62.6746600499138
 20
182.35372370639
 11
-62.6746600499138
 21
181.95372370639
  0
LINE
  8
0
  6
CONTINUOUS
 62
     7
 10
-58.49466004991379
 20
178.3342549317227
 11
-58.49466004991379
 21
176.45372370639
  0
LINE
  8
0
  6
CONTINUOUS
 62
     7
 10
-59.79369815559048
 20
178.3342549317227
 11
-59.79369815559048
 21
176.45372370639
  0
LINE
  8
0
  6
CONTINUOUS
 62
     7
 10
-63.06642228918568
 20
178.4537237063899
 11
-58.82289781064188
 21
178.4537237063899
  0
LINE
  8
0
  6
CONTINUOUS
 62
     7
 10
-176.8
 20
0
 11
0
 21
0
  0
LINE
  8
0
  6
CONTINUOUS
 62
     7
 10
0
 20
274.5
 11
0
 21
0
  0
LINE
  8
0
  6
CONTINUOUS
 62
     7
 10
-176.8
 20
274.5
 11
-176.8
 21
0
  0
LINE
  8
0
  6
CONTINUOUS
 62
     7
 10
-176.8
 20
274.5
 11
0
 21
274.5
  0
LINE
  8
0
  6
CONTINUOUS
 62
     7
 10
-61.6
 20
38.7
 11
-61.6
 21
0
  0
LINE
  8
0
  6
CONTINUOUS
 62
     7
 10
-61.6
 20
12.7
 11
0
 21
12.7
  0
LINE
  8
0
  6
CONTINUOUS
 62
     7
 10
-61.6
 20
25.2
 11
0
 21
25.2
  0
LINE
  8
0
  6
CONTINUOUS
 62
     7
 10
-61.6
 20
38.7
 11
0
 21
38.7
  0
LINE
  8
0
  6
CENTER
 62
     7
 10
-60.94466004991378
 20
161.3937237063899
 11
-60.94466004991378
 21
153.3137237063899
  0
LINE
  8
0
  6
CENTER
 62
     7
 10
-64.98466004991379
 20
157.3537237063899
 11
-56.90466004991378
 21
157.3537237063899
  0
LINE
  8
0
  6
CENTER
 62
     7
 10
-60.94466004991378
 20
169.3937237063899
 11
-60.94466004991378
 21
161.3137237063899
  0
LINE
  8
0
  6
CENTER
 62
     7
 10
-64.98466004991379
 20
165.3537237063899
 11
-56.90466004991378
 21
165.3537237063899
  0
ARC
  8
0
  6
CONTINUOUS
 62
     7
 10
-103.1946600499138
 20
163.2537237063899
 40
1
 50
180.0000000000004
 51
270.0000000000015
  0
ARC
  8
0
  6
CONTINUOUS
 62
     7
 10
-103.1946600499138
 20
167.4537237063899
 40
1
 50
90.00000000000019
 51
180.0000000000004
  0
ARC
  8
0
  6
CONTINUOUS
 62
     7
 10
-103.1946600499138
 20
155.2537237063899
 40
1
 50
180.0000000000004
 51
270.0000000000015
  0
ARC
  8
0
  6
CONTINUOUS
 62
     7
 10
-103.1946600499138
 20
159.45372370639
 40
1
 50
90.00000000000019
 51
180.0000000000004
  0
ARC
  8
0
  6
CONTINUOUS
 62
     7
 10
-117.6946600499138
 20
175.4537237063899
 40
0.5
 50
89.99999749552153
 51
180.0000000000004
  0
ARC
  8
0
  6
CONTINUOUS
 62
     7
 10
-105.6946600499138
 20
175.4537237063899
 40
0.5
 50
0
 51
90.00000250447847
  0
ARC
  8
0
  6
CONTINUOUS
 62
     7
 10
-102.5946600499138
 20
152.3537237063899
 40
1
 50
270.0000000000005
 51
360
  0
ARC
  8
0
  6
CONTINUOUS
 62
     7
 10
-118.1946600499138
 20
109.3346447590215
 40
2
 50
180.0000000000011
 51
270.0000000000011
  0
ARC
  8
0
  6
CONTINUOUS
 62
     7
 10
-118.1946600499138
 20
119.3346447590215
 40
2
 50
90.00000000000041
 51
180.0000000000011
  0
CIRCLE
  8
0
  6
CONTINUOUS
 62
     7
 10
-111.6946600499138
 20
114.3346447590215
 40
3
  0
CIRCLE
  8
0
  6
CONTINUOUS
 62
     7
 10
-111.6946600499138
 20
114.3346447590215
 40
1.22950005531311
  0
CIRCLE
  8
0
  6
CONTINUOUS
 62
     7
 10
-116.1946600499138
 20
109.8346447590215
 40
1.899999976158142
  0
CIRCLE
  8
0
  6
CONTINUOUS
 62
     7
 10
-111.6946600499138
 20
114.3346447590215
 40
1.5
  0
CIRCLE
  8
0
  6
CONTINUOUS
 62
     7
 10
-107.1946600499138
 20
118.8346447590215
 40
1.899999976158142
  0
ARC
  8
0
  6
CONTINUOUS
 62
     7
 10
-113.3446600499138
 20
178.8537237063899
 40
0.4
 50
270.0000000000005
 51
360
  0
ARC
  8
0
  6
CONTINUOUS
 62
     7
 10
-110.0446600499138
 20
178.8537237063899
 40
0.4
 50
180.0000000000004
 51
270.0000000000005
  0
ARC
  8
0
  6
CONTINUOUS
 62
     7
 10
-111.6946600499138
 20
172.8498072268133
 40
5.603916479576535
 50
78.14794673878969
 51
85.90682377706817
  0
ARC
  8
0
  6
CONTINUOUS
 62
     7
 10
-111.6946600499138
 20
172.8498072268133
 40
5.603916479576535
 50
94.09317622293183
 51
101.8520532612105
  0
ARC
  8
0
  6
CONTINUOUS
 62
     7
 10
-113.4951409970755
 20
176.6283605965059
 40
1.825363109883962
 50
69.15567499394618
 51
90.00000310255719
  0
ARC
  8
0
  6
CONTINUOUS
 62
     7
 10
-109.8941791027522
 20
176.6283605965021
 40
1.825363109887769
 50
89.99999852091403
 51
110.8443250060088
  0
ARC
  8
0
  6
CONTINUOUS
 62
     7
 10
-120.1192969400261
 20
170.1532427592282
 40
1.825363109887769
 50
159.1556749939906
 51
180.0000014790867
  0
ARC
  8
0
  6
CONTINUOUS
 62
     7
 10
-120.1192969400298
 20
173.7542046535516
 40
1.825363109883962
 50
179.9999968974428
 51
200.8443250060555
  0
ARC
  8
0
  6
CONTINUOUS
 62
     7
 10
-116.3407435703373
 20
171.9537237063899
 40
5.603916479576535
 50
168.1479467387895
 51
175.9068237770682
  0
ARC
  8
0
  6
CONTINUOUS
 62
     7
 10
-116.3407435703373
 20
171.9537237063899
 40
5.603916479576535
 50
184.0931762229331
 51
191.8520532612118
  0
ARC
  8
0
  6
CONTINUOUS
 62
     7
 10
-120.1192969400261
 20
112.5341638118598
 40
1.825363109887769
 50
159.1556749939912
 51
180.0000014790876
  0
ARC
  8
0
  6
CONTINUOUS
 62
     7
 10
-120.1192969400298
 20
116.1351257061832
 40
1.825363109883962
 50
179.9999968974428
 51
200.8443250060551
  0
ARC
  8
0
  6
CONTINUOUS
 62
     7
 10
-116.3407435703373
 20
114.3346447590215
 40
5.603916479576535
 50
168.1479467387895
 51
175.9068237770682
  0
ARC
  8
0
  6
CONTINUOUS
 62
     7
 10
-116.3407435703373
 20
114.3346447590215
 40
5.603916479576535
 50
184.0931762229333
 51
191.8520532612118
  0
CIRCLE
  8
0
  6
CONTINUOUS
 62
     7
 10
-107.1946600499138
 20
118.8346447590215
 40
1.75
  0
CIRCLE
  8
0
  6
CONTINUOUS
 62
     7
 10
-116.1946600499138
 20
109.8346447590215
 40
1.75
  0
CIRCLE
  8
0
  6
CONTINUOUS
 62
     7
 10
-107.1946600499138
 20
109.8346447590215
 40
2
  0
CIRCLE
  8
0
  6
CONTINUOUS
 62
     7
 10
-116.1946600499138
 20
118.8346447590215
 40
2
  0
ARC
  8
0
  6
CONTINUOUS
 62
     7
 10
-54.24467836046071
 20
175.6537359134212
 40
0.300000011920929
 50
359.9999974955246
 51
90.00000000000019
  0
ARC
  8
0
  6
DASHED
 62
     7
 10
-60.94466004991378
 20
171.9537237063899
 40
4
 50
311.4096221092723
 51
4.379435104588699
  0
ARC
  8
0
  6
CONTINUOUS
 62
     7
 10
-67.64465699815602
 20
175.6537359134212
 40
0.300000011920929
 50
90.00000000000019
 51
180.0000025044824
  0
CIRCLE
  8
0
  6
CONTINUOUS
 62
     7
 10
-60.94466004991378
 20
165.3537237063899
 40
1.5
  0
CIRCLE
  8
0
  6
CONTINUOUS
 62
     7
 10
-60.94466004991378
 20
157.3537237063899
 40
1.5
  0
CIRCLE
  8
0
  6
CONTINUOUS
 62
     7
 10
-60.94466004991378
 20
165.3537237063899
 40
1.2
  0
CIRCLE
  8
0
  6
CONTINUOUS
 62
     7
 10
-60.94466004991378
 20
157.3537237063899
 40
1.2
  0
ARC
  8
0
  6
CONTINUOUS
 62
     7
 10
-65.94466004991378
 20
170.3537237063899
 40
2
 50
90.00000000000019
 51
180.0000000000015
  0
ARC
  8
0
  6
CONTINUOUS
 62
     7
 10
-55.94466004991378
 20
170.3537237063899
 40
2
 50
0
 51
90.00000000000019
  0
ARC
  8
0
  6
DASHED
 62
     7
 10
-60.94466004991378
 20
171.9537237063899
 40
4
 50
177.4801016336099
 51
228.5903778907304
  0
ARC
  8
0
  6
CONTINUOUS
 62
     7
 10
-60.94466004991378
 20
171.9537237063899
 40
4
 50
6.492922595986179
 51
175.366614142212
  0
ARC
  8
0
  6
CONTINUOUS
 62
     7
 10
-62.59466004991381
 20
178.85372370639
 40
0.4
 50
270.0000000000005
 51
360
  0
ARC
  8
0
  6
CONTINUOUS
 62
     7
 10
-59.2946600499138
 20
178.85372370639
 40
0.4
 50
180.0000000000004
 51
270.0000000000005
  0
ARC
  8
0
  6
CONTINUOUS
 62
     7
 10
-60.94466004991378
 20
172.8498072268133
 40
5.603916479576535
 50
78.14794673878983
 51
85.90682377706817
  0
ARC
  8
0
  6
CONTINUOUS
 62
     7
 10
-60.94466004991378
 20
172.8498072268133
 40
5.603916479576535
 50
94.09317622293183
 51
101.8520532612105
  0
ARC
  8
0
  6
CONTINUOUS
 62
     7
 10
-62.74514099707548
 20
176.628360596506
 40
1.825363109883962
 50
69.15567499394618
 51
90.00000310255719
  0
ARC
  8
0
  6
CONTINUOUS
 62
     7
 10
-59.14417910275219
 20
176.6283605965021
 40
1.825363109887769
 50
89.99999852091403
 51
110.8443250060084
  0
TEXT
  8
0
  6
CONTINUOUS
 62
     7
 10
-111.7312930587144
 20
165.3287887169622
 40
1
 41
0.8508399830144996
  1
ＵＭＣＤ－５Ｐ
 50
90.00000000000003
  0
TEXT
  8
0
  6
CONTINUOUS
 62
     7
 10
-111.7312930587144
 20
156.205811980429
 40
1.5
 41
0.8594350199193058
  1
ＳＴＡＲ
 50
90.00000000000003
  0
TEXT
  8
0
  6
CONTINUOUS
 62
     7
 10
-114.2503893191023
 20
157.4387744518862
 40
1
 41
0.8458650135877966
  1
ＭＩＮＩ－ＣＹＬＩＮＤＥＲ
 50
90.00000000000003
  0
TEXT
  8
0
  6
CONTINUOUS
 62
     7
 10
-109.3603789312906
 20
159.5315078999759
 40
1
 41
0.8475800124986109
  1
ＳＴＡＲＴＥＣＨＮＯ
 50
90.00000000000003
  0
TEXT
  8
0
  6
CONTINUOUS
 62
     7
 10
-57.27607731667593
 20
29.17500424815557
 40
4.800000190734863
 41
0.8440946691665613
  1
マイクロミニシリンダー
  0
TEXT
  8
0
  6
CONTINUOUS
 62
     7
 10
-46.13086456883858
 20
16.39188376275061
 40
4.800000190734863
 41
0.8463497899942289
  1
ＵＭＣＤ－５Ｐ
  0
TEXT
  8
0
  6
CONTINUOUS
 62
     7
 10
-44.85465528537488
 20
3.679000203089624
 40
4.800000190734863
 41
0.847411023324896
  1
２００１２４
  0
INSERT
  8
0
  6
CONTINUOUS
 62
     7
  2
KOZU0001
 10
-59.83761924750512
 20
164.3415672650222
  0
ENDSEC
  0
EOF
