  0
SECTION
  2
HEADER
  9
$EXTMAX
 10
1.2182922
 20
274.528
 30
0
  9
$EXTMIN
 10
-177.2301
 20
-1.0560455
 30
0
  9
$LIMMAX
 10
1.2182922
 20
274.528
  9
$LIMMIN
 10
-177.2301
 20
-1.0560455
  9
$PLIMMAX
 10
1.2182922
 20
274.528
  9
$PLIMMIN
 10
-177.2301
 20
-1.0560455
  9
$PEXTMAX
 10
1.2182922
 20
274.528
 30
0
  9
$PEXTMIN
 10
-177.2301
 20
-1.0560455
 30
0
  9
$TEXTSIZE
 40
3.2
  9
$DIMSHO
 70
     0
  9
$DIMASZ
 40
1.0
  9
$DIMTAD
 70
     1
  9
$DIMTIH
 70
     0
  9
$DIMTOH
 70
     0
  9
$DIMEXE
 40
2.54
  9
$DIMEXO
 40
2.54
  9
$DIMTVP
 40
1.0
  9
$DIMSAH
 70
     1
  9
$DIMDLE
 40
0.0
  9
$DIMTXT
 40
3.2
  9
$DIMGAP
 40
1.6
  0
ENDSEC
  0
SECTION
  2
TABLES
  0
TABLE
  2
LTYPE
 70
     39
  0
LTYPE
  2
CONTINUOUS
 70
    64
  3
Solid line
 72
    65
 73
     0
 40
0.0
  0
LTYPE
  2
ACAD_ISO02W100
 70
     0
  3
ISO dash __ __ __ __ __ __ __ __ __ __ __ __ __
 72
    65
 73
     2
 40
15.0
 49
12.0
 49
-3.0
  0
LTYPE
  2
ACAD_ISO03W100
 70
     0
  3
ISO dash space __    __    __    __    __    __
 72
    65
 73
     2
 40
30.0
 49
12.0
 49
-18.0
  0
LTYPE
  2
ACAD_ISO04W100
 70
     0
  3
ISO long-dash dot ____ . ____ . ____ . ____ . _
 72
    65
 73
     4
 40
30.0
 49
24.0
 49
-3.0
 49
0.0
 49
-3.0
  0
LTYPE
  2
ACAD_ISO05W100
 70
     0
  3
ISO long-dash double-dot ____ .. ____ .. ____ .
 72
    65
 73
     6
 40
33.0
 49
24.0
 49
-3.0
 49
0.0
 49
-3.0
 49
0.0
 49
-3.0
  0
LTYPE
  2
ACAD_ISO06W100
 70
     0
  3
ISO long-dash triple-dot ____ ... ____ ... ____
 72
    65
 73
     8
 40
36.0
 49
24.0
 49
-3.0
 49
0.0
 49
-3.0
 49
0.0
 49
-3.0
 49
0.0
 49
-3.0
  0
LTYPE
  2
ACAD_ISO07W100
 70
     0
  3
ISO dot . . . . . . . . . . . . . . . . . . . .
 72
    65
 73
     2
 40
3.0
 49
0.0
 49
-3.0
  0
LTYPE
  2
ACAD_ISO08W100
 70
     0
  3
ISO long-dash short-dash ____ __ ____ __ ____ _
 72
    65
 73
     4
 40
36.0
 49
24.0
 49
-3.0
 49
6.0
 49
-3.0
  0
LTYPE
  2
ACAD_ISO09W100
 70
     0
  3
ISO long-dash double-short-dash ____ __ __ ____
 72
    65
 73
     6
 40
45.0
 49
24.0
 49
-3.0
 49
6.0
 49
-3.0
 49
6.0
 49
-3.0
  0
LTYPE
  2
ACAD_ISO10W100
 70
     0
  3
ISO dash dot __ . __ . __ . __ . __ . __ . __ .
 72
    65
 73
     4
 40
18.0
 49
12.0
 49
-3.0
 49
0.0
 49
-3.0
  0
LTYPE
  2
ACAD_ISO11W100
 70
     0
  3
ISO double-dash dot __ __ . __ __ . __ __ . __ 
 72
    65
 73
     6
 40
33.0
 49
12.0
 49
-3.0
 49
12.0
 49
-3.0
 49
0.0
 49
-3.0
  0
LTYPE
  2
ACAD_ISO12W100
 70
     0
  3
ISO dash double-dot __ . . __ . . __ . . __ . .
 72
    65
 73
     6
 40
21.0
 49
12.0
 49
-3.0
 49
0.0
 49
-3.0
 49
0.0
 49
-3.0
  0
LTYPE
  2
ACAD_ISO13W100
 70
     0
  3
ISO double-dash double-dot __ __ . . __ __ . . 
 72
    65
 73
     8
 40
36.0
 49
12.0
 49
-3.0
 49
12.0
 49
-3.0
 49
0.0
 49
-3.0
 49
0.0
 49
-3.0
  0
LTYPE
  2
ACAD_ISO14W100
 70
     0
  3
ISO dash triple-dot __ . . . __ . . . __ . . . 
 72
    65
 73
     8
 40
24.0
 49
12.0
 49
-3.0
 49
0.0
 49
-3.0
 49
0.0
 49
-3.0
 49
0.0
 49
-3.0
  0
LTYPE
  2
ACAD_ISO15W100
 70
     0
  3
ISO double-dash triple-dot __ __ . . . __ __ . 
 72
    65
 73
    10
 40
39.0
 49
12.0
 49
-3.0
 49
12.0
 49
-3.0
 49
0.0
 49
-3.0
 49
0.0
 49
-3.0
 49
0.0
 49
-3.0
  0
LTYPE
  2
BORDER
 70
    64
  3
Border __ __ . __ __ . __ __ . __ __ . __ __ .
 72
    65
 73
     6
 40
3.5
 49
1.0
 49
-0.5
 49
1.0
 49
-0.5
 49
0.0
 49
-0.5
  0
LTYPE
  2
BORDER2
 70
    64
  3
Border (.5x) __.__.__.__.__.__.__.__.__.__.__.
 72
    65
 73
     6
 40
1.75
 49
0.5
 49
-0.25
 49
0.5
 49
-0.25
 49
0.0
 49
-0.25
  0
LTYPE
  2
BORDERX2
 70
    64
  3
Border (2x) ____  ____  .  ____  ____  .  ___
 72
    65
 73
     6
 40
7.0
 49
2.0
 49
-1.0
 49
2.0
 49
-1.0
 49
0.0
 49
-1.0
  0
LTYPE
  2
CENTER
 70
    64
  3
Center ____ _ ____ _ ____ _ ____ _ ____ _ ____
 72
    65
 73
     4
 40
12.0
 49
7.5
 49
-1.5
 49
1.5
 49
-1.5
  0
LTYPE
  2
CENTER2
 70
    64
  3
Center (.5x) ___ _ ___ _ ___ _ ___ _ ___ _ ___
 72
    65
 73
     4
 40
6.0
 49
3.75
 49
-0.75
 49
0.75
 49
-0.75
  0
LTYPE
  2
CENTERX2
 70
    64
  3
Center (2x) ________  __  ________  __  _____
 72
    65
 73
     4
 40
24.0
 49
15.0
 49
-3.0
 49
3.0
 49
-3.0
  0
LTYPE
  2
DASHDOT
 70
    64
  3
Dash dot __ . __ . __ . __ . __ . __ . __ . __
 72
    65
 73
     4
 40
6.0
 49
3.0
 49
-1.5
 49
0.0
 49
-1.5
  0
LTYPE
  2
DASHDOT2
 70
    64
  3
Dash dot (.5x) _._._._._._._._._._._._._._._.
 72
    65
 73
     4
 40
3.0
 49
1.5
 49
-0.75
 49
0.0
 49
-0.75
  0
LTYPE
  2
DASHDOTX2
 70
    64
  3
Dash dot (2x) ____  .  ____  .  ____  .  ___
 72
    65
 73
     4
 40
12.0
 49
6.0
 49
-3.0
 49
0.0
 49
-3.0
  0
LTYPE
  2
DASHED
 70
    64
  3
Dashed __ __ __ __ __ __ __ __ __ __ __ __ __ _
 72
    65
 73
     2
 40
4.5
 49
3.0
 49
-1.5
  0
LTYPE
  2
DASHED2
 70
    64
  3
Dashed (.5x) _ _ _ _ _ _ _ _ _ _ _ _ _ _ _ _ _
 72
    65
 73
     2
 40
2.25
 49
1.5
 49
-0.75
  0
LTYPE
  2
DASHEDX2
 70
    64
  3
Dashed (2x) ____  ____  ____  ____  ____  ___
 72
    65
 73
     2
 40
9.0
 49
6.0
 49
-3.0
  0
LTYPE
  2
DIVIDE
 70
    64
  3
Divide ____ . . ____ . . ____ . . ____ . . ____
 72
    65
 73
     6
 40
7.5
 49
3.0
 49
-1.5
 49
0.0
 49
-1.5
 49
0.0
 49
-1.5
  0
LTYPE
  2
DIVIDE2
 70
    64
  3
Divide (.5x) __..__..__..__..__..__..__..__.._
 72
    65
 73
     6
 40
3.75
 49
1.5
 49
-0.75
 49
0.0
 49
-0.75
 49
0.0
 49
-0.75
  0
LTYPE
  2
DIVIDEX2
 70
    64
  3
Divide (2x) ________  .  .  ________  .  .  _
 72
    65
 73
     6
 40
15.0
 49
6.0
 49
-3.0
 49
0.0
 49
-3.0
 49
0.0
 49
-3.0
  0
LTYPE
  2
DOT
 70
    64
  3
Dot . . . . . . . . . . . . . . . . . . . . . .
 72
    65
 73
     2
 40
1.5
 49
0.0
 49
-1.5
  0
LTYPE
  2
DOT2
 70
    64
  3
Dot (.5x) .....................................
 72
    65
 73
     2
 40
0.75
 49
0.0
 49
-0.75
  0
LTYPE
  2
DOTX2
 70
    64
  3
Dot (2x) .  .  .  .  .  .  .  .  .  .  .  .  . 
 72
    65
 73
     2
 40
3.0
 49
0.0
 49
-3.0
  0
LTYPE
  2
HIDDEN
 70
    64
  3
Hidden __ __ __ __ __ __ __ __ __ __ __ __ __ _
 72
    65
 73
     2
 40
4.5
 49
3.0
 49
-1.5
  0
LTYPE
  2
HIDDEN2
 70
    64
  3
Hidden (.5x) _ _ _ _ _ _ _ _ _ _ _ _ _ _ _ _ _
 72
    65
 73
     2
 40
2.25
 49
1.5
 49
-0.75
  0
LTYPE
  2
HIDDENX2
 70
    64
  3
Hidden (2x) ____ ____ ____ ____ ____ ____ ____
 72
    65
 73
     2
 40
9.0
 49
6.0
 49
-3.0
  0
LTYPE
  2
PHANTOM
 70
    64
  3
Phantom ______  __  __  ______  __  __  ______
 72
    65
 73
     6
 40
15.0
 49
7.5
 49
-1.5
 49
1.5
 49
-1.5
 49
1.5
 49
-1.5
  0
LTYPE
  2
PHANTOM2
 70
    64
  3
Phantom (.5x) ___ _ _ ___ _ _ ___ _ _ ___ _ _
 72
    65
 73
     6
 40
7.5
 49
3.75
 49
-0.75
 49
0.75
 49
-0.75
 49
0.75
 49
-0.75
  0
LTYPE
  2
PHANTOMX2
 70
    64
  3
Phantom (2x) ____________    ____    ____   _
 72
    65
 73
     6
 40
30.0
 49
15.0
 49
-3.0
 49
3.0
 49
-3.0
 49
3.0
 49
-3.0
  0
ENDTAB
  0
TABLE
  2
LAYER
 70
     1
  0
LAYER
  2
0
 70
     0
 62
     7
  6
CONTINUOUS
  0
ENDTAB
  0
TABLE
  2
STYLE
 70
     1
  0
STYLE
  2
STANDARD
 70
     0
 40
0.0
 41
1.0
 50
0.0
 71
     0
 42
0.2
  3
txt
  4
BIGFONT
  0
ENDTAB
  0
TABLE
  2
DIMSTYLE
 70
     0
  0
ENDTAB
  0
ENDSEC
  0
SECTION
  2
BLOCKS
  0
BLOCK
  8
0
  2
KOZU0001
 70
    64
 10
0
 20
0
  0
LINE
  8
0
  6
CONTINUOUS
 62
     7
 10
0
 20
0
 11
7.5071503
 21
18.684325
  0
LINE
  8
0
  6
CONTINUOUS
 62
     7
 10
0
 20
0
 11
0.1905598
 21
3.1565308
  0
LINE
  8
0
  6
CONTINUOUS
 62
     7
 10
0
 20
0
 11
2.0463663
 21
2.4108888
  0
TEXT
  8
0
  6
CONTINUOUS
 62
     7
 10
10.656567
 20
19.48433
 40
3.2
 41
0.86439074
  1
Ｍ５
  0
LINE
  8
0
  6
CONTINUOUS
 62
     7
 10
0
 20
0
 11
7.5071503
 21
18.684325
  0
LINE
  8
0
  6
CONTINUOUS
 62
     7
 10
7.5071472
 20
18.68433
 11
17.970564
 21
18.68433
  0
ENDBLK
  8
0
  0
BLOCK
  8
0
  2
KOZU0002
 70
    64
 10
0
 20
0
  0
LINE
  8
0
  6
CONTINUOUS
 62
     7
 10
0
 20
0
 11
7.77073
 21
11.809135
  0
LINE
  8
0
  6
CONTINUOUS
 62
     7
 10
0
 20
0
 11
0.81371452
 21
3.0557926
  0
LINE
  8
0
  6
CONTINUOUS
 62
     7
 10
0
 20
0
 11
2.4844472
 21
1.9564054
  0
TEXT
  8
0
  6
CONTINUOUS
 62
     7
 10
9.6874012
 20
12.609143
 40
3.2
 41
0.84741101
  1
Ｍ１０ｘＰ１
  0
LINE
  8
0
  6
CONTINUOUS
 62
     7
 10
0
 20
0
 11
7.77073
 21
11.809135
  0
LINE
  8
0
  6
CONTINUOUS
 62
     7
 10
7.7707272
 20
11.809143
 11
29.801401
 21
11.809143
  0
ENDBLK
  8
0
  0
ENDSEC
  0
SECTION
  2
ENTITIES
  0
POINT
  8
0
  6
CONTINUOUS
 62
     7
 10
0
 20
274.5
  0
POINT
  8
0
  6
CONTINUOUS
 62
     7
 10
0
 20
0
  0
POINT
  8
0
  6
CONTINUOUS
 62
     7
 10
-176.8
 20
0
  0
POINT
  8
0
  6
CONTINUOUS
 62
     7
 10
-176.8
 20
274.5
  0
POINT
  8
0
  6
CONTINUOUS
 62
     7
 10
0
 20
0
  0
LINE
  8
0
  6
CONTINUOUS
 62
     7
 10
-127.01127
 20
174.00494
 11
-134.51682
 21
187.00493
  0
LINE
  8
0
  6
CONTINUOUS
 62
     7
 10
-134.51682
 20
187.00494
 11
-149.52792
 21
187.00494
  0
LINE
  8
0
  6
CONTINUOUS
 62
     7
 10
-157.03346
 20
174.00495
 11
-149.52791
 21
187.00494
  0
LINE
  8
0
  6
CONTINUOUS
 62
     7
 10
-149.52792
 20
161.00496
 11
-157.03346
 21
174.00493
  0
LINE
  8
0
  6
CONTINUOUS
 62
     7
 10
-134.51682
 20
161.00494
 11
-149.52792
 21
161.00494
  0
LINE
  8
0
  6
CONTINUOUS
 62
     7
 10
-127.01127
 20
174.00494
 11
-134.51681
 21
161.00496
  0
LINE
  8
0
  6
CONTINUOUS
 62
     7
 10
-86.115791
 20
187.00494
 11
-68.115791
 21
187.00494
  0
LINE
  8
0
  6
CONTINUOUS
 62
     7
 10
-86.115791
 20
161.00494
 11
-68.115791
 21
161.00494
  0
LINE
  8
0
  6
CONTINUOUS
 62
     7
 10
-98.115791
 20
181.00494
 11
-98.115791
 21
167.00494
  0
LINE
  8
0
  6
CONTINUOUS
 62
     7
 10
-94.115791
 20
181.00494
 11
-94.115791
 21
167.00494
  0
LINE
  8
0
  6
CENTER
 62
     7
 10
-104.21163
 20
174.00494
 11
-21.971546
 21
174.00494
  0
LINE
  8
0
  6
CONTINUOUS
 62
     7
 10
-87.115791
 20
186.00494
 11
-87.115791
 21
162.00494
  0
LINE
  8
0
  6
CONTINUOUS
 62
     7
 10
-94.115791
 20
179.00494
 11
-87.115791
 21
179.00494
  0
LINE
  8
0
  6
CONTINUOUS
 62
     7
 10
-94.115791
 20
169.00494
 11
-87.115791
 21
169.00494
  0
LINE
  8
0
  6
CONTINUOUS
 62
     7
 10
-67.115791
 20
186.00494
 11
-67.115791
 21
162.00494
  0
LINE
  8
0
  6
CONTINUOUS
 62
     7
 10
-31.115791
 20
183.00494
 11
-31.115791
 21
165.00494
  0
LINE
  8
0
  6
CONTINUOUS
 62
     7
 10
-98.115791
 20
167.00494
 11
-94.115791
 21
167.00494
  0
LINE
  8
0
  6
CONTINUOUS
 62
     7
 10
-98.115791
 20
181.00494
 11
-94.115791
 21
181.00494
  0
LINE
  8
0
  6
CONTINUOUS
 62
     7
 10
-65.115791
 20
184.00494
 11
-32.115791
 21
184.00494
  0
LINE
  8
0
  6
CONTINUOUS
 62
     7
 10
-65.115791
 20
164.00494
 11
-32.115791
 21
164.00494
  0
LINE
  8
0
  6
CONTINUOUS
 62
     7
 10
-31.115787
 20
165.00494
 11
-32.115789
 21
164.00494
  0
LINE
  8
0
  6
CONTINUOUS
 62
     7
 10
-31.115785
 20
183.00493
 11
-32.115787
 21
184.00494
  0
LINE
  8
0
  6
CONTINUOUS
 62
     7
 10
-32.115791
 20
184.00494
 11
-32.115791
 21
164.00494
  0
LINE
  8
0
  6
CONTINUOUS
 62
     7
 10
-67.115791
 20
165.00494
 11
-65.115791
 21
165.00494
  0
LINE
  8
0
  6
CONTINUOUS
 62
     7
 10
-67.115791
 20
183.00494
 11
-65.115791
 21
183.00494
  0
LINE
  8
0
  6
CONTINUOUS
 62
     7
 10
-65.115791
 20
184.00494
 11
-65.115791
 21
164.00494
  0
LINE
  8
0
  6
CONTINUOUS
 62
     7
 10
-65.115791
 20
165.00494
 11
-31.115791
 21
165.00494
  0
LINE
  8
0
  6
CONTINUOUS
 62
     7
 10
-65.115791
 20
183.00494
 11
-31.115791
 21
183.00494
  0
LINE
  8
0
  6
CENTER
 62
     7
 10
-67.035789
 20
174.00494
 11
-87.195793
 21
174.00494
  0
LINE
  8
0
  6
CONTINUOUS
 62
     7
 10
-98.115791
 20
103.06448
 11
-98.115791
 21
89.064476
  0
LINE
  8
0
  6
CONTINUOUS
 62
     7
 10
-94.115791
 20
103.06448
 11
-94.115791
 21
89.064476
  0
LINE
  8
0
  6
CENTER
 62
     7
 10
-111.01184
 20
96.064476
 11
-21.971546
 21
96.064476
  0
LINE
  8
0
  6
CONTINUOUS
 62
     7
 10
-87.115791
 20
107.32281
 11
-87.115791
 21
84.806145
  0
LINE
  8
0
  6
CONTINUOUS
 62
     7
 10
-94.115791
 20
101.06448
 11
-87.115791
 21
101.06448
  0
LINE
  8
0
  6
CONTINUOUS
 62
     7
 10
-94.115791
 20
91.064476
 11
-87.115791
 21
91.064476
  0
LINE
  8
0
  6
CONTINUOUS
 62
     7
 10
-67.115791
 20
107.32281
 11
-67.115791
 21
84.806145
  0
LINE
  8
0
  6
CONTINUOUS
 62
     7
 10
-31.115791
 20
105.06448
 11
-31.115791
 21
87.064476
  0
LINE
  8
0
  6
CONTINUOUS
 62
     7
 10
-98.115791
 20
89.064476
 11
-94.115791
 21
89.064476
  0
LINE
  8
0
  6
CONTINUOUS
 62
     7
 10
-98.115791
 20
103.06448
 11
-94.115791
 21
103.06448
  0
LINE
  8
0
  6
CONTINUOUS
 62
     7
 10
-65.115791
 20
106.06448
 11
-32.115791
 21
106.06448
  0
LINE
  8
0
  6
CONTINUOUS
 62
     7
 10
-65.115791
 20
86.064476
 11
-32.115791
 21
86.064476
  0
LINE
  8
0
  6
CONTINUOUS
 62
     7
 10
-67.115791
 20
87.064476
 11
-65.115791
 21
87.064476
  0
LINE
  8
0
  6
CONTINUOUS
 62
     7
 10
-67.115791
 20
105.06448
 11
-65.115791
 21
105.06448
  0
LINE
  8
0
  6
CONTINUOUS
 62
     7
 10
-65.115791
 20
106.06448
 11
-65.115791
 21
86.064476
  0
LINE
  8
0
  6
CONTINUOUS
 62
     7
 10
-65.115791
 20
87.064476
 11
-31.115791
 21
87.064476
  0
LINE
  8
0
  6
CONTINUOUS
 62
     7
 10
-65.115791
 20
105.06448
 11
-31.115791
 21
105.06448
  0
LINE
  8
0
  6
CONTINUOUS
 62
     7
 10
-32.115791
 20
106.06448
 11
-32.115791
 21
86.064476
  0
LINE
  8
0
  6
CONTINUOUS
 62
     7
 10
-31.115792
 20
87.064478
 11
-32.115793
 21
86.064477
  0
LINE
  8
0
  6
CONTINUOUS
 62
     7
 10
-31.115794
 20
105.06448
 11
-32.115796
 21
106.06448
  0
LINE
  8
0
  6
CENTER
 62
     7
 10
-77.115791
 20
106.14447
 11
-77.115791
 21
85.984474
  0
LINE
  8
0
  6
CENTER
 62
     7
 10
-67.035789
 20
96.064476
 11
-87.195793
 21
96.064476
  0
LINE
  8
0
  6
CONTINUOUS
 62
     7
 10
-86.115791
 20
111.07558
 11
-68.115791
 21
111.07558
  0
LINE
  8
0
  6
CONTINUOUS
 62
     7
 10
-86.115791
 20
81.053368
 11
-68.115791
 21
81.053368
  0
LINE
  8
0
  6
CONTINUOUS
 62
     7
 10
-87.115791
 20
88.558922
 11
-67.115791
 21
88.558922
  0
LINE
  8
0
  6
DASHED
 62
     7
 10
-82.115791
 20
187.00494
 11
-82.115791
 21
177.00494
  0
LINE
  8
0
  6
DASHED
 62
     7
 10
-72.115791
 20
187.00494
 11
-72.115791
 21
161.00494
  0
LINE
  8
0
  6
DASHED
 62
     7
 10
-73.015793
 20
187.00494
 11
-73.015793
 21
161.00494
  0
LINE
  8
0
  6
DASHED
 62
     7
 10
-81.21579
 20
187.00494
 11
-81.21579
 21
177.00494
  0
LINE
  8
0
  6
CENTER
 62
     7
 10
-142.02237
 20
192.08495
 11
-142.02237
 21
155.92494
  0
LINE
  8
0
  6
DASHED
 62
     7
 10
-97.515793
 20
171.00494
 11
-81.21579
 21
171.00494
  0
LINE
  8
0
  6
DASHED
 62
     7
 10
-97.515793
 20
177.00494
 11
-81.21579
 21
177.00494
  0
LINE
  8
0
  6
DASHED
 62
     7
 10
-82.115791
 20
171.00494
 11
-82.115791
 21
161.00494
  0
LINE
  8
0
  6
DASHED
 62
     7
 10
-81.21579
 20
171.00494
 11
-81.21579
 21
161.00494
  0
LINE
  8
0
  6
DASHED
 62
     7
 10
-98.115781
 20
170.40493
 11
-97.51578
 21
171.00494
  0
LINE
  8
0
  6
DASHED
 62
     7
 10
-98.115796
 20
177.60494
 11
-97.515787
 21
177.00493
  0
LINE
  8
0
  6
DASHED
 62
     7
 10
-97.515793
 20
177.00494
 11
-97.515793
 21
171.00494
  0
LINE
  8
0
  6
CONTINUOUS
 62
     7
 10
-87.115791
 20
174.00494
 11
-67.115791
 21
174.00494
  0
LINE
  8
0
  6
CONTINUOUS
 62
     7
 10
-87.115793
 20
162.00494
 11
-86.115791
 21
161.00494
  0
LINE
  8
0
  6
CONTINUOUS
 62
     7
 10
-67.115782
 20
162.00494
 11
-68.115784
 21
161.00493
  0
LINE
  8
0
  6
CONTINUOUS
 62
     7
 10
-67.115788
 20
186.00494
 11
-68.115789
 21
187.00494
  0
LINE
  8
0
  6
CONTINUOUS
 62
     7
 10
-87.115794
 20
186.00495
 11
-86.115792
 21
187.00495
  0
LINE
  8
0
  6
CENTER
 62
     7
 10
-77.115791
 20
194.00018
 11
-77.115791
 21
152.15392
  0
LINE
  8
0
  6
CONTINUOUS
 62
     7
 10
-87.115791
 20
103.57003
 11
-67.115791
 21
103.57003
  0
LINE
  8
0
  6
DASHED
 62
     7
 10
-34.615796
 20
174.00494
 11
-31.115796
 21
177.50494
  0
LINE
  8
0
  6
DASHED
 62
     7
 10
-34.615791
 20
174.00494
 11
-31.115786
 21
170.50493
  0
LINE
  8
0
  6
DASHED
 62
     7
 10
-34.615787
 20
96.064473
 11
-31.115789
 21
99.564471
  0
LINE
  8
0
  6
DASHED
 62
     7
 10
-34.615788
 20
96.064474
 11
-31.11579
 21
92.564476
  0
LINE
  8
0
  6
CONTINUOUS
 62
     7
 10
-176.8
 20
274.5
 11
-176.8
 21
0
  0
LINE
  8
0
  6
CONTINUOUS
 62
     7
 10
-176.8
 20
274.5
 11
0
 21
274.5
  0
LINE
  8
0
  6
CONTINUOUS
 62
     7
 10
-176.8
 20
0
 11
0
 21
0
  0
LINE
  8
0
  6
CONTINUOUS
 62
     7
 10
0
 20
274.5
 11
0
 21
0
  0
LINE
  8
0
  6
CONTINUOUS
 62
     7
 10
-61.599998
 20
38.5
 11
-61.599998
 21
0
  0
LINE
  8
0
  6
CONTINUOUS
 62
     7
 10
-61.599998
 20
12.5
 11
0
 21
12.5
  0
LINE
  8
0
  6
CONTINUOUS
 62
     7
 10
-61.599998
 20
25
 11
0
 21
25
  0
LINE
  8
0
  6
CONTINUOUS
 62
     7
 10
-61.599998
 20
38.5
 11
0
 21
38.5
  0
LINE
  8
0
  6
CONTINUOUS
 62
     7
 10
-176.60001
 20
0.2
 11
0
 21
0.2
  0
LINE
  8
0
  6
CONTINUOUS
 62
     7
 10
-176.60001
 20
274.5
 11
-176.60001
 21
0.2
  0
LINE
  8
0
  6
CONTINUOUS
 62
     7
 10
0.2
 20
274.70001
 11
0.2
 21
0
  0
LINE
  8
0
  6
CONTINUOUS
 62
     7
 10
-176.8
 20
274.70001
 11
0.2
 21
274.70001
  0
CIRCLE
  8
0
  6
CONTINUOUS
 62
     7
 10
-77.115791
 20
96.064476
 40
5
  0
CIRCLE
  8
0
  6
CONTINUOUS
 62
     7
 10
-77.115791
 20
96.064476
 40
4.0999999
  0
CIRCLE
  8
0
  6
CONTINUOUS
 62
     7
 10
-142.02237
 20
174.00494
 40
7
  0
CIRCLE
  8
0
  6
DASHED
 62
     7
 10
-142.02237
 20
174.00494
 40
5
  0
ARC
  8
0
  6
CONTINUOUS
 62
     7
 10
-65.490791
 20
167.50494
 40
21.625
 50
162.50767
 51
197.49232
  0
ARC
  8
0
  6
CONTINUOUS
 62
     7
 10
-65.490791
 20
180.50494
 40
21.625
 50
162.50767
 51
197.49232
  0
ARC
  8
0
  6
CONTINUOUS
 62
     7
 10
-88.740791
 20
167.50494
 40
21.625
 50
342.50768
 51
17.492324
  0
ARC
  8
0
  6
CONTINUOUS
 62
     7
 10
-88.740791
 20
180.50494
 40
21.625
 50
342.50768
 51
17.492324
  0
ARC
  8
0
  6
CONTINUOUS
 62
     7
 10
-79.57412
 20
84.806145
 40
7.5416665
 50
150.15828
 51
209.84173
  0
ARC
  8
0
  6
CONTINUOUS
 62
     7
 10
-58.44912
 20
96.064476
 40
28.666666
 50
164.82182
 51
195.17817
  0
ARC
  8
0
  6
CONTINUOUS
 62
     7
 10
-79.57412
 20
107.32281
 40
7.5416665
 50
150.15828
 51
209.84173
  0
ARC
  8
0
  6
CONTINUOUS
 62
     7
 10
-74.657455
 20
84.806145
 40
7.5416665
 50
330.15828
 51
29.841725
  0
ARC
  8
0
  6
CONTINUOUS
 62
     7
 10
-95.782455
 20
96.064476
 40
28.666666
 50
344.82182
 51
15.17818
  0
ARC
  8
0
  6
CONTINUOUS
 62
     7
 10
-74.657455
 20
107.32281
 40
7.5416665
 50
330.15828
 51
29.841725
  0
CIRCLE
  8
0
  6
CONTINUOUS
 62
     7
 10
-142.02237
 20
174.00494
 40
13
  0
CIRCLE
  8
0
  6
CONTINUOUS
 62
     7
 10
-142.02237
 20
174.00494
 40
3
  0
TEXT
  8
0
  6
CONTINUOUS
 62
     7
 10
-57.17545
 20
28.928085
 40
4.8000002
 41
0.84409461
  1
吸着金具固定式（ミニ）
  0
TEXT
  8
0
  6
CONTINUOUS
 62
     7
 10
-59.71721
 20
15.602684
 40
4.8000002
 41
0.84377245
  1
ＶＦＩＬＫ－ＳＳ－Ｍ１０
  0
TEXT
  8
0
  6
CONTINUOUS
 62
     7
 10
-43.899613
 20
4.2619162
 40
4.8000002
 41
0.84741096
  1
２１０６９９
  0
INSERT
  8
0
  6
CONTINUOUS
 62
     7
  2
KOZU0001
 10
-75.251685
 20
100.70399
  0
INSERT
  8
0
  6
CONTINUOUS
 62
     7
  2
KOZU0002
 10
-58.047422
 20
184.00494
  0
ENDSEC
  0
EOF
