  0
SECTION
  2
HEADER
  9
$EXTMAX
 10
0
 20
297
 30
0
  9
$EXTMIN
 10
-420
 20
0
 30
0
  9
$LIMMAX
 10
0
 20
297
  9
$LIMMIN
 10
-420
 20
0
  9
$PLIMMAX
 10
0
 20
297
  9
$PLIMMIN
 10
-420
 20
0
  9
$PEXTMAX
 10
0
 20
297
 30
0
  9
$PEXTMIN
 10
-420
 20
0
 30
0
  9
$TEXTSIZE
 40
3.2
  9
$DIMSHO
 70
     0
  9
$DIMASZ
 40
1.0
  9
$DIMTAD
 70
     1
  9
$DIMTIH
 70
     0
  9
$DIMTOH
 70
     0
  9
$DIMEXE
 40
2.54
  9
$DIMEXO
 40
2.54
  9
$DIMTVP
 40
1.0
  9
$DIMSAH
 70
     1
  9
$DIMDLE
 40
0.0
  9
$DIMTXT
 40
3.2
  9
$DIMGAP
 40
1.6
  0
ENDSEC
  0
SECTION
  2
TABLES
  0
TABLE
  2
LTYPE
 70
     39
  0
LTYPE
  2
CONTINUOUS
 70
    64
  3
Solid line
 72
    65
 73
     0
 40
0.0
  0
LTYPE
  2
ACAD_ISO02W100
 70
     0
  3
ISO dash __ __ __ __ __ __ __ __ __ __ __ __ __
 72
    65
 73
     2
 40
15.0
 49
12.0
 49
-3.0
  0
LTYPE
  2
ACAD_ISO03W100
 70
     0
  3
ISO dash space __    __    __    __    __    __
 72
    65
 73
     2
 40
30.0
 49
12.0
 49
-18.0
  0
LTYPE
  2
ACAD_ISO04W100
 70
     0
  3
ISO long-dash dot ____ . ____ . ____ . ____ . _
 72
    65
 73
     4
 40
30.0
 49
24.0
 49
-3.0
 49
0.0
 49
-3.0
  0
LTYPE
  2
ACAD_ISO05W100
 70
     0
  3
ISO long-dash double-dot ____ .. ____ .. ____ .
 72
    65
 73
     6
 40
33.0
 49
24.0
 49
-3.0
 49
0.0
 49
-3.0
 49
0.0
 49
-3.0
  0
LTYPE
  2
ACAD_ISO06W100
 70
     0
  3
ISO long-dash triple-dot ____ ... ____ ... ____
 72
    65
 73
     8
 40
36.0
 49
24.0
 49
-3.0
 49
0.0
 49
-3.0
 49
0.0
 49
-3.0
 49
0.0
 49
-3.0
  0
LTYPE
  2
ACAD_ISO07W100
 70
     0
  3
ISO dot . . . . . . . . . . . . . . . . . . . .
 72
    65
 73
     2
 40
3.0
 49
0.0
 49
-3.0
  0
LTYPE
  2
ACAD_ISO08W100
 70
     0
  3
ISO long-dash short-dash ____ __ ____ __ ____ _
 72
    65
 73
     4
 40
36.0
 49
24.0
 49
-3.0
 49
6.0
 49
-3.0
  0
LTYPE
  2
ACAD_ISO09W100
 70
     0
  3
ISO long-dash double-short-dash ____ __ __ ____
 72
    65
 73
     6
 40
45.0
 49
24.0
 49
-3.0
 49
6.0
 49
-3.0
 49
6.0
 49
-3.0
  0
LTYPE
  2
ACAD_ISO10W100
 70
     0
  3
ISO dash dot __ . __ . __ . __ . __ . __ . __ .
 72
    65
 73
     4
 40
18.0
 49
12.0
 49
-3.0
 49
0.0
 49
-3.0
  0
LTYPE
  2
ACAD_ISO11W100
 70
     0
  3
ISO double-dash dot __ __ . __ __ . __ __ . __ 
 72
    65
 73
     6
 40
33.0
 49
12.0
 49
-3.0
 49
12.0
 49
-3.0
 49
0.0
 49
-3.0
  0
LTYPE
  2
ACAD_ISO12W100
 70
     0
  3
ISO dash double-dot __ . . __ . . __ . . __ . .
 72
    65
 73
     6
 40
21.0
 49
12.0
 49
-3.0
 49
0.0
 49
-3.0
 49
0.0
 49
-3.0
  0
LTYPE
  2
ACAD_ISO13W100
 70
     0
  3
ISO double-dash double-dot __ __ . . __ __ . . 
 72
    65
 73
     8
 40
36.0
 49
12.0
 49
-3.0
 49
12.0
 49
-3.0
 49
0.0
 49
-3.0
 49
0.0
 49
-3.0
  0
LTYPE
  2
ACAD_ISO14W100
 70
     0
  3
ISO dash triple-dot __ . . . __ . . . __ . . . 
 72
    65
 73
     8
 40
24.0
 49
12.0
 49
-3.0
 49
0.0
 49
-3.0
 49
0.0
 49
-3.0
 49
0.0
 49
-3.0
  0
LTYPE
  2
ACAD_ISO15W100
 70
     0
  3
ISO double-dash triple-dot __ __ . . . __ __ . 
 72
    65
 73
    10
 40
39.0
 49
12.0
 49
-3.0
 49
12.0
 49
-3.0
 49
0.0
 49
-3.0
 49
0.0
 49
-3.0
 49
0.0
 49
-3.0
  0
LTYPE
  2
BORDER
 70
    64
  3
Border __ __ . __ __ . __ __ . __ __ . __ __ .
 72
    65
 73
     6
 40
3.5
 49
1.0
 49
-0.5
 49
1.0
 49
-0.5
 49
0.0
 49
-0.5
  0
LTYPE
  2
BORDER2
 70
    64
  3
Border (.5x) __.__.__.__.__.__.__.__.__.__.__.
 72
    65
 73
     6
 40
1.75
 49
0.5
 49
-0.25
 49
0.5
 49
-0.25
 49
0.0
 49
-0.25
  0
LTYPE
  2
BORDERX2
 70
    64
  3
Border (2x) ____  ____  .  ____  ____  .  ___
 72
    65
 73
     6
 40
7.0
 49
2.0
 49
-1.0
 49
2.0
 49
-1.0
 49
0.0
 49
-1.0
  0
LTYPE
  2
CENTER
 70
    64
  3
Center ____ _ ____ _ ____ _ ____ _ ____ _ ____
 72
    65
 73
     4
 40
12.0
 49
7.5
 49
-1.5
 49
1.5
 49
-1.5
  0
LTYPE
  2
CENTER2
 70
    64
  3
Center (.5x) ___ _ ___ _ ___ _ ___ _ ___ _ ___
 72
    65
 73
     4
 40
6.0
 49
3.75
 49
-0.75
 49
0.75
 49
-0.75
  0
LTYPE
  2
CENTERX2
 70
    64
  3
Center (2x) ________  __  ________  __  _____
 72
    65
 73
     4
 40
24.0
 49
15.0
 49
-3.0
 49
3.0
 49
-3.0
  0
LTYPE
  2
DASHDOT
 70
    64
  3
Dash dot __ . __ . __ . __ . __ . __ . __ . __
 72
    65
 73
     4
 40
6.0
 49
3.0
 49
-1.5
 49
0.0
 49
-1.5
  0
LTYPE
  2
DASHDOT2
 70
    64
  3
Dash dot (.5x) _._._._._._._._._._._._._._._.
 72
    65
 73
     4
 40
3.0
 49
1.5
 49
-0.75
 49
0.0
 49
-0.75
  0
LTYPE
  2
DASHDOTX2
 70
    64
  3
Dash dot (2x) ____  .  ____  .  ____  .  ___
 72
    65
 73
     4
 40
12.0
 49
6.0
 49
-3.0
 49
0.0
 49
-3.0
  0
LTYPE
  2
DASHED
 70
    64
  3
Dashed __ __ __ __ __ __ __ __ __ __ __ __ __ _
 72
    65
 73
     2
 40
4.5
 49
3.0
 49
-1.5
  0
LTYPE
  2
DASHED2
 70
    64
  3
Dashed (.5x) _ _ _ _ _ _ _ _ _ _ _ _ _ _ _ _ _
 72
    65
 73
     2
 40
2.25
 49
1.5
 49
-0.75
  0
LTYPE
  2
DASHEDX2
 70
    64
  3
Dashed (2x) ____  ____  ____  ____  ____  ___
 72
    65
 73
     2
 40
9.0
 49
6.0
 49
-3.0
  0
LTYPE
  2
DIVIDE
 70
    64
  3
Divide ____ . . ____ . . ____ . . ____ . . ____
 72
    65
 73
     6
 40
7.5
 49
3.0
 49
-1.5
 49
0.0
 49
-1.5
 49
0.0
 49
-1.5
  0
LTYPE
  2
DIVIDE2
 70
    64
  3
Divide (.5x) __..__..__..__..__..__..__..__.._
 72
    65
 73
     6
 40
3.75
 49
1.5
 49
-0.75
 49
0.0
 49
-0.75
 49
0.0
 49
-0.75
  0
LTYPE
  2
DIVIDEX2
 70
    64
  3
Divide (2x) ________  .  .  ________  .  .  _
 72
    65
 73
     6
 40
15.0
 49
6.0
 49
-3.0
 49
0.0
 49
-3.0
 49
0.0
 49
-3.0
  0
LTYPE
  2
DOT
 70
    64
  3
Dot . . . . . . . . . . . . . . . . . . . . . .
 72
    65
 73
     2
 40
1.5
 49
0.0
 49
-1.5
  0
LTYPE
  2
DOT2
 70
    64
  3
Dot (.5x) .....................................
 72
    65
 73
     2
 40
0.75
 49
0.0
 49
-0.75
  0
LTYPE
  2
DOTX2
 70
    64
  3
Dot (2x) .  .  .  .  .  .  .  .  .  .  .  .  . 
 72
    65
 73
     2
 40
3.0
 49
0.0
 49
-3.0
  0
LTYPE
  2
HIDDEN
 70
    64
  3
Hidden __ __ __ __ __ __ __ __ __ __ __ __ __ _
 72
    65
 73
     2
 40
4.5
 49
3.0
 49
-1.5
  0
LTYPE
  2
HIDDEN2
 70
    64
  3
Hidden (.5x) _ _ _ _ _ _ _ _ _ _ _ _ _ _ _ _ _
 72
    65
 73
     2
 40
2.25
 49
1.5
 49
-0.75
  0
LTYPE
  2
HIDDENX2
 70
    64
  3
Hidden (2x) ____ ____ ____ ____ ____ ____ ____
 72
    65
 73
     2
 40
9.0
 49
6.0
 49
-3.0
  0
LTYPE
  2
PHANTOM
 70
    64
  3
Phantom ______  __  __  ______  __  __  ______
 72
    65
 73
     6
 40
15.0
 49
7.5
 49
-1.5
 49
1.5
 49
-1.5
 49
1.5
 49
-1.5
  0
LTYPE
  2
PHANTOM2
 70
    64
  3
Phantom (.5x) ___ _ _ ___ _ _ ___ _ _ ___ _ _
 72
    65
 73
     6
 40
7.5
 49
3.75
 49
-0.75
 49
0.75
 49
-0.75
 49
0.75
 49
-0.75
  0
LTYPE
  2
PHANTOMX2
 70
    64
  3
Phantom (2x) ____________    ____    ____   _
 72
    65
 73
     6
 40
30.0
 49
15.0
 49
-3.0
 49
3.0
 49
-3.0
 49
3.0
 49
-3.0
  0
ENDTAB
  0
TABLE
  2
LAYER
 70
     1
  0
LAYER
  2
0
 70
     0
 62
     7
  6
CONTINUOUS
  0
ENDTAB
  0
TABLE
  2
STYLE
 70
     1
  0
STYLE
  2
STANDARD
 70
     0
 40
0.0
 41
1.0
 50
0.0
 71
     0
 42
0.2
  3
txt
  4
BIGFONT
  0
ENDTAB
  0
TABLE
  2
DIMSTYLE
 70
     0
  0
ENDTAB
  0
ENDSEC
  0
SECTION
  2
BLOCKS
  0
BLOCK
  8
0
  2
KOZU0001
 70
    64
 10
0
 20
0
  0
LINE
  8
0
  6
CONTINUOUS
 62
     7
 10
0
 20
0
 11
9.1548903
 21
11.34602
  0
LINE
  8
0
  6
CONTINUOUS
 62
     7
 10
0
 20
0
 11
1.1056153
 21
2.9627039
  0
LINE
  8
0
  6
CONTINUOUS
 62
     7
 10
0
 20
0
 11
2.6621146
 21
1.7067939
  0
TEXT
  8
0
  6
CONTINUOUS
 62
     7
 10
10.650003
 20
12.14602
 40
3.2
 41
0.84741101
  1
※ｔ＝０．８
  0
LINE
  8
0
  6
CONTINUOUS
 62
     7
 10
0
 20
0
 11
9.1548903
 21
11.34602
  0
LINE
  8
0
  6
CONTINUOUS
 62
     7
 10
9.1548877
 20
11.346019
 11
30.184001
 21
11.346019
  0
ENDBLK
  8
0
  0
ENDSEC
  0
SECTION
  2
ENTITIES
  0
POINT
  8
0
  6
CONTINUOUS
 62
     7
 10
0
 20
0
  0
POINT
  8
0
  6
CONTINUOUS
 62
     7
 10
-385.79999
 20
283
  0
POINT
  8
0
  6
CONTINUOUS
 62
     7
 10
-385.79999
 20
0
  0
POINT
  8
0
  6
CONTINUOUS
 62
     7
 10
0
 20
0
  0
POINT
  8
0
  6
CONTINUOUS
 62
     7
 10
0
 20
283
  0
LINE
  8
0
  6
CONTINUOUS
 62
     7
 10
-234.06839
 20
200.22713
 11
-234.06839
 21
202.22713
  0
LINE
  8
0
  6
CONTINUOUS
 62
     7
 10
-234.06839
 20
200.22713
 11
-281.2684
 21
200.22713
  0
LINE
  8
0
  6
CONTINUOUS
 62
     7
 10
-234.06839
 20
217.67712
 11
-281.2684
 21
217.67712
  0
LINE
  8
0
  6
CENTER
 62
     7
 10
-224.81056
 20
208.95213
 11
-364.07611
 21
208.95213
  0
LINE
  8
0
  6
CONTINUOUS
 62
     7
 10
-260.43875
 20
206.45213
 11
-260.43875
 21
211.45213
  0
LINE
  8
0
  6
CONTINUOUS
 62
     7
 10
-260.43875
 20
206.45213
 11
-299.90958
 21
206.45213
  0
LINE
  8
0
  6
CONTINUOUS
 62
     7
 10
-260.43875
 20
211.45213
 11
-299.90958
 21
211.45213
  0
LINE
  8
0
  6
CONTINUOUS
 62
     7
 10
-234.06839
 20
202.22713
 11
-257.67694
 21
202.22713
  0
LINE
  8
0
  6
CONTINUOUS
 62
     7
 10
-257.67694
 20
215.67712
 11
-257.67694
 21
217.67712
  0
LINE
  8
0
  6
CONTINUOUS
 62
     7
 10
-234.06839
 20
215.67712
 11
-257.67694
 21
215.67712
  0
LINE
  8
0
  6
CONTINUOUS
 62
     7
 10
-257.67694
 20
202.22713
 11
-257.67694
 21
200.22713
  0
LINE
  8
0
  6
CENTER
 62
     7
 10
-269.43875
 20
204.91212
 11
-269.43875
 21
212.99213
  0
LINE
  8
0
  6
CENTER
 62
     7
 10
-264.43875
 20
204.91212
 11
-264.43875
 21
212.99213
  0
LINE
  8
0
  6
CONTINUOUS
 62
     7
 10
-234.06839
 20
215.67712
 11
-234.06839
 21
217.67712
  0
LINE
  8
0
  6
CONTINUOUS
 62
     7
 10
-233.56839
 20
206.45213
 11
-233.56839
 21
211.45213
  0
LINE
  8
0
  6
CONTINUOUS
 62
     7
 10
-237.56839
 20
202.72713
 11
-237.56839
 21
206.45213
  0
LINE
  8
0
  6
CONTINUOUS
 62
     7
 10
-233.56839
 20
211.45213
 11
-237.56839
 21
211.45213
  0
LINE
  8
0
  6
CONTINUOUS
 62
     7
 10
-233.56839
 20
206.45213
 11
-237.56839
 21
206.45213
  0
LINE
  8
0
  6
CONTINUOUS
 62
     7
 10
-237.56839
 20
211.45213
 11
-237.56839
 21
215.17712
  0
LINE
  8
0
  6
CONTINUOUS
 62
     7
 10
-237.56839
 20
215.17712
 11
-243.02275
 21
215.17712
  0
LINE
  8
0
  6
CONTINUOUS
 62
     7
 10
-237.56839
 20
202.72713
 11
-243.02275
 21
202.72713
  0
LINE
  8
0
  6
CONTINUOUS
 62
     7
 10
-245.31404
 20
215.17712
 11
-255.02275
 21
215.17712
  0
LINE
  8
0
  6
CONTINUOUS
 62
     7
 10
-245.31404
 20
202.72713
 11
-255.02275
 21
202.72713
  0
LINE
  8
0
  6
CONTINUOUS
 62
     7
 10
-243.4184
 20
202.22713
 11
-243.4184
 21
203.22713
  0
LINE
  8
0
  6
CONTINUOUS
 62
     7
 10
-244.9184
 20
202.22713
 11
-244.9184
 21
203.22713
  0
LINE
  8
0
  6
CONTINUOUS
 62
     7
 10
-244.9184
 20
214.42712
 11
-244.9184
 21
215.67712
  0
LINE
  8
0
  6
CONTINUOUS
 62
     7
 10
-243.4184
 20
214.67712
 11
-243.4184
 21
215.67712
  0
LINE
  8
0
  6
CONTINUOUS
 62
     7
 10
-256.1684
 20
214.42712
 11
-260.43875
 21
214.42712
  0
LINE
  8
0
  6
CONTINUOUS
 62
     7
 10
-256.1684
 20
203.47713
 11
-260.43875
 21
203.47713
  0
LINE
  8
0
  6
CONTINUOUS
 62
     7
 10
-299.90959
 20
206.45212
 11
-362.07613
 21
207.95212
  0
LINE
  8
0
  6
CONTINUOUS
 62
     7
 10
-362.0761
 20
209.95212
 11
-299.90956
 21
211.45212
  0
LINE
  8
0
  6
CONTINUOUS
 62
     7
 10
-362.07611
 20
209.95213
 11
-362.07611
 21
207.95213
  0
LINE
  8
0
  6
CONTINUOUS
 62
     7
 10
-235.68002
 20
135.21562
 11
-255.68456
 21
135.21562
  0
LINE
  8
0
  6
CONTINUOUS
 62
     7
 10
-259.90106
 20
128.91562
 11
-282.1684
 21
128.91562
  0
LINE
  8
0
  6
CONTINUOUS
 62
     7
 10
-257.90863
 20
130.74131
 11
-257.6769
 21
133.38995
  0
LINE
  8
0
  6
CONTINUOUS
 62
     7
 10
-233.1684
 20
127.41562
 11
-282.1684
 21
127.41562
  0
LINE
  8
0
  6
CONTINUOUS
 62
     7
 10
-231.26839
 20
120.01563
 11
-233.6684
 21
120.01563
  0
LINE
  8
0
  6
CONTINUOUS
 62
     7
 10
-260.42012
 20
137.58137
 11
-362.00179
 21
154.61563
  0
LINE
  8
0
  6
CONTINUOUS
 62
     7
 10
-257.08964
 20
136.21171
 11
-362.1341
 21
153.82664
  0
LINE
  8
0
  6
CONTINUOUS
 62
     7
 10
-362.00179
 20
154.61563
 11
-362.13409
 21
153.82664
  0
LINE
  8
0
  6
CONTINUOUS
 62
     7
 10
-260.42011
 20
137.58137
 11
-260.55242
 21
136.79239
  0
LINE
  8
0
  6
CONTINUOUS
 62
     7
 10
-271.40095
 20
138.61158
 11
-271.53325
 21
137.8226
  0
LINE
  8
0
  6
CONTINUOUS
 62
     7
 10
-257.22194
 20
135.42273
 11
-271.53326
 21
137.8226
  0
LINE
  8
0
  6
CENTER
 62
     7
 10
-244.1684
 20
135.45563
 11
-244.1684
 21
128.37563
  0
LINE
  8
0
  6
CENTER
 62
     7
 10
-240.62839
 20
131.91562
 11
-247.70839
 21
131.91562
  0
LINE
  8
0
  6
CENTER
 62
     7
 10
-264.05085
 20
140.11673
 11
-264.94391
 21
134.79109
  0
LINE
  8
0
  6
CENTER
 62
     7
 10
-268.98197
 20
140.94363
 11
-269.87503
 21
135.618
  0
LINE
  8
0
  6
CONTINUOUS
 62
     7
 10
-268.5262
 20
136.40578
 11
-270.89315
 21
136.80269
  0
LINE
  8
0
  6
CONTINUOUS
 62
     7
 10
-270.74428
 20
137.6903
 11
-270.89312
 21
136.80269
  0
LINE
  8
0
  6
CONTINUOUS
 62
     7
 10
-268.37733
 20
137.29337
 11
-268.52618
 21
136.40578
  0
LINE
  8
0
  6
CONTINUOUS
 62
     7
 10
-263.44619
 20
136.46648
 11
-263.59504
 21
135.57887
  0
LINE
  8
0
  6
CONTINUOUS
 62
     7
 10
-263.59505
 20
135.57887
 11
-265.962
 21
135.97578
  0
LINE
  8
0
  6
CONTINUOUS
 62
     7
 10
-265.81313
 20
136.86339
 11
-265.96197
 21
135.97578
  0
LINE
  8
0
  6
PHANTOM
 62
     7
 10
-257.62219
 20
134.01563
 11
-364.13333
 21
134.01563
  0
LINE
  8
0
  6
PHANTOM
 62
     7
 10
-257.62219
 20
133.21562
 11
-272.13333
 21
133.21562
  0
LINE
  8
0
  6
PHANTOM
 62
     7
 10
-261.13333
 20
134.81563
 11
-261.13333
 21
134.01563
  0
LINE
  8
0
  6
PHANTOM
 62
     7
 10
-261.13333
 20
134.81563
 11
-364.13333
 21
134.81563
  0
LINE
  8
0
  6
PHANTOM
 62
     7
 10
-263.93335
 20
133.21562
 11
-263.93335
 21
132.31563
  0
LINE
  8
0
  6
PHANTOM
 62
     7
 10
-263.93335
 20
132.31563
 11
-266.33334
 21
132.31563
  0
LINE
  8
0
  6
PHANTOM
 62
     7
 10
-266.33334
 20
133.21562
 11
-266.33334
 21
132.31563
  0
LINE
  8
0
  6
CENTER
 62
     7
 10
-265.13333
 20
136.71562
 11
-265.13333
 21
131.31563
  0
LINE
  8
0
  6
CENTER
 62
     7
 10
-270.13333
 20
136.71562
 11
-270.13333
 21
131.31563
  0
LINE
  8
0
  6
PHANTOM
 62
     7
 10
-272.13333
 20
134.01563
 11
-272.13333
 21
133.21562
  0
LINE
  8
0
  6
PHANTOM
 62
     7
 10
-271.33334
 20
133.21562
 11
-271.33334
 21
132.31563
  0
LINE
  8
0
  6
PHANTOM
 62
     7
 10
-268.93335
 20
132.31563
 11
-271.33334
 21
132.31563
  0
LINE
  8
0
  6
PHANTOM
 62
     7
 10
-268.93335
 20
133.21562
 11
-268.93335
 21
132.31563
  0
LINE
  8
0
  6
PHANTOM
 62
     7
 10
-364.13333
 20
134.81563
 11
-364.13333
 21
134.01563
  0
LINE
  8
0
  6
CENTER
 62
     7
 10
-194.25459
 20
157.61563
 11
-194.25459
 21
89.415627
  0
LINE
  8
0
  6
CONTINUOUS
 62
     7
 10
-202.87961
 20
135.21562
 11
-199.62959
 21
135.21562
  0
LINE
  8
0
  6
CONTINUOUS
 62
     7
 10
-202.4796
 20
128.91562
 11
-186.02959
 21
128.91562
  0
LINE
  8
0
  6
CONTINUOUS
 62
     7
 10
-202.4796
 20
127.41562
 11
-186.02959
 21
127.41562
  0
LINE
  8
0
  6
CONTINUOUS
 62
     7
 10
-188.87959
 20
135.21562
 11
-188.87959
 21
128.91562
  0
LINE
  8
0
  6
CONTINUOUS
 62
     7
 10
-199.62959
 20
135.21562
 11
-199.62959
 21
128.91562
  0
LINE
  8
0
  6
CONTINUOUS
 62
     7
 10
-188.87959
 20
135.21562
 11
-185.62959
 21
135.21562
  0
LINE
  8
0
  6
CONTINUOUS
 62
     7
 10
-196.75459
 20
134.81563
 11
-191.75459
 21
134.81563
  0
LINE
  8
0
  6
CONTINUOUS
 62
     7
 10
-197.12959
 20
134.01563
 11
-191.37959
 21
134.01563
  0
LINE
  8
0
  6
CONTINUOUS
 62
     7
 10
-196.75459
 20
134.81563
 11
-196.75459
 21
134.01563
  0
LINE
  8
0
  6
CONTINUOUS
 62
     7
 10
-191.75459
 20
134.81563
 11
-191.75459
 21
134.01563
  0
LINE
  8
0
  6
CONTINUOUS
 62
     7
 10
-189.37959
 20
132.01563
 11
-189.37959
 21
130.41562
  0
LINE
  8
0
  6
CONTINUOUS
 62
     7
 10
-199.12959
 20
132.01563
 11
-199.12959
 21
130.41562
  0
LINE
  8
0
  6
CONTINUOUS
 62
     7
 10
-197.12959
 20
133.01563
 11
-191.37959
 21
133.01563
  0
LINE
  8
0
  6
CONTINUOUS
 62
     7
 10
-198.12959
 20
132.01563
 11
-198.12959
 21
130.41562
  0
LINE
  8
0
  6
CONTINUOUS
 62
     7
 10
-190.37959
 20
132.01563
 11
-190.37959
 21
130.41562
  0
LINE
  8
0
  6
CONTINUOUS
 62
     7
 10
-199.12959
 20
130.41562
 11
-198.12959
 21
130.41562
  0
LINE
  8
0
  6
CONTINUOUS
 62
     7
 10
-190.37959
 20
130.41562
 11
-189.37959
 21
130.41562
  0
LINE
  8
0
  6
CONTINUOUS
 62
     7
 10
-199.62959
 20
131.41562
 11
-199.12959
 21
131.41562
  0
LINE
  8
0
  6
CONTINUOUS
 62
     7
 10
-199.62959
 20
132.41562
 11
-199.08919
 21
132.41562
  0
LINE
  8
0
  6
CONTINUOUS
 62
     7
 10
-198.12959
 20
131.41562
 11
-190.37959
 21
131.41562
  0
LINE
  8
0
  6
CONTINUOUS
 62
     7
 10
-198.04611
 20
132.41562
 11
-190.46307
 21
132.41562
  0
LINE
  8
0
  6
CONTINUOUS
 62
     7
 10
-189.42
 20
132.41562
 11
-188.87959
 21
132.41562
  0
LINE
  8
0
  6
CONTINUOUS
 62
     7
 10
-189.37959
 20
131.41562
 11
-188.87959
 21
131.41562
  0
LINE
  8
0
  6
CONTINUOUS
 62
     7
 10
-233.1684
 20
127.45494
 11
-233.1684
 21
120.01563
  0
LINE
  8
0
  6
CONTINUOUS
 62
     7
 10
-282.1684
 20
128.91562
 11
-282.1684
 21
120.01563
  0
LINE
  8
0
  6
CONTINUOUS
 62
     7
 10
-233.16839
 20
127.45496
 11
-233.68764
 21
133.38995
  0
LINE
  8
0
  6
CONTINUOUS
 62
     7
 10
-282.2684
 20
216.67712
 11
-282.2684
 21
211.45213
  0
LINE
  8
0
  6
CONTINUOUS
 62
     7
 10
-233.06839
 20
216.67712
 11
-233.06839
 21
201.22713
  0
LINE
  8
0
  6
CONTINUOUS
 62
     7
 10
-282.2684
 20
206.45213
 11
-282.2684
 21
201.22713
  0
LINE
  8
0
  6
CONTINUOUS
 62
     7
 10
-202.87961
 20
135.21562
 11
-202.87961
 21
120.01563
  0
LINE
  8
0
  6
CONTINUOUS
 62
     7
 10
-185.62959
 20
135.21562
 11
-185.62959
 21
120.01563
  0
LINE
  8
0
  6
CONTINUOUS
 62
     7
 10
-233.76839
 20
219.45213
 11
-281.56839
 21
219.45213
  0
LINE
  8
0
  6
CONTINUOUS
 62
     7
 10
-233.6684
 20
198.45213
 11
-281.6684
 21
198.45213
  0
LINE
  8
0
  6
CONTINUOUS
 62
     7
 10
-284.06839
 20
216.95213
 11
-284.06839
 21
211.45213
  0
LINE
  8
0
  6
CONTINUOUS
 62
     7
 10
-231.26839
 20
216.95213
 11
-231.26839
 21
200.95213
  0
LINE
  8
0
  6
CONTINUOUS
 62
     7
 10
-284.06839
 20
206.45213
 11
-284.06839
 21
200.95213
  0
LINE
  8
0
  6
CONTINUOUS
 62
     7
 10
-284.06839
 20
120.01563
 11
-284.06839
 21
97.015633
  0
LINE
  8
0
  6
CONTINUOUS
 62
     7
 10
-231.26839
 20
120.01563
 11
-231.26839
 21
105.01563
  0
LINE
  8
0
  6
CONTINUOUS
 62
     7
 10
-242.26839
 20
94.015633
 11
-281.06839
 21
94.015633
  0
LINE
  8
0
  6
CONTINUOUS
 62
     7
 10
-242.26839
 20
94.015633
 11
-231.26839
 21
105.01563
  0
LINE
  8
0
  6
CONTINUOUS
 62
     7
 10
-241.5613
 20
93.308531
 11
-229.50512
 21
105.3647
  0
LINE
  8
0
  6
CONTINUOUS
 62
     7
 10
-241.56129
 20
93.308521
 11
-237.6722
 21
89.419434
  0
LINE
  8
0
  6
CONTINUOUS
 62
     7
 10
-237.67219
 20
89.41942
 11
-225.61603
 21
101.4756
  0
LINE
  8
0
  6
CONTINUOUS
 62
     7
 10
-234.6684
 20
108.01563
 11
-280.6684
 21
108.01563
  0
LINE
  8
0
  6
CONTINUOUS
 62
     7
 10
-234.6684
 20
122.01563
 11
-280.6684
 21
122.01563
  0
LINE
  8
0
  6
CONTINUOUS
 62
     7
 10
-233.6684
 20
121.01563
 11
-233.6684
 21
109.01563
  0
LINE
  8
0
  6
CONTINUOUS
 62
     7
 10
-281.6684
 20
121.01563
 11
-281.6684
 21
109.01563
  0
LINE
  8
0
  6
CONTINUOUS
 62
     7
 10
-281.6684
 20
120.01563
 11
-284.06839
 21
120.01563
  0
LINE
  8
0
  6
CENTER
 62
     7
 10
-270.36838
 20
122.51563
 11
-270.36838
 21
107.51563
  0
LINE
  8
0
  6
CENTER
 62
     7
 10
-262.86838
 20
115.01563
 11
-277.86838
 21
115.01563
  0
LINE
  8
0
  6
CONTINUOUS
 62
     7
 10
-271.86839
 20
115.88163
 11
-270.36838
 21
116.74765
  0
LINE
  8
0
  6
CONTINUOUS
 62
     7
 10
-270.3684
 20
113.28356
 11
-268.86839
 21
114.1496
  0
LINE
  8
0
  6
CONTINUOUS
 62
     7
 10
-270.36842
 20
116.74768
 11
-268.86842
 21
115.88165
  0
LINE
  8
0
  6
CONTINUOUS
 62
     7
 10
-271.86842
 20
114.14961
 11
-270.36842
 21
113.28358
  0
LINE
  8
0
  6
CONTINUOUS
 62
     7
 10
-268.86838
 20
115.88165
 11
-268.86838
 21
114.1496
  0
LINE
  8
0
  6
CONTINUOUS
 62
     7
 10
-271.86838
 20
115.88165
 11
-271.86838
 21
114.1496
  0
LINE
  8
0
  6
CONTINUOUS
 62
     7
 10
-281.6684
 20
198.45213
 11
-281.6684
 21
197.45213
  0
LINE
  8
0
  6
CONTINUOUS
 62
     7
 10
-233.6684
 20
198.45213
 11
-233.6684
 21
197.45213
  0
LINE
  8
0
  6
CONTINUOUS
 62
     7
 10
-233.6684
 20
197.45213
 11
-281.6684
 21
197.45213
  0
LINE
  8
0
  6
CONTINUOUS
 62
     7
 10
-275.26837
 20
196.65213
 11
-275.26837
 21
197.45213
  0
LINE
  8
0
  6
CONTINUOUS
 62
     7
 10
-265.46838
 20
196.65213
 11
-265.46838
 21
197.45213
  0
LINE
  8
0
  6
CONTINUOUS
 62
     7
 10
-265.46838
 20
197.45213
 11
-275.26837
 21
197.45213
  0
LINE
  8
0
  6
CONTINUOUS
 62
     7
 10
-270.4839
 20
196.65214
 11
-271.06125
 21
195.65214
  0
LINE
  8
0
  6
CONTINUOUS
 62
     7
 10
-269.67559
 20
196.65214
 11
-270.25294
 21
195.65214
  0
LINE
  8
0
  6
CONTINUOUS
 62
     7
 10
-274.1684
 20
195.90213
 11
-274.1684
 21
196.40213
  0
LINE
  8
0
  6
CONTINUOUS
 62
     7
 10
-266.56839
 20
195.90213
 11
-266.56839
 21
196.40213
  0
LINE
  8
0
  6
CONTINUOUS
 62
     7
 10
-265.46838
 20
196.65213
 11
-275.26837
 21
196.65213
  0
LINE
  8
0
  6
CONTINUOUS
 62
     7
 10
-273.86839
 20
191.95213
 11
-273.34877
 21
191.65212
  0
LINE
  8
0
  6
CENTER
 62
     7
 10
-270.36838
 20
189.65213
 11
-270.36838
 21
225.45213
  0
LINE
  8
0
  6
CONTINUOUS
 62
     7
 10
-266.86839
 20
191.95215
 11
-267.38802
 21
191.65214
  0
LINE
  8
0
  6
CONTINUOUS
 62
     7
 10
-266.86838
 20
191.95213
 11
-273.86838
 21
191.95213
  0
LINE
  8
0
  6
CONTINUOUS
 62
     7
 10
-267.388
 20
191.65213
 11
-273.34875
 21
191.65213
  0
LINE
  8
0
  6
CONTINUOUS
 62
     7
 10
-266.81839
 20
195.65213
 11
-273.9184
 21
195.65213
  0
LINE
  8
0
  6
CONTINUOUS
 62
     7
 10
-273.86838
 20
191.95213
 11
-273.86838
 21
195.65213
  0
LINE
  8
0
  6
CONTINUOUS
 62
     7
 10
-266.86838
 20
191.95213
 11
-266.86838
 21
195.65213
  0
LINE
  8
0
  6
CONTINUOUS
 62
     7
 10
-249.86839
 20
196.65213
 11
-249.86839
 21
197.45213
  0
LINE
  8
0
  6
CONTINUOUS
 62
     7
 10
-240.06841
 20
196.65213
 11
-240.06841
 21
197.45213
  0
LINE
  8
0
  6
CONTINUOUS
 62
     7
 10
-240.06841
 20
197.45213
 11
-249.86839
 21
197.45213
  0
LINE
  8
0
  6
CONTINUOUS
 62
     7
 10
-245.08386
 20
196.65213
 11
-245.66121
 21
195.65213
  0
LINE
  8
0
  6
CONTINUOUS
 62
     7
 10
-244.27555
 20
196.65211
 11
-244.8529
 21
195.65211
  0
LINE
  8
0
  6
CONTINUOUS
 62
     7
 10
-248.76842
 20
195.90213
 11
-248.76842
 21
196.40213
  0
LINE
  8
0
  6
CONTINUOUS
 62
     7
 10
-241.16841
 20
195.90213
 11
-241.16841
 21
196.40213
  0
LINE
  8
0
  6
CONTINUOUS
 62
     7
 10
-240.06841
 20
196.65213
 11
-249.86839
 21
196.65213
  0
LINE
  8
0
  6
CONTINUOUS
 62
     7
 10
-248.46838
 20
191.95212
 11
-247.94879
 21
191.65213
  0
LINE
  8
0
  6
CENTER
 62
     7
 10
-244.9684
 20
189.65213
 11
-244.9684
 21
225.45213
  0
LINE
  8
0
  6
CONTINUOUS
 62
     7
 10
-241.46841
 20
191.95216
 11
-241.98804
 21
191.65216
  0
LINE
  8
0
  6
CONTINUOUS
 62
     7
 10
-241.4684
 20
191.95213
 11
-248.4684
 21
191.95213
  0
LINE
  8
0
  6
CONTINUOUS
 62
     7
 10
-241.98802
 20
191.65213
 11
-247.94878
 21
191.65213
  0
LINE
  8
0
  6
CONTINUOUS
 62
     7
 10
-241.41841
 20
195.65213
 11
-248.51842
 21
195.65213
  0
LINE
  8
0
  6
CONTINUOUS
 62
     7
 10
-248.4684
 20
191.95213
 11
-248.4684
 21
195.65213
  0
LINE
  8
0
  6
CONTINUOUS
 62
     7
 10
-241.4684
 20
191.95213
 11
-241.4684
 21
195.65213
  0
LINE
  8
0
  6
CONTINUOUS
 62
     7
 10
-237.6684
 20
222.45213
 11
-277.6684
 21
222.45213
  0
LINE
  8
0
  6
CONTINUOUS
 62
     7
 10
-237.6684
 20
219.45213
 11
-237.6684
 21
222.45213
  0
LINE
  8
0
  6
CONTINUOUS
 62
     7
 10
-277.6684
 20
219.45213
 11
-277.6684
 21
222.45213
  0
LINE
  8
0
  6
CONTINUOUS
 62
     7
 10
-277.6684
 20
94.015633
 11
-277.6684
 21
85.015633
  0
LINE
  8
0
  6
CONTINUOUS
 62
     7
 10
-237.6684
 20
89.415627
 11
-237.6684
 21
85.015633
  0
LINE
  8
0
  6
CONTINUOUS
 62
     7
 10
-237.6684
 20
85.015633
 11
-277.6684
 21
85.015633
  0
LINE
  8
0
  6
CONTINUOUS
 62
     7
 10
-237.6684
 20
88.015633
 11
-277.6684
 21
88.015633
  0
LINE
  8
0
  6
CENTER
 62
     7
 10
-247.6684
 20
91.015633
 11
-247.6684
 21
82.015633
  0
LINE
  8
0
  6
CENTER
 62
     7
 10
-267.6684
 20
91.015633
 11
-267.6684
 21
82.015633
  0
LINE
  8
0
  6
CONTINUOUS
 62
     7
 10
-204.75461
 20
122.01563
 11
-204.75461
 21
96.515633
  0
LINE
  8
0
  6
CONTINUOUS
 62
     7
 10
-183.75461
 20
125.01563
 11
-183.75461
 21
88.015633
  0
LINE
  8
0
  6
CONTINUOUS
 62
     7
 10
-204.75461
 20
120.01563
 11
-183.75461
 21
120.01563
  0
LINE
  8
0
  6
CONTINUOUS
 62
     7
 10
-202.25459
 20
106.17014
 11
-202.25459
 21
95.076286
  0
LINE
  8
0
  6
CONTINUOUS
 62
     7
 10
-192.25459
 20
102.96537
 11
-192.25459
 21
99.076286
  0
LINE
  8
0
  6
CONTINUOUS
 62
     7
 10
-196.25459
 20
102.96537
 11
-196.25459
 21
99.076286
  0
LINE
  8
0
  6
CONTINUOUS
 62
     7
 10
-202.25461
 20
94.015633
 11
-202.1129
 21
94.015633
  0
LINE
  8
0
  6
CONTINUOUS
 62
     7
 10
-186.39629
 20
94.015633
 11
-186.25461
 21
94.015633
  0
LINE
  8
0
  6
CONTINUOUS
 62
     7
 10
-195.25461
 20
154.61563
 11
-193.25461
 21
154.61563
  0
LINE
  8
0
  6
CONTINUOUS
 62
     7
 10
-196.7546
 20
134.81563
 11
-195.2546
 21
154.61562
  0
LINE
  8
0
  6
CONTINUOUS
 62
     7
 10
-193.25462
 20
154.61562
 11
-191.75461
 21
134.81561
  0
LINE
  8
0
  6
CONTINUOUS
 62
     7
 10
-180.75461
 20
125.01563
 11
-180.75461
 21
85.015633
  0
LINE
  8
0
  6
CONTINUOUS
 62
     7
 10
-200.75461
 20
85.015633
 11
-180.75461
 21
85.015633
  0
LINE
  8
0
  6
CONTINUOUS
 62
     7
 10
-200.75461
 20
88.015633
 11
-183.75461
 21
88.015633
  0
LINE
  8
0
  6
CONTINUOUS
 62
     7
 10
-183.75461
 20
125.01563
 11
-180.75461
 21
125.01563
  0
LINE
  8
0
  6
CONTINUOUS
 62
     7
 10
-200.75461
 20
88.015633
 11
-200.75461
 21
85.015633
  0
LINE
  8
0
  6
CONTINUOUS
 62
     7
 10
-205.75461
 20
122.01563
 11
-204.75461
 21
122.01563
  0
LINE
  8
0
  6
CONTINUOUS
 62
     7
 10
-205.75461
 20
108.01563
 11
-204.75461
 21
108.01563
  0
LINE
  8
0
  6
CONTINUOUS
 62
     7
 10
-205.75461
 20
122.01563
 11
-205.75461
 21
108.01563
  0
LINE
  8
0
  6
CONTINUOUS
 62
     7
 10
-206.55461
 20
119.91562
 11
-205.75461
 21
119.91562
  0
LINE
  8
0
  6
CONTINUOUS
 62
     7
 10
-206.55461
 20
110.11563
 11
-205.75461
 21
110.11563
  0
LINE
  8
0
  6
CONTINUOUS
 62
     7
 10
-205.75461
 20
110.11563
 11
-205.75461
 21
119.91562
  0
LINE
  8
0
  6
CONTINUOUS
 62
     7
 10
-206.5546
 20
115.13111
 11
-207.55459
 21
115.70846
  0
LINE
  8
0
  6
CONTINUOUS
 62
     7
 10
-206.5546
 20
114.32281
 11
-207.5546
 21
114.90016
  0
LINE
  8
0
  6
CONTINUOUS
 62
     7
 10
-207.30461
 20
118.81564
 11
-206.80461
 21
118.81564
  0
LINE
  8
0
  6
CONTINUOUS
 62
     7
 10
-207.30461
 20
111.21564
 11
-206.80461
 21
111.21564
  0
LINE
  8
0
  6
CONTINUOUS
 62
     7
 10
-206.55461
 20
110.11563
 11
-206.55461
 21
119.91562
  0
LINE
  8
0
  6
CONTINUOUS
 62
     7
 10
-211.25459
 20
118.51563
 11
-211.55459
 21
117.99601
  0
LINE
  8
0
  6
CENTER
 62
     7
 10
-213.55461
 20
115.01563
 11
-177.75461
 21
115.01563
  0
LINE
  8
0
  6
CONTINUOUS
 62
     7
 10
-211.25459
 20
111.51563
 11
-211.5546
 21
112.03526
  0
LINE
  8
0
  6
CONTINUOUS
 62
     7
 10
-211.25461
 20
111.51563
 11
-211.25461
 21
118.51563
  0
LINE
  8
0
  6
CONTINUOUS
 62
     7
 10
-211.55461
 20
112.03525
 11
-211.55461
 21
117.996
  0
LINE
  8
0
  6
CONTINUOUS
 62
     7
 10
-207.55461
 20
111.46564
 11
-207.55461
 21
118.56564
  0
LINE
  8
0
  6
CONTINUOUS
 62
     7
 10
-211.25461
 20
118.51563
 11
-207.55461
 21
118.51563
  0
LINE
  8
0
  6
CONTINUOUS
 62
     7
 10
-211.25461
 20
111.51563
 11
-207.55461
 21
111.51563
  0
LINE
  8
0
  6
CENTER
 62
     7
 10
-190.75461
 20
91.015633
 11
-190.75461
 21
82.015633
  0
LINE
  8
0
  6
CONTINUOUS
 62
     7
 10
-202.25459
 20
106.17014
 11
-198.25304
 21
106.17014
  0
LINE
  8
0
  6
CONTINUOUS
 62
     7
 10
-196.2546
 20
99.076281
 11
-197.52499
 21
101.47558
  0
LINE
  8
0
  6
CONTINUOUS
 62
     7
 10
-196.2546
 20
102.96538
 11
-197.52501
 21
105.36471
  0
LINE
  8
0
  6
CONTINUOUS
 62
     7
 10
-186.25459
 20
106.17014
 11
-186.25459
 21
95.076286
  0
LINE
  8
0
  6
CONTINUOUS
 62
     7
 10
-186.25459
 20
106.17014
 11
-190.25616
 21
106.17014
  0
LINE
  8
0
  6
CONTINUOUS
 62
     7
 10
-192.2546
 20
99.076278
 11
-190.98421
 21
101.47559
  0
LINE
  8
0
  6
CONTINUOUS
 62
     7
 10
-192.25458
 20
102.96536
 11
-190.98418
 21
105.36468
  0
LINE
  8
0
  6
CONTINUOUS
 62
     7
 10
-197.34016
 20
105.01563
 11
-191.16902
 21
105.01563
  0
LINE
  8
0
  6
CENTER
 62
     7
 10
-244.9684
 20
122.51563
 11
-244.9684
 21
107.51563
  0
LINE
  8
0
  6
CENTER
 62
     7
 10
-237.4684
 20
115.01563
 11
-252.4684
 21
115.01563
  0
LINE
  8
0
  6
CONTINUOUS
 62
     7
 10
-246.46839
 20
115.88163
 11
-244.96838
 21
116.74767
  0
LINE
  8
0
  6
CONTINUOUS
 62
     7
 10
-244.96839
 20
113.28356
 11
-243.46838
 21
114.14958
  0
LINE
  8
0
  6
CONTINUOUS
 62
     7
 10
-244.96841
 20
116.74768
 11
-243.4684
 21
115.88167
  0
LINE
  8
0
  6
CONTINUOUS
 62
     7
 10
-246.46839
 20
114.1496
 11
-244.96839
 21
113.28358
  0
LINE
  8
0
  6
CONTINUOUS
 62
     7
 10
-243.4684
 20
115.88165
 11
-243.4684
 21
114.1496
  0
LINE
  8
0
  6
CONTINUOUS
 62
     7
 10
-246.4684
 20
115.88165
 11
-246.4684
 21
114.1496
  0
LINE
  8
0
  6
CONTINUOUS
 62
     7
 10
-231.26839
 20
210.95213
 11
-228.01534
 21
210.95213
  0
LINE
  8
0
  6
CONTINUOUS
 62
     7
 10
-231.26839
 20
206.95213
 11
-228.01534
 21
206.95213
  0
LINE
  8
0
  6
CONTINUOUS
 62
     7
 10
-224.81056
 20
216.95213
 11
-224.81056
 21
212.95056
  0
LINE
  8
0
  6
CONTINUOUS
 62
     7
 10
-231.26838
 20
206.61534
 11
-229.50511
 21
205.68172
  0
LINE
  8
0
  6
CONTINUOUS
 62
     7
 10
-228.01535
 20
206.95211
 11
-225.61618
 21
205.68179
  0
LINE
  8
0
  6
CONTINUOUS
 62
     7
 10
-228.01531
 20
210.9521
 11
-225.61616
 21
212.22242
  0
LINE
  8
0
  6
CONTINUOUS
 62
     7
 10
-231.26838
 20
211.28891
 11
-229.50509
 21
212.22254
  0
LINE
  8
0
  6
CONTINUOUS
 62
     7
 10
-231.26839
 20
200.95213
 11
-224.81056
 21
200.95213
  0
LINE
  8
0
  6
CONTINUOUS
 62
     7
 10
-231.26839
 20
216.95213
 11
-224.81056
 21
216.95213
  0
LINE
  8
0
  6
CONTINUOUS
 62
     7
 10
-224.81056
 20
204.95369
 11
-224.81056
 21
200.95213
  0
LINE
  8
0
  6
CONTINUOUS
 62
     7
 10
-103.84081
 20
125.01563
 11
-103.84081
 21
85.015633
  0
LINE
  8
0
  6
PHANTOM
 62
     7
 10
-17.375874
 20
134.81563
 11
-17.375874
 21
134.01563
  0
LINE
  8
0
  6
PHANTOM
 62
     7
 10
-112.57586
 20
133.21562
 11
-112.57586
 21
132.31563
  0
LINE
  8
0
  6
PHANTOM
 62
     7
 10
-112.57586
 20
132.31563
 11
-110.17586
 21
132.31563
  0
LINE
  8
0
  6
PHANTOM
 62
     7
 10
-110.17586
 20
133.21562
 11
-110.17586
 21
132.31563
  0
LINE
  8
0
  6
PHANTOM
 62
     7
 10
-109.37586
 20
134.01563
 11
-109.37586
 21
133.21562
  0
LINE
  8
0
  6
CENTER
 62
     7
 10
-111.37585
 20
136.71562
 11
-111.37585
 21
131.31563
  0
LINE
  8
0
  6
CENTER
 62
     7
 10
-116.37585
 20
136.71562
 11
-116.37585
 21
131.31563
  0
LINE
  8
0
  6
PHANTOM
 62
     7
 10
-115.17586
 20
133.21562
 11
-115.17586
 21
132.31563
  0
LINE
  8
0
  6
PHANTOM
 62
     7
 10
-117.57586
 20
132.31563
 11
-115.17586
 21
132.31563
  0
LINE
  8
0
  6
PHANTOM
 62
     7
 10
-117.57586
 20
133.21562
 11
-117.57586
 21
132.31563
  0
LINE
  8
0
  6
PHANTOM
 62
     7
 10
-120.37585
 20
134.81563
 11
-17.375858
 21
134.81563
  0
LINE
  8
0
  6
PHANTOM
 62
     7
 10
-120.37585
 20
134.81563
 11
-120.37585
 21
134.01563
  0
LINE
  8
0
  6
PHANTOM
 62
     7
 10
-123.88701
 20
133.21562
 11
-109.37586
 21
133.21562
  0
LINE
  8
0
  6
PHANTOM
 62
     7
 10
-123.88701
 20
134.01563
 11
-17.375858
 21
134.01563
  0
LINE
  8
0
  6
CONTINUOUS
 62
     7
 10
-115.69607
 20
136.86339
 11
-115.54723
 21
135.97579
  0
LINE
  8
0
  6
CONTINUOUS
 62
     7
 10
-117.91419
 20
135.57887
 11
-115.54724
 21
135.97579
  0
LINE
  8
0
  6
CONTINUOUS
 62
     7
 10
-118.06302
 20
136.46648
 11
-117.91418
 21
135.57888
  0
LINE
  8
0
  6
CONTINUOUS
 62
     7
 10
-113.13188
 20
137.29338
 11
-112.98303
 21
136.40578
  0
LINE
  8
0
  6
CONTINUOUS
 62
     7
 10
-110.76492
 20
137.6903
 11
-110.61608
 21
136.8027
  0
LINE
  8
0
  6
CONTINUOUS
 62
     7
 10
-112.98303
 20
136.40579
 11
-110.61608
 21
136.8027
  0
LINE
  8
0
  6
CENTER
 62
     7
 10
-112.52723
 20
140.94364
 11
-111.63417
 21
135.61801
  0
LINE
  8
0
  6
CENTER
 62
     7
 10
-117.45839
 20
140.11674
 11
-116.56532
 21
134.79109
  0
LINE
  8
0
  6
CENTER
 62
     7
 10
-140.88081
 20
131.91562
 11
-133.80081
 21
131.91562
  0
LINE
  8
0
  6
CENTER
 62
     7
 10
-137.34081
 20
135.45563
 11
-137.34081
 21
128.37563
  0
LINE
  8
0
  6
CONTINUOUS
 62
     7
 10
-124.28728
 20
135.42273
 11
-109.97594
 21
137.8226
  0
LINE
  8
0
  6
CONTINUOUS
 62
     7
 10
-110.10825
 20
138.61157
 11
-109.97594
 21
137.82259
  0
LINE
  8
0
  6
CONTINUOUS
 62
     7
 10
-121.08907
 20
137.58137
 11
-120.95677
 21
136.79238
  0
LINE
  8
0
  6
CONTINUOUS
 62
     7
 10
-19.507426
 20
154.61563
 11
-19.37512
 21
153.82664
  0
LINE
  8
0
  6
CONTINUOUS
 62
     7
 10
-124.41957
 20
136.21171
 11
-19.375104
 21
153.82665
  0
LINE
  8
0
  6
CONTINUOUS
 62
     7
 10
-121.08907
 20
137.58137
 11
-19.507409
 21
154.61562
  0
LINE
  8
0
  6
CONTINUOUS
 62
     7
 10
-103.84081
 20
94.015633
 11
-100.44081
 21
94.015633
  0
LINE
  8
0
  6
CONTINUOUS
 62
     7
 10
-148.34081
 20
127.45493
 11
-147.82157
 21
133.38993
  0
LINE
  8
0
  6
CONTINUOUS
 62
     7
 10
-150.24081
 20
120.01563
 11
-143.84081
 21
120.01563
  0
LINE
  8
0
  6
CONTINUOUS
 62
     7
 10
-148.34082
 20
127.41562
 11
-99.340813
 21
127.41562
  0
LINE
  8
0
  6
CONTINUOUS
 62
     7
 10
-123.60054
 20
130.74133
 11
-123.83226
 21
133.38995
  0
LINE
  8
0
  6
CONTINUOUS
 62
     7
 10
-121.60815
 20
128.91562
 11
-99.340813
 21
128.91562
  0
LINE
  8
0
  6
CONTINUOUS
 62
     7
 10
-145.82918
 20
135.21562
 11
-125.82465
 21
135.21562
  0
LINE
  8
0
  6
CONTINUOUS
 62
     7
 10
-103.84081
 20
120.01563
 11
-97.440811
 21
120.01563
  0
LINE
  8
0
  6
CONTINUOUS
 62
     7
 10
-143.83701
 20
89.419428
 11
-155.89318
 21
101.4756
  0
LINE
  8
0
  6
CONTINUOUS
 62
     7
 10
-143.84081
 20
98.615617
 11
-150.24082
 21
105.01563
  0
LINE
  8
0
  6
CONTINUOUS
 62
     7
 10
-99.340813
 20
128.91562
 11
-99.340813
 21
120.01563
  0
LINE
  8
0
  6
CONTINUOUS
 62
     7
 10
-148.34082
 20
127.45494
 11
-148.34082
 21
120.01563
  0
LINE
  8
0
  6
CONTINUOUS
 62
     7
 10
-143.84081
 20
97.201388
 11
-152.00409
 21
105.36468
  0
LINE
  8
0
  6
CONTINUOUS
 62
     7
 10
-150.24081
 20
120.01563
 11
-150.24081
 21
105.01563
  0
LINE
  8
0
  6
CONTINUOUS
 62
     7
 10
-97.440811
 20
120.01563
 11
-97.440811
 21
97.015633
  0
LINE
  8
0
  6
CENTER
 62
     7
 10
-113.84081
 20
91.015633
 11
-113.84081
 21
82.015633
  0
LINE
  8
0
  6
CENTER
 62
     7
 10
-133.84081
 20
91.015633
 11
-133.84081
 21
82.015633
  0
LINE
  8
0
  6
CONTINUOUS
 62
     7
 10
-143.84081
 20
88.015633
 11
-103.84081
 21
88.015633
  0
LINE
  8
0
  6
CONTINUOUS
 62
     7
 10
-143.84081
 20
85.015633
 11
-103.84081
 21
85.015633
  0
LINE
  8
0
  6
CONTINUOUS
 62
     7
 10
-143.84081
 20
125.01563
 11
-143.84081
 21
85.015633
  0
LINE
  8
0
  6
CENTER
 62
     7
 10
-111.14081
 20
119.55562
 11
-111.14081
 21
110.47563
  0
LINE
  8
0
  6
CENTER
 62
     7
 10
-115.68081
 20
115.01563
 11
-106.60081
 21
115.01563
  0
LINE
  8
0
  6
CENTER
 62
     7
 10
-136.54082
 20
119.55562
 11
-136.54082
 21
110.47563
  0
LINE
  8
0
  6
CENTER
 62
     7
 10
-141.08081
 20
115.01563
 11
-132.00081
 21
115.01563
  0
LINE
  8
0
  6
CONTINUOUS
 62
     7
 10
-143.84081
 20
125.01563
 11
-103.84081
 21
125.01563
  0
LINE
  8
0
  6
CONTINUOUS
 62
     7
 10
0
 20
283
 11
0
 21
0
  0
LINE
  8
0
  6
CONTINUOUS
 62
     7
 10
-385.79999
 20
0
 11
0
 21
0
  0
LINE
  8
0
  6
CONTINUOUS
 62
     7
 10
-385.79999
 20
283
 11
-385.79999
 21
0
  0
LINE
  8
0
  6
CONTINUOUS
 62
     7
 10
-385.79999
 20
283
 11
0
 21
283
  0
LINE
  8
0
  6
CONTINUOUS
 62
     7
 10
-68.5
 20
25
 11
-68.5
 21
0
  0
LINE
  8
0
  6
CONTINUOUS
 62
     7
 10
-68.5
 20
12.5
 11
0
 21
12.5
  0
LINE
  8
0
  6
CONTINUOUS
 62
     7
 10
-68.5
 20
25
 11
0
 21
25
  0
LINE
  8
0
  6
CONTINUOUS
 62
     7
 10
-385.60001
 20
0.2
 11
-0.2
 21
0.2
  0
LINE
  8
0
  6
CONTINUOUS
 62
     7
 10
-385.60001
 20
282.79999
 11
-385.60001
 21
0.2
  0
LINE
  8
0
  6
CONTINUOUS
 62
     7
 10
-385.60001
 20
282.79999
 11
-0.2
 21
282.79999
  0
LINE
  8
0
  6
CONTINUOUS
 62
     7
 10
-0.2
 20
282.79999
 11
-0.2
 21
0.2
  0
CIRCLE
  8
0
  6
CONTINUOUS
 62
     7
 10
-269.43875
 20
208.95213
 40
1.5
  0
CIRCLE
  8
0
  6
CONTINUOUS
 62
     7
 10
-264.43875
 20
208.95213
 40
1.5
  0
ARC
  8
0
  6
CONTINUOUS
 62
     7
 10
-256.1684
 20
202.22713
 40
1.25
 50
23.578177
 51
89.999996
  0
ARC
  8
0
  6
CONTINUOUS
 62
     7
 10
-256.1684
 20
215.67712
 40
1.25
 50
270
 51
336.42182
  0
ARC
  8
0
  6
CONTINUOUS
 62
     7
 10
-244.1684
 20
202.22713
 40
1.25
 50
23.578177
 51
156.42182
  0
ARC
  8
0
  6
CONTINUOUS
 62
     7
 10
-244.1684
 20
215.67712
 40
1.25
 50
203.57818
 51
336.42182
  0
ARC
  8
0
  6
CONTINUOUS
 62
     7
 10
-260.43875
 20
205.47713
 40
2
 50
194.84767
 51
270
  0
ARC
  8
0
  6
CONTINUOUS
 62
     7
 10
-260.43875
 20
212.42712
 40
2
 50
89.999996
 51
165.15233
  0
ARC
  8
0
  6
CONTINUOUS
 62
     7
 10
-264.30521
 20
213.45213
 40
2
 50
270
 51
345.15233
  0
ARC
  8
0
  6
CONTINUOUS
 62
     7
 10
-264.30521
 20
204.45213
 40
2
 50
14.847665
 51
89.999996
  0
CIRCLE
  8
0
  6
CONTINUOUS
 62
     7
 10
-244.1684
 20
131.91562
 40
1
  0
ARC
  8
0
  6
CONTINUOUS
 62
     7
 10
-255.68456
 20
133.21562
 40
2
 50
90.000016
 51
175.00002
  0
ARC
  8
0
  6
CONTINUOUS
 62
     7
 10
-259.90106
 20
130.91562
 40
2
 50
269.99998
 51
355.00002
  0
ARC
  8
0
  6
CONTINUOUS
 62
     7
 10
-269.4285
 20
138.28082
 40
1.7
 50
18.553111
 51
142.40815
  0
ARC
  8
0
  6
CONTINUOUS
 62
     7
 10
-264.49734
 20
137.45392
 40
1.7
 50
18.553111
 51
142.40815
  0
ARC
  8
0
  6
PHANTOM
 62
     7
 10
-265.13333
 20
134.01563
 40
1.7
 50
28.072482
 51
151.92752
  0
ARC
  8
0
  6
PHANTOM
 62
     7
 10
-270.13333
 20
134.01563
 40
1.7
 50
28.072482
 51
151.92752
  0
ARC
  8
0
  6
CONTINUOUS
 62
     7
 10
-191.37959
 20
132.01563
 40
1
 50
0
 51
89.999982
  0
ARC
  8
0
  6
CONTINUOUS
 62
     7
 10
-197.12959
 20
132.01563
 40
1
 50
89.999982
 51
179.99996
  0
ARC
  8
0
  6
CONTINUOUS
 62
     7
 10
-191.37959
 20
132.01563
 40
2
 50
0
 51
89.999982
  0
ARC
  8
0
  6
CONTINUOUS
 62
     7
 10
-197.12959
 20
132.01563
 40
2
 50
89.999982
 51
179.99996
  0
ARC
  8
0
  6
CONTINUOUS
 62
     7
 10
-194.25459
 20
134.01563
 40
1.6999969
 50
28.072294
 51
151.92772
  0
ARC
  8
0
  6
CONTINUOUS
 62
     7
 10
-235.68002
 20
133.21562
 40
2
 50
4.9999964
 51
90.000003
  0
ARC
  8
0
  6
CONTINUOUS
 62
     7
 10
-234.06839
 20
216.67712
 40
1
 50
0
 51
90.000003
  0
ARC
  8
0
  6
CONTINUOUS
 62
     7
 10
-234.06839
 20
201.22713
 40
1
 50
270
 51
360
  0
ARC
  8
0
  6
CONTINUOUS
 62
     7
 10
-281.2684
 20
201.22713
 40
1
 50
179.99999
 51
270
  0
ARC
  8
0
  6
CONTINUOUS
 62
     7
 10
-281.2684
 20
216.67712
 40
1
 50
90.000003
 51
180.00001
  0
ARC
  8
0
  6
CONTINUOUS
 62
     7
 10
-281.56839
 20
216.95213
 40
2.5
 50
90.000003
 51
180.00001
  0
ARC
  8
0
  6
CONTINUOUS
 62
     7
 10
-233.76839
 20
216.95213
 40
2.5
 50
0
 51
90.000003
  0
ARC
  8
0
  6
CONTINUOUS
 62
     7
 10
-233.76839
 20
200.95213
 40
2.5
 50
270
 51
360
  0
ARC
  8
0
  6
CONTINUOUS
 62
     7
 10
-281.56839
 20
200.95213
 40
2.5
 50
179.99999
 51
270
  0
ARC
  8
0
  6
CONTINUOUS
 62
     7
 10
-281.06839
 20
97.015633
 40
3
 50
179.99999
 51
270
  0
ARC
  8
0
  6
CONTINUOUS
 62
     7
 10
-280.6684
 20
109.01563
 40
1
 50
179.99999
 51
270
  0
ARC
  8
0
  6
CONTINUOUS
 62
     7
 10
-234.6684
 20
109.01563
 40
1
 50
270
 51
360
  0
ARC
  8
0
  6
CONTINUOUS
 62
     7
 10
-234.6684
 20
121.01563
 40
1
 50
0
 51
90.000003
  0
ARC
  8
0
  6
CONTINUOUS
 62
     7
 10
-280.6684
 20
121.01563
 40
1
 50
90.000003
 51
180.00001
  0
CIRCLE
  8
0
  6
CONTINUOUS
 62
     7
 10
-270.36838
 20
115.01563
 40
4.9000001
  0
CIRCLE
  8
0
  6
CONTINUOUS
 62
     7
 10
-270.36838
 20
115.01563
 40
2.9803851
  0
CIRCLE
  8
0
  6
CONTINUOUS
 62
     7
 10
-270.36838
 20
115.01563
 40
3.5
  0
ARC
  8
0
  6
CONTINUOUS
 62
     7
 10
-273.9184
 20
195.90213
 40
0.25
 50
179.99999
 51
269.99997
  0
ARC
  8
0
  6
CONTINUOUS
 62
     7
 10
-273.9184
 20
196.40213
 40
0.25
 50
90.000016
 51
180.00001
  0
ARC
  8
0
  6
CONTINUOUS
 62
     7
 10
-266.81839
 20
196.40213
 40
0.25
 50
359.99998
 51
90.00003
  0
ARC
  8
0
  6
CONTINUOUS
 62
     7
 10
-266.81839
 20
195.90213
 40
0.25
 50
269.99998
 51
359.99996
  0
ARC
  8
0
  6
CONTINUOUS
 62
     7
 10
-248.51842
 20
195.90213
 40
0.25
 50
179.99999
 51
269.99997
  0
ARC
  8
0
  6
CONTINUOUS
 62
     7
 10
-248.51842
 20
196.40213
 40
0.25
 50
90.000016
 51
180.00001
  0
ARC
  8
0
  6
CONTINUOUS
 62
     7
 10
-241.41841
 20
196.40213
 40
0.25
 50
359.99998
 51
90.00003
  0
ARC
  8
0
  6
CONTINUOUS
 62
     7
 10
-241.41841
 20
195.90213
 40
0.25
 50
269.99998
 51
359.99996
  0
ARC
  8
0
  6
CONTINUOUS
 62
     7
 10
-202.25461
 20
96.515633
 40
2.5
 50
179.99999
 51
270
  0
ARC
  8
0
  6
CONTINUOUS
 62
     7
 10
-186.25461
 20
96.515633
 40
2.5
 50
270
 51
360
  0
ARC
  8
0
  6
CONTINUOUS
 62
     7
 10
-202.25461
 20
102.51563
 40
2.5
 50
90.000003
 51
180.00001
  0
ARC
  8
0
  6
CONTINUOUS
 62
     7
 10
-186.25461
 20
102.51563
 40
2.5
 50
0
 51
90.000003
  0
ARC
  8
0
  6
CONTINUOUS
 62
     7
 10
-207.30461
 20
118.56564
 40
0.25
 50
90.000003
 51
179.99998
  0
ARC
  8
0
  6
CONTINUOUS
 62
     7
 10
-206.80461
 20
118.56564
 40
0.25
 50
1.7986086e-005
 51
90.000003
  0
ARC
  8
0
  6
CONTINUOUS
 62
     7
 10
-206.80461
 20
111.46564
 40
0.25
 50
269.99998
 51
2.8004e-005
  0
ARC
  8
0
  6
CONTINUOUS
 62
     7
 10
-207.30461
 20
111.46564
 40
0.25
 50
179.99998
 51
269.99997
  0
ARC
  8
0
  6
CONTINUOUS
 62
     7
 10
-227.56056
 20
103.42014
 40
2.75
 50
315
 51
135
  0
CIRCLE
  8
0
  6
CONTINUOUS
 62
     7
 10
-244.9684
 20
115.01563
 40
4.9000001
  0
CIRCLE
  8
0
  6
CONTINUOUS
 62
     7
 10
-244.9684
 20
115.01563
 40
2.9803851
  0
CIRCLE
  8
0
  6
CONTINUOUS
 62
     7
 10
-244.9684
 20
115.01563
 40
3.5
  0
ARC
  8
0
  6
PHANTOM
 62
     7
 10
-111.37585
 20
134.01563
 40
1.7
 50
28.072487
 51
151.92752
  0
ARC
  8
0
  6
PHANTOM
 62
     7
 10
-116.37585
 20
134.01563
 40
1.7
 50
28.072487
 51
151.92752
  0
ARC
  8
0
  6
CONTINUOUS
 62
     7
 10
-117.01185
 20
137.45392
 40
1.7
 50
37.591859
 51
161.44689
  0
ARC
  8
0
  6
CONTINUOUS
 62
     7
 10
-112.0807
 20
138.28082
 40
1.7
 50
37.591859
 51
161.44689
  0
ARC
  8
0
  6
CONTINUOUS
 62
     7
 10
-153.94864
 20
103.42014
 40
2.75
 50
45.000001
 51
225
  0
ARC
  8
0
  6
CONTINUOUS
 62
     7
 10
-121.60815
 20
130.91562
 40
2
 50
184.99998
 51
270.00002
  0
ARC
  8
0
  6
CONTINUOUS
 62
     7
 10
-125.82465
 20
133.21562
 40
2
 50
4.9999764
 51
89.999982
  0
ARC
  8
0
  6
CONTINUOUS
 62
     7
 10
-145.82918
 20
133.21562
 40
2
 50
90.000003
 51
175.00001
  0
CIRCLE
  8
0
  6
CONTINUOUS
 62
     7
 10
-137.34081
 20
131.91562
 40
1
  0
ARC
  8
0
  6
CONTINUOUS
 62
     7
 10
-100.44081
 20
97.015633
 40
3
 50
270
 51
360
  0
CIRCLE
  8
0
  6
CONTINUOUS
 62
     7
 10
-111.14081
 20
115.01563
 40
1.5
  0
CIRCLE
  8
0
  6
CONTINUOUS
 62
     7
 10
-136.54082
 20
115.01563
 40
1.5
  0
CIRCLE
  8
0
  6
CONTINUOUS
 62
     7
 10
-136.54082
 20
115.01563
 40
2
  0
CIRCLE
  8
0
  6
CONTINUOUS
 62
     7
 10
-111.14081
 20
115.01563
 40
2
  0
POLYLINE
  8
0
  6
CONTINUOUS
 62
     7
 66
     1
 10
0
 20
0
 70
     1
  0
VERTEX
  8
0
  6
CONTINUOUS
 62
     7
 10
-190.25459
 20
95.076286
 42
0.098491403
  0
VERTEX
  8
0
  6
CONTINUOUS
 62
     7
 10
-190.55907
 20
96.158679
 42
0.098491403
  0
VERTEX
  8
0
  6
CONTINUOUS
 62
     7
 10
-191.42617
 20
97.076286
 42
0.098491403
  0
VERTEX
  8
0
  6
CONTINUOUS
 62
     7
 10
-192.72386
 20
97.689412
 42
0.098491403
  0
VERTEX
  8
0
  6
CONTINUOUS
 62
     7
 10
-194.25459
 20
97.904713
 42
0.098491403
  0
VERTEX
  8
0
  6
CONTINUOUS
 62
     7
 10
-195.78533
 20
97.689412
 42
0.098491403
  0
VERTEX
  8
0
  6
CONTINUOUS
 62
     7
 10
-197.08302
 20
97.076286
 42
0.098491403
  0
VERTEX
  8
0
  6
CONTINUOUS
 62
     7
 10
-197.95011
 20
96.158679
 42
0.098491403
  0
VERTEX
  8
0
  6
CONTINUOUS
 62
     7
 10
-198.25459
 20
95.076286
 42
0.098491403
  0
VERTEX
  8
0
  6
CONTINUOUS
 62
     7
 10
-197.95011
 20
93.993894
 42
0.098491403
  0
VERTEX
  8
0
  6
CONTINUOUS
 62
     7
 10
-197.08302
 20
93.076286
 42
0.098491403
  0
VERTEX
  8
0
  6
CONTINUOUS
 62
     7
 10
-195.78533
 20
92.46316
 42
0.098491403
  0
VERTEX
  8
0
  6
CONTINUOUS
 62
     7
 10
-194.25459
 20
92.247859
 42
0.098491403
  0
VERTEX
  8
0
  6
CONTINUOUS
 62
     7
 10
-192.72386
 20
92.46316
 42
0.098491403
  0
VERTEX
  8
0
  6
CONTINUOUS
 62
     7
 10
-191.42617
 20
93.076286
 42
0.098491403
  0
VERTEX
  8
0
  6
CONTINUOUS
 62
     7
 10
-190.55907
 20
93.993894
 42
0.098491403
  0
SEQEND
  8
0
  6
CONTINUOUS
 62
     7
  0
POLYLINE
  8
0
  6
CONTINUOUS
 62
     7
 66
     1
 10
0
 20
0
  0
VERTEX
  8
0
  6
CONTINUOUS
 62
     7
 10
-192.25459
 20
99.076286
 42
0.0106203
  0
VERTEX
  8
0
  6
CONTINUOUS
 62
     7
 10
-192.49663
 20
99.132735
 42
0.0106203
  0
VERTEX
  8
0
  6
CONTINUOUS
 62
     7
 10
-192.74183
 20
99.181865
 42
0.0106203
  0
VERTEX
  8
0
  6
CONTINUOUS
 62
     7
 10
-192.98977
 20
99.223587
 42
0.0106203
  0
VERTEX
  8
0
  6
CONTINUOUS
 62
     7
 10
-193.23998
 20
99.257827
 42
0.0106203
  0
VERTEX
  8
0
  6
CONTINUOUS
 62
     7
 10
-193.49203
 20
99.284522
 42
0.0106203
  0
VERTEX
  8
0
  6
CONTINUOUS
 62
     7
 10
-193.74545
 20
99.303624
 42
0.0106203
  0
VERTEX
  8
0
  6
CONTINUOUS
 62
     7
 10
-193.99979
 20
99.3151
 42
0.0106203
  0
VERTEX
  8
0
  6
CONTINUOUS
 62
     7
 10
-194.25459
 20
99.318927
 42
0.0106203
  0
VERTEX
  8
0
  6
CONTINUOUS
 62
     7
 10
-194.50939
 20
99.3151
 42
0.0106203
  0
VERTEX
  8
0
  6
CONTINUOUS
 62
     7
 10
-194.76374
 20
99.303624
 42
0.0106203
  0
VERTEX
  8
0
  6
CONTINUOUS
 62
     7
 10
-195.01716
 20
99.284522
 42
0.0106203
  0
VERTEX
  8
0
  6
CONTINUOUS
 62
     7
 10
-195.2692
 20
99.257827
 42
0.0106203
  0
VERTEX
  8
0
  6
CONTINUOUS
 62
     7
 10
-195.51942
 20
99.223587
 42
0.0106203
  0
VERTEX
  8
0
  6
CONTINUOUS
 62
     7
 10
-195.76735
 20
99.181865
 42
0.0106203
  0
VERTEX
  8
0
  6
CONTINUOUS
 62
     7
 10
-196.01256
 20
99.132735
 42
0.0106203
  0
VERTEX
  8
0
  6
CONTINUOUS
 62
     7
 10
-196.25459
 20
99.076286
 42
-1
  0
SEQEND
  8
0
  6
CONTINUOUS
 62
     7
  0
POLYLINE
  8
0
  6
CONTINUOUS
 62
     7
 66
     1
 10
0
 20
0
  0
VERTEX
  8
0
  6
CONTINUOUS
 62
     7
 10
-202.25459
 20
95.076283
 42
0.04912686
  0
VERTEX
  8
0
  6
CONTINUOUS
 62
     7
 10
-202.10088
 20
93.971943
 42
0.04912686
  0
VERTEX
  8
0
  6
CONTINUOUS
 62
     7
 10
-201.64563
 20
92.910042
 42
0.04912686
  0
VERTEX
  8
0
  6
CONTINUOUS
 62
     7
 10
-200.90635
 20
91.931389
 42
0.04912686
  0
VERTEX
  8
0
  6
CONTINUOUS
 62
     7
 10
-199.91145
 20
91.073592
 42
0.04912686
  0
VERTEX
  8
0
  6
CONTINUOUS
 62
     7
 10
-198.69916
 20
90.369616
 42
0.04912686
  0
VERTEX
  8
0
  6
CONTINUOUS
 62
     7
 10
-197.31606
 20
89.846515
 42
0.04912686
  0
VERTEX
  8
0
  6
CONTINUOUS
 62
     7
 10
-195.81532
 20
89.52439
 42
0.04912686
  0
VERTEX
  8
0
  6
CONTINUOUS
 62
     7
 10
-194.2546
 20
89.415622
 42
0.04912686
  0
VERTEX
  8
0
  6
CONTINUOUS
 62
     7
 10
-192.69387
 20
89.524389
 42
0.04912686
  0
VERTEX
  8
0
  6
CONTINUOUS
 62
     7
 10
-191.19313
 20
89.846513
 42
0.04912686
  0
VERTEX
  8
0
  6
CONTINUOUS
 62
     7
 10
-189.81003
 20
90.369614
 42
0.04912686
  0
VERTEX
  8
0
  6
CONTINUOUS
 62
     7
 10
-188.59774
 20
91.073589
 42
0.04912686
  0
VERTEX
  8
0
  6
CONTINUOUS
 62
     7
 10
-187.60284
 20
91.931386
 42
0.04912686
  0
VERTEX
  8
0
  6
CONTINUOUS
 62
     7
 10
-186.86356
 20
92.910039
 42
0.04912686
  0
VERTEX
  8
0
  6
CONTINUOUS
 62
     7
 10
-186.40831
 20
93.971939
 42
0.04912686
  0
VERTEX
  8
0
  6
CONTINUOUS
 62
     7
 10
-186.25459
 20
95.076279
 42
-1
  0
SEQEND
  8
0
  6
CONTINUOUS
 62
     7
  0
POLYLINE
  8
0
  6
CONTINUOUS
 62
     7
 66
     1
 10
0
 20
0
  0
VERTEX
  8
0
  6
CONTINUOUS
 62
     7
 10
-192.25459
 20
102.96537
 42
0.01062031
  0
VERTEX
  8
0
  6
CONTINUOUS
 62
     7
 10
-192.49662
 20
103.02182
 42
0.01062031
  0
VERTEX
  8
0
  6
CONTINUOUS
 62
     7
 10
-192.74183
 20
103.07095
 42
0.01062031
  0
VERTEX
  8
0
  6
CONTINUOUS
 62
     7
 10
-192.98976
 20
103.11267
 42
0.01062031
  0
VERTEX
  8
0
  6
CONTINUOUS
 62
     7
 10
-193.23998
 20
103.14691
 42
0.01062031
  0
VERTEX
  8
0
  6
CONTINUOUS
 62
     7
 10
-193.49203
 20
103.17361
 42
0.01062031
  0
VERTEX
  8
0
  6
CONTINUOUS
 62
     7
 10
-193.74545
 20
103.19271
 42
0.01062031
  0
VERTEX
  8
0
  6
CONTINUOUS
 62
     7
 10
-193.99979
 20
103.20418
 42
0.01062031
  0
VERTEX
  8
0
  6
CONTINUOUS
 62
     7
 10
-194.25459
 20
103.20801
 42
0.01062031
  0
VERTEX
  8
0
  6
CONTINUOUS
 62
     7
 10
-194.50939
 20
103.20418
 42
0.01062031
  0
VERTEX
  8
0
  6
CONTINUOUS
 62
     7
 10
-194.76374
 20
103.19271
 42
0.01062031
  0
VERTEX
  8
0
  6
CONTINUOUS
 62
     7
 10
-195.01716
 20
103.17361
 42
0.01062031
  0
VERTEX
  8
0
  6
CONTINUOUS
 62
     7
 10
-195.26921
 20
103.14691
 42
0.01062031
  0
VERTEX
  8
0
  6
CONTINUOUS
 62
     7
 10
-195.51942
 20
103.11267
 42
0.01062031
  0
VERTEX
  8
0
  6
CONTINUOUS
 62
     7
 10
-195.76736
 20
103.07095
 42
0.01062031
  0
VERTEX
  8
0
  6
CONTINUOUS
 62
     7
 10
-196.01256
 20
103.02182
 42
0.01062031
  0
VERTEX
  8
0
  6
CONTINUOUS
 62
     7
 10
-196.25459
 20
102.96537
 42
-1
  0
SEQEND
  8
0
  6
CONTINUOUS
 62
     7
  0
POLYLINE
  8
0
  6
CONTINUOUS
 62
     7
 66
     1
 10
0
 20
0
  0
VERTEX
  8
0
  6
CONTINUOUS
 62
     7
 10
-197.52499
 20
105.36468
 42
0.049127133
  0
VERTEX
  8
0
  6
CONTINUOUS
 62
     7
 10
-197.72586
 20
105.70668
 42
0.049127133
  0
VERTEX
  8
0
  6
CONTINUOUS
 62
     7
 10
-197.919
 20
105.96081
 42
0.049127133
  0
VERTEX
  8
0
  6
CONTINUOUS
 62
     7
 10
-198.09701
 20
106.11731
 42
0.049127133
  0
VERTEX
  8
0
  6
CONTINUOUS
 62
     7
 10
-198.25303
 20
106.17015
 42
0.049127133
  0
VERTEX
  8
0
  6
CONTINUOUS
 62
     7
 10
-198.38108
 20
106.11731
 42
0.049127133
  0
VERTEX
  8
0
  6
CONTINUOUS
 62
     7
 10
-198.47622
 20
105.96081
 42
0.049127133
  0
VERTEX
  8
0
  6
CONTINUOUS
 62
     7
 10
-198.53481
 20
105.70668
 42
0.049127133
  0
VERTEX
  8
0
  6
CONTINUOUS
 62
     7
 10
-198.5546
 20
105.36468
 42
0.049127133
  0
VERTEX
  8
0
  6
CONTINUOUS
 62
     7
 10
-198.53481
 20
104.94795
 42
0.049127133
  0
VERTEX
  8
0
  6
CONTINUOUS
 62
     7
 10
-198.47622
 20
104.47251
 42
0.049127133
  0
VERTEX
  8
0
  6
CONTINUOUS
 62
     7
 10
-198.38107
 20
103.95662
 42
0.049127133
  0
VERTEX
  8
0
  6
CONTINUOUS
 62
     7
 10
-198.25303
 20
103.42012
 42
0.049127133
  0
VERTEX
  8
0
  6
CONTINUOUS
 62
     7
 10
-198.097
 20
102.88362
 42
0.049127133
  0
VERTEX
  8
0
  6
CONTINUOUS
 62
     7
 10
-197.91899
 20
102.36774
 42
0.049127133
  0
VERTEX
  8
0
  6
CONTINUOUS
 62
     7
 10
-197.72585
 20
101.8923
 42
0.049127133
  0
VERTEX
  8
0
  6
CONTINUOUS
 62
     7
 10
-197.52498
 20
101.47558
 42
-1
  0
SEQEND
  8
0
  6
CONTINUOUS
 62
     7
  0
POLYLINE
  8
0
  6
CONTINUOUS
 62
     7
 66
     1
 10
0
 20
0
  0
VERTEX
  8
0
  6
CONTINUOUS
 62
     7
 10
-190.9842
 20
101.47559
 42
0.049127001
  0
VERTEX
  8
0
  6
CONTINUOUS
 62
     7
 10
-190.78334
 20
101.89232
 42
0.049127001
  0
VERTEX
  8
0
  6
CONTINUOUS
 62
     7
 10
-190.59019
 20
102.36776
 42
0.049127001
  0
VERTEX
  8
0
  6
CONTINUOUS
 62
     7
 10
-190.41219
 20
102.88364
 42
0.049127001
  0
VERTEX
  8
0
  6
CONTINUOUS
 62
     7
 10
-190.25616
 20
103.42014
 42
0.049127001
  0
VERTEX
  8
0
  6
CONTINUOUS
 62
     7
 10
-190.12812
 20
103.95664
 42
0.049127001
  0
VERTEX
  8
0
  6
CONTINUOUS
 62
     7
 10
-190.03297
 20
104.47252
 42
0.049127001
  0
VERTEX
  8
0
  6
CONTINUOUS
 62
     7
 10
-189.97438
 20
104.94796
 42
0.049127001
  0
VERTEX
  8
0
  6
CONTINUOUS
 62
     7
 10
-189.9546
 20
105.36469
 42
0.049127001
  0
VERTEX
  8
0
  6
CONTINUOUS
 62
     7
 10
-189.97439
 20
105.70669
 42
0.049127001
  0
VERTEX
  8
0
  6
CONTINUOUS
 62
     7
 10
-190.03298
 20
105.96082
 42
0.049127001
  0
VERTEX
  8
0
  6
CONTINUOUS
 62
     7
 10
-190.12812
 20
106.11731
 42
0.049127001
  0
VERTEX
  8
0
  6
CONTINUOUS
 62
     7
 10
-190.25617
 20
106.17015
 42
0.049127001
  0
VERTEX
  8
0
  6
CONTINUOUS
 62
     7
 10
-190.41219
 20
106.11731
 42
0.049127001
  0
VERTEX
  8
0
  6
CONTINUOUS
 62
     7
 10
-190.59019
 20
105.96082
 42
0.049127001
  0
VERTEX
  8
0
  6
CONTINUOUS
 62
     7
 10
-190.78334
 20
105.70669
 42
0.049127001
  0
VERTEX
  8
0
  6
CONTINUOUS
 62
     7
 10
-190.98421
 20
105.36469
 42
-1
  0
SEQEND
  8
0
  6
CONTINUOUS
 62
     7
  0
POLYLINE
  8
0
  6
CONTINUOUS
 62
     7
 66
     1
 10
0
 20
0
  0
VERTEX
  8
0
  6
CONTINUOUS
 62
     7
 10
-228.01534
 20
206.95212
 42
0.010620349
  0
VERTEX
  8
0
  6
CONTINUOUS
 62
     7
 10
-227.95889
 20
207.19416
 42
0.010620349
  0
VERTEX
  8
0
  6
CONTINUOUS
 62
     7
 10
-227.90976
 20
207.43936
 42
0.010620349
  0
VERTEX
  8
0
  6
CONTINUOUS
 62
     7
 10
-227.86804
 20
207.6873
 42
0.010620349
  0
VERTEX
  8
0
  6
CONTINUOUS
 62
     7
 10
-227.8338
 20
207.93752
 42
0.010620349
  0
VERTEX
  8
0
  6
CONTINUOUS
 62
     7
 10
-227.8071
 20
208.18956
 42
0.010620349
  0
VERTEX
  8
0
  6
CONTINUOUS
 62
     7
 10
-227.788
 20
208.44299
 42
0.010620349
  0
VERTEX
  8
0
  6
CONTINUOUS
 62
     7
 10
-227.77652
 20
208.69733
 42
0.010620349
  0
VERTEX
  8
0
  6
CONTINUOUS
 62
     7
 10
-227.77269
 20
208.95213
 42
0.010620349
  0
VERTEX
  8
0
  6
CONTINUOUS
 62
     7
 10
-227.77652
 20
209.20694
 42
0.010620349
  0
VERTEX
  8
0
  6
CONTINUOUS
 62
     7
 10
-227.788
 20
209.46128
 42
0.010620349
  0
VERTEX
  8
0
  6
CONTINUOUS
 62
     7
 10
-227.8071
 20
209.7147
 42
0.010620349
  0
VERTEX
  8
0
  6
CONTINUOUS
 62
     7
 10
-227.8338
 20
209.96675
 42
0.010620349
  0
VERTEX
  8
0
  6
CONTINUOUS
 62
     7
 10
-227.86803
 20
210.21697
 42
0.010620349
  0
VERTEX
  8
0
  6
CONTINUOUS
 62
     7
 10
-227.90976
 20
210.4649
 42
0.010620349
  0
VERTEX
  8
0
  6
CONTINUOUS
 62
     7
 10
-227.95889
 20
210.71011
 42
0.010620349
  0
VERTEX
  8
0
  6
CONTINUOUS
 62
     7
 10
-228.01534
 20
210.95214
 42
-1
  0
SEQEND
  8
0
  6
CONTINUOUS
 62
     7
  0
POLYLINE
  8
0
  6
CONTINUOUS
 62
     7
 66
     1
 10
0
 20
0
  0
VERTEX
  8
0
  6
CONTINUOUS
 62
     7
 10
-229.50511
 20
205.68173
 42
0.049127946
  0
VERTEX
  8
0
  6
CONTINUOUS
 62
     7
 10
-229.08837
 20
205.48086
 42
0.049127946
  0
VERTEX
  8
0
  6
CONTINUOUS
 62
     7
 10
-228.61292
 20
205.28771
 42
0.049127946
  0
VERTEX
  8
0
  6
CONTINUOUS
 62
     7
 10
-228.09702
 20
205.1097
 42
0.049127946
  0
VERTEX
  8
0
  6
CONTINUOUS
 62
     7
 10
-227.56051
 20
204.95368
 42
0.049127946
  0
VERTEX
  8
0
  6
CONTINUOUS
 62
     7
 10
-227.024
 20
204.82563
 42
0.049127946
  0
VERTEX
  8
0
  6
CONTINUOUS
 62
     7
 10
-226.50811
 20
204.73049
 42
0.049127946
  0
VERTEX
  8
0
  6
CONTINUOUS
 62
     7
 10
-226.03267
 20
204.67191
 42
0.049127946
  0
VERTEX
  8
0
  6
CONTINUOUS
 62
     7
 10
-225.61595
 20
204.65213
 42
0.049127946
  0
VERTEX
  8
0
  6
CONTINUOUS
 62
     7
 10
-225.27396
 20
204.67192
 42
0.049127946
  0
VERTEX
  8
0
  6
CONTINUOUS
 62
     7
 10
-225.01985
 20
204.73052
 42
0.049127946
  0
VERTEX
  8
0
  6
CONTINUOUS
 62
     7
 10
-224.86338
 20
204.82568
 42
0.049127946
  0
VERTEX
  8
0
  6
CONTINUOUS
 62
     7
 10
-224.81057
 20
204.95373
 42
0.049127946
  0
VERTEX
  8
0
  6
CONTINUOUS
 62
     7
 10
-224.86344
 20
205.10977
 42
0.049127946
  0
VERTEX
  8
0
  6
CONTINUOUS
 62
     7
 10
-225.01997
 20
205.28778
 42
0.049127946
  0
VERTEX
  8
0
  6
CONTINUOUS
 62
     7
 10
-225.27413
 20
205.48094
 42
0.049127946
  0
VERTEX
  8
0
  6
CONTINUOUS
 62
     7
 10
-225.61617
 20
205.68181
 42
-1
  0
SEQEND
  8
0
  6
CONTINUOUS
 62
     7
  0
POLYLINE
  8
0
  6
CONTINUOUS
 62
     7
 66
     1
 10
0
 20
0
  0
VERTEX
  8
0
  6
CONTINUOUS
 62
     7
 10
-225.61617
 20
212.22244
 42
0.049128079
  0
VERTEX
  8
0
  6
CONTINUOUS
 62
     7
 10
-225.27413
 20
212.42332
 42
0.049128079
  0
VERTEX
  8
0
  6
CONTINUOUS
 62
     7
 10
-225.01997
 20
212.61647
 42
0.049128079
  0
VERTEX
  8
0
  6
CONTINUOUS
 62
     7
 10
-224.86344
 20
212.79449
 42
0.049128079
  0
VERTEX
  8
0
  6
CONTINUOUS
 62
     7
 10
-224.81057
 20
212.95052
 42
0.049128079
  0
VERTEX
  8
0
  6
CONTINUOUS
 62
     7
 10
-224.86338
 20
213.07857
 42
0.049128079
  0
VERTEX
  8
0
  6
CONTINUOUS
 62
     7
 10
-225.01985
 20
213.17373
 42
0.049128079
  0
VERTEX
  8
0
  6
CONTINUOUS
 62
     7
 10
-225.27397
 20
213.23233
 42
0.049128079
  0
VERTEX
  8
0
  6
CONTINUOUS
 62
     7
 10
-225.61596
 20
213.25212
 42
0.049128079
  0
VERTEX
  8
0
  6
CONTINUOUS
 62
     7
 10
-226.03268
 20
213.23234
 42
0.049128079
  0
VERTEX
  8
0
  6
CONTINUOUS
 62
     7
 10
-226.50813
 20
213.17376
 42
0.049128079
  0
VERTEX
  8
0
  6
CONTINUOUS
 62
     7
 10
-227.02402
 20
213.07861
 42
0.049128079
  0
VERTEX
  8
0
  6
CONTINUOUS
 62
     7
 10
-227.56053
 20
212.95057
 42
0.049128079
  0
VERTEX
  8
0
  6
CONTINUOUS
 62
     7
 10
-228.09704
 20
212.79454
 42
0.049128079
  0
VERTEX
  8
0
  6
CONTINUOUS
 62
     7
 10
-228.61294
 20
212.61654
 42
0.049128079
  0
VERTEX
  8
0
  6
CONTINUOUS
 62
     7
 10
-229.08839
 20
212.42338
 42
0.049128079
  0
VERTEX
  8
0
  6
CONTINUOUS
 62
     7
 10
-229.50512
 20
212.22251
 42
-1
  0
SEQEND
  8
0
  6
CONTINUOUS
 62
     7
  0
TEXT
  8
0
  6
CONTINUOUS
 62
     7
 10
-57.114128
 20
15.653448
 40
4.8000002
 41
0.84448342
  1
Ｚ－１５ＧＷ５５－Ｂ
  0
TEXT
  8
0
  6
CONTINUOUS
 62
     7
 10
-47.514129
 20
4.1522164
 40
4.8000002
 41
0.84741096
  1
２５００１７
  0
TEXT
  8
0
  6
CONTINUOUS
 62
     7
 10
-363.32854
 20
20.552806
 40
4.8000002
 41
0.84448342
  1
※ステンレス鋼レバー
  0
INSERT
  8
0
  6
CONTINUOUS
 62
     7
  2
KOZU0001
 10
-306.29802
 20
145.27465
  0
ENDSEC
  0
EOF
