  0
SECTION
  2
HEADER
  9
$EXTMAX
 10
1.2182922
 20
274.528
 30
0
  9
$EXTMIN
 10
-177.2301
 20
-1.0560455
 30
0
  9
$LIMMAX
 10
1.2182922
 20
274.528
  9
$LIMMIN
 10
-177.2301
 20
-1.0560455
  9
$PLIMMAX
 10
1.2182922
 20
274.528
  9
$PLIMMIN
 10
-177.2301
 20
-1.0560455
  9
$PEXTMAX
 10
1.2182922
 20
274.528
 30
0
  9
$PEXTMIN
 10
-177.2301
 20
-1.0560455
 30
0
  9
$TEXTSIZE
 40
3.2
  9
$DIMSHO
 70
     0
  9
$DIMASZ
 40
1.0
  9
$DIMTAD
 70
     1
  9
$DIMTIH
 70
     0
  9
$DIMTOH
 70
     0
  9
$DIMEXE
 40
2.54
  9
$DIMEXO
 40
2.54
  9
$DIMTVP
 40
1.0
  9
$DIMSAH
 70
     1
  9
$DIMDLE
 40
0.0
  9
$DIMTXT
 40
3.2
  9
$DIMGAP
 40
1.6
  0
ENDSEC
  0
SECTION
  2
TABLES
  0
TABLE
  2
LTYPE
 70
     39
  0
LTYPE
  2
CONTINUOUS
 70
    64
  3
Solid line
 72
    65
 73
     0
 40
0.0
  0
LTYPE
  2
ACAD_ISO02W100
 70
     0
  3
ISO dash __ __ __ __ __ __ __ __ __ __ __ __ __
 72
    65
 73
     2
 40
15.0
 49
12.0
 49
-3.0
  0
LTYPE
  2
ACAD_ISO03W100
 70
     0
  3
ISO dash space __    __    __    __    __    __
 72
    65
 73
     2
 40
30.0
 49
12.0
 49
-18.0
  0
LTYPE
  2
ACAD_ISO04W100
 70
     0
  3
ISO long-dash dot ____ . ____ . ____ . ____ . _
 72
    65
 73
     4
 40
30.0
 49
24.0
 49
-3.0
 49
0.0
 49
-3.0
  0
LTYPE
  2
ACAD_ISO05W100
 70
     0
  3
ISO long-dash double-dot ____ .. ____ .. ____ .
 72
    65
 73
     6
 40
33.0
 49
24.0
 49
-3.0
 49
0.0
 49
-3.0
 49
0.0
 49
-3.0
  0
LTYPE
  2
ACAD_ISO06W100
 70
     0
  3
ISO long-dash triple-dot ____ ... ____ ... ____
 72
    65
 73
     8
 40
36.0
 49
24.0
 49
-3.0
 49
0.0
 49
-3.0
 49
0.0
 49
-3.0
 49
0.0
 49
-3.0
  0
LTYPE
  2
ACAD_ISO07W100
 70
     0
  3
ISO dot . . . . . . . . . . . . . . . . . . . .
 72
    65
 73
     2
 40
3.0
 49
0.0
 49
-3.0
  0
LTYPE
  2
ACAD_ISO08W100
 70
     0
  3
ISO long-dash short-dash ____ __ ____ __ ____ _
 72
    65
 73
     4
 40
36.0
 49
24.0
 49
-3.0
 49
6.0
 49
-3.0
  0
LTYPE
  2
ACAD_ISO09W100
 70
     0
  3
ISO long-dash double-short-dash ____ __ __ ____
 72
    65
 73
     6
 40
45.0
 49
24.0
 49
-3.0
 49
6.0
 49
-3.0
 49
6.0
 49
-3.0
  0
LTYPE
  2
ACAD_ISO10W100
 70
     0
  3
ISO dash dot __ . __ . __ . __ . __ . __ . __ .
 72
    65
 73
     4
 40
18.0
 49
12.0
 49
-3.0
 49
0.0
 49
-3.0
  0
LTYPE
  2
ACAD_ISO11W100
 70
     0
  3
ISO double-dash dot __ __ . __ __ . __ __ . __ 
 72
    65
 73
     6
 40
33.0
 49
12.0
 49
-3.0
 49
12.0
 49
-3.0
 49
0.0
 49
-3.0
  0
LTYPE
  2
ACAD_ISO12W100
 70
     0
  3
ISO dash double-dot __ . . __ . . __ . . __ . .
 72
    65
 73
     6
 40
21.0
 49
12.0
 49
-3.0
 49
0.0
 49
-3.0
 49
0.0
 49
-3.0
  0
LTYPE
  2
ACAD_ISO13W100
 70
     0
  3
ISO double-dash double-dot __ __ . . __ __ . . 
 72
    65
 73
     8
 40
36.0
 49
12.0
 49
-3.0
 49
12.0
 49
-3.0
 49
0.0
 49
-3.0
 49
0.0
 49
-3.0
  0
LTYPE
  2
ACAD_ISO14W100
 70
     0
  3
ISO dash triple-dot __ . . . __ . . . __ . . . 
 72
    65
 73
     8
 40
24.0
 49
12.0
 49
-3.0
 49
0.0
 49
-3.0
 49
0.0
 49
-3.0
 49
0.0
 49
-3.0
  0
LTYPE
  2
ACAD_ISO15W100
 70
     0
  3
ISO double-dash triple-dot __ __ . . . __ __ . 
 72
    65
 73
    10
 40
39.0
 49
12.0
 49
-3.0
 49
12.0
 49
-3.0
 49
0.0
 49
-3.0
 49
0.0
 49
-3.0
 49
0.0
 49
-3.0
  0
LTYPE
  2
BORDER
 70
    64
  3
Border __ __ . __ __ . __ __ . __ __ . __ __ .
 72
    65
 73
     6
 40
3.5
 49
1.0
 49
-0.5
 49
1.0
 49
-0.5
 49
0.0
 49
-0.5
  0
LTYPE
  2
BORDER2
 70
    64
  3
Border (.5x) __.__.__.__.__.__.__.__.__.__.__.
 72
    65
 73
     6
 40
1.75
 49
0.5
 49
-0.25
 49
0.5
 49
-0.25
 49
0.0
 49
-0.25
  0
LTYPE
  2
BORDERX2
 70
    64
  3
Border (2x) ____  ____  .  ____  ____  .  ___
 72
    65
 73
     6
 40
7.0
 49
2.0
 49
-1.0
 49
2.0
 49
-1.0
 49
0.0
 49
-1.0
  0
LTYPE
  2
CENTER
 70
    64
  3
Center ____ _ ____ _ ____ _ ____ _ ____ _ ____
 72
    65
 73
     4
 40
12.0
 49
7.5
 49
-1.5
 49
1.5
 49
-1.5
  0
LTYPE
  2
CENTER2
 70
    64
  3
Center (.5x) ___ _ ___ _ ___ _ ___ _ ___ _ ___
 72
    65
 73
     4
 40
6.0
 49
3.75
 49
-0.75
 49
0.75
 49
-0.75
  0
LTYPE
  2
CENTERX2
 70
    64
  3
Center (2x) ________  __  ________  __  _____
 72
    65
 73
     4
 40
24.0
 49
15.0
 49
-3.0
 49
3.0
 49
-3.0
  0
LTYPE
  2
DASHDOT
 70
    64
  3
Dash dot __ . __ . __ . __ . __ . __ . __ . __
 72
    65
 73
     4
 40
6.0
 49
3.0
 49
-1.5
 49
0.0
 49
-1.5
  0
LTYPE
  2
DASHDOT2
 70
    64
  3
Dash dot (.5x) _._._._._._._._._._._._._._._.
 72
    65
 73
     4
 40
3.0
 49
1.5
 49
-0.75
 49
0.0
 49
-0.75
  0
LTYPE
  2
DASHDOTX2
 70
    64
  3
Dash dot (2x) ____  .  ____  .  ____  .  ___
 72
    65
 73
     4
 40
12.0
 49
6.0
 49
-3.0
 49
0.0
 49
-3.0
  0
LTYPE
  2
DASHED
 70
    64
  3
Dashed __ __ __ __ __ __ __ __ __ __ __ __ __ _
 72
    65
 73
     2
 40
4.5
 49
3.0
 49
-1.5
  0
LTYPE
  2
DASHED2
 70
    64
  3
Dashed (.5x) _ _ _ _ _ _ _ _ _ _ _ _ _ _ _ _ _
 72
    65
 73
     2
 40
2.25
 49
1.5
 49
-0.75
  0
LTYPE
  2
DASHEDX2
 70
    64
  3
Dashed (2x) ____  ____  ____  ____  ____  ___
 72
    65
 73
     2
 40
9.0
 49
6.0
 49
-3.0
  0
LTYPE
  2
DIVIDE
 70
    64
  3
Divide ____ . . ____ . . ____ . . ____ . . ____
 72
    65
 73
     6
 40
7.5
 49
3.0
 49
-1.5
 49
0.0
 49
-1.5
 49
0.0
 49
-1.5
  0
LTYPE
  2
DIVIDE2
 70
    64
  3
Divide (.5x) __..__..__..__..__..__..__..__.._
 72
    65
 73
     6
 40
3.75
 49
1.5
 49
-0.75
 49
0.0
 49
-0.75
 49
0.0
 49
-0.75
  0
LTYPE
  2
DIVIDEX2
 70
    64
  3
Divide (2x) ________  .  .  ________  .  .  _
 72
    65
 73
     6
 40
15.0
 49
6.0
 49
-3.0
 49
0.0
 49
-3.0
 49
0.0
 49
-3.0
  0
LTYPE
  2
DOT
 70
    64
  3
Dot . . . . . . . . . . . . . . . . . . . . . .
 72
    65
 73
     2
 40
1.5
 49
0.0
 49
-1.5
  0
LTYPE
  2
DOT2
 70
    64
  3
Dot (.5x) .....................................
 72
    65
 73
     2
 40
0.75
 49
0.0
 49
-0.75
  0
LTYPE
  2
DOTX2
 70
    64
  3
Dot (2x) .  .  .  .  .  .  .  .  .  .  .  .  . 
 72
    65
 73
     2
 40
3.0
 49
0.0
 49
-3.0
  0
LTYPE
  2
HIDDEN
 70
    64
  3
Hidden __ __ __ __ __ __ __ __ __ __ __ __ __ _
 72
    65
 73
     2
 40
4.5
 49
3.0
 49
-1.5
  0
LTYPE
  2
HIDDEN2
 70
    64
  3
Hidden (.5x) _ _ _ _ _ _ _ _ _ _ _ _ _ _ _ _ _
 72
    65
 73
     2
 40
2.25
 49
1.5
 49
-0.75
  0
LTYPE
  2
HIDDENX2
 70
    64
  3
Hidden (2x) ____ ____ ____ ____ ____ ____ ____
 72
    65
 73
     2
 40
9.0
 49
6.0
 49
-3.0
  0
LTYPE
  2
PHANTOM
 70
    64
  3
Phantom ______  __  __  ______  __  __  ______
 72
    65
 73
     6
 40
15.0
 49
7.5
 49
-1.5
 49
1.5
 49
-1.5
 49
1.5
 49
-1.5
  0
LTYPE
  2
PHANTOM2
 70
    64
  3
Phantom (.5x) ___ _ _ ___ _ _ ___ _ _ ___ _ _
 72
    65
 73
     6
 40
7.5
 49
3.75
 49
-0.75
 49
0.75
 49
-0.75
 49
0.75
 49
-0.75
  0
LTYPE
  2
PHANTOMX2
 70
    64
  3
Phantom (2x) ____________    ____    ____   _
 72
    65
 73
     6
 40
30.0
 49
15.0
 49
-3.0
 49
3.0
 49
-3.0
 49
3.0
 49
-3.0
  0
ENDTAB
  0
TABLE
  2
LAYER
 70
     1
  0
LAYER
  2
0
 70
     0
 62
     7
  6
CONTINUOUS
  0
ENDTAB
  0
TABLE
  2
STYLE
 70
     1
  0
STYLE
  2
STANDARD
 70
     0
 40
0.0
 41
1.0
 50
0.0
 71
     0
 42
0.2
  3
txt
  4
BIGFONT
  0
ENDTAB
  0
TABLE
  2
DIMSTYLE
 70
     0
  0
ENDTAB
  0
ENDSEC
  0
SECTION
  2
BLOCKS
  0
ENDSEC
  0
SECTION
  2
ENTITIES
  0
LINE
  8
0
  6
CONTINUOUS
 62
     7
 10
-99.834999
 20
115.94
 11
-74.834999
 21
115.94
  0
LINE
  8
0
  6
CONTINUOUS
 62
     7
 10
-99.834999
 20
123.94
 11
-74.834999
 21
123.94
  0
LINE
  8
0
  6
CONTINUOUS
 62
     7
 10
-99.834999
 20
123.94
 11
-99.834999
 21
115.94
  0
LINE
  8
0
  6
CONTINUOUS
 62
     7
 10
-74.834999
 20
123.94
 11
-74.834999
 21
115.94
  0
LINE
  8
0
  6
CENTER
 62
     7
 10
-87.334999
 20
125.70695
 11
-87.334999
 21
113.97353
  0
LINE
  8
0
  6
CONTINUOUS
 62
     7
 10
-99.834999
 20
119.14
 11
-74.834999
 21
119.14
  0
LINE
  8
0
  6
CONTINUOUS
 62
     7
 10
-89.434998
 20
119.14
 11
-89.434998
 21
115.94
  0
LINE
  8
0
  6
CONTINUOUS
 62
     7
 10
-85.235001
 20
119.14
 11
-85.235001
 21
115.94
  0
LINE
  8
0
  6
CONTINUOUS
 62
     7
 10
-91.334999
 20
123.94
 11
-91.334999
 21
119.14
  0
LINE
  8
0
  6
CONTINUOUS
 62
     7
 10
-83.334999
 20
123.94
 11
-83.334999
 21
119.14
  0
LINE
  8
0
  6
CONTINUOUS
 62
     7
 10
-86.834999
 20
197.91252
 11
-86.834999
 21
199.90251
  0
LINE
  8
0
  6
CONTINUOUS
 62
     7
 10
-86.084999
 20
198.66252
 11
-86.084999
 21
199.84987
  0
LINE
  8
0
  6
CONTINUOUS
 62
     7
 10
-84.584999
 20
198.66252
 11
-84.584999
 21
199.60626
  0
LINE
  8
0
  6
CONTINUOUS
 62
     7
 10
-83.834999
 20
197.91252
 11
-83.834999
 21
199.41252
  0
LINE
  8
0
  6
CONTINUOUS
 62
     7
 10
-84.584992
 20
198.66252
 11
-83.835005
 21
197.91253
  0
LINE
  8
0
  6
CONTINUOUS
 62
     7
 10
-86.084999
 20
198.66252
 11
-84.584999
 21
198.66252
  0
LINE
  8
0
  6
CONTINUOUS
 62
     7
 10
-86.834999
 20
197.91252
 11
-83.834999
 21
197.91252
  0
LINE
  8
0
  6
CONTINUOUS
 62
     7
 10
-86.085002
 20
198.66254
 11
-86.835004
 21
197.91254
  0
LINE
  8
0
  6
CONTINUOUS
 62
     7
 10
-82.834999
 20
197.91252
 11
-82.834999
 21
199.07443
  0
LINE
  8
0
  6
CONTINUOUS
 62
     7
 10
-82.834999
 20
197.91252
 11
-80.552666
 21
197.91252
  0
LINE
  8
0
  6
CONTINUOUS
 62
     7
 10
-82.020866
 20
198.72667
 11
-82.835008
 21
197.91253
  0
LINE
  8
0
  6
CONTINUOUS
 62
     7
 10
-82.834999
 20
187.41252
 11
-82.834999
 21
188.91252
  0
LINE
  8
0
  6
CONTINUOUS
 62
     7
 10
-82.084999
 20
187.41252
 11
-82.084999
 21
188.16252
  0
LINE
  8
0
  6
CONTINUOUS
 62
     7
 10
-82.084999
 20
188.16252
 11
-80.584999
 21
188.16252
  0
LINE
  8
0
  6
CONTINUOUS
 62
     7
 10
-82.085002
 20
188.16251
 11
-82.835006
 21
188.91252
  0
LINE
  8
0
  6
CONTINUOUS
 62
     7
 10
-82.834999
 20
188.91252
 11
-79.834999
 21
188.91252
  0
LINE
  8
0
  6
CONTINUOUS
 62
     7
 10
-80.584998
 20
188.16253
 11
-79.834997
 21
188.91253
  0
LINE
  8
0
  6
CONTINUOUS
 62
     7
 10
-79.834999
 20
187.41252
 11
-79.834999
 21
188.91252
  0
LINE
  8
0
  6
CONTINUOUS
 62
     7
 10
-80.584999
 20
187.41252
 11
-80.584999
 21
188.16252
  0
LINE
  8
0
  6
CONTINUOUS
 62
     7
 10
-78.084999
 20
187.41252
 11
-78.084999
 21
188.16252
  0
LINE
  8
0
  6
CONTINUOUS
 62
     7
 10
-76.584999
 20
188.16252
 11
-78.084999
 21
188.16252
  0
LINE
  8
0
  6
CONTINUOUS
 62
     7
 10
-76.585005
 20
188.16254
 11
-75.835003
 21
188.91254
  0
LINE
  8
0
  6
CONTINUOUS
 62
     7
 10
-76.584999
 20
187.41252
 11
-76.584999
 21
188.16252
  0
LINE
  8
0
  6
CONTINUOUS
 62
     7
 10
-75.834999
 20
187.41252
 11
-75.834999
 21
188.91252
  0
LINE
  8
0
  6
CONTINUOUS
 62
     7
 10
-78.834999
 20
188.91252
 11
-75.834999
 21
188.91252
  0
LINE
  8
0
  6
CONTINUOUS
 62
     7
 10
-78.834999
 20
187.41252
 11
-78.834999
 21
188.91252
  0
LINE
  8
0
  6
CONTINUOUS
 62
     7
 10
-78.085006
 20
188.16252
 11
-78.834999
 21
188.91252
  0
LINE
  8
0
  6
CONTINUOUS
 62
     7
 10
-76.584999
 20
190.66252
 11
-75.835001
 21
189.91253
  0
LINE
  8
0
  6
CONTINUOUS
 62
     7
 10
-78.834999
 20
189.91252
 11
-75.834999
 21
189.91252
  0
LINE
  8
0
  6
CONTINUOUS
 62
     7
 10
-86.834999
 20
192.91252
 11
-83.834999
 21
192.91252
  0
LINE
  8
0
  6
CONTINUOUS
 62
     7
 10
-86.084999
 20
192.16252
 11
-84.584999
 21
192.16252
  0
LINE
  8
0
  6
CONTINUOUS
 62
     7
 10
-86.084998
 20
192.16251
 11
-86.835003
 21
192.91252
  0
LINE
  8
0
  6
CONTINUOUS
 62
     7
 10
-86.834999
 20
191.38115
 11
-86.834999
 21
192.91252
  0
LINE
  8
0
  6
CONTINUOUS
 62
     7
 10
-86.084999
 20
191.21219
 11
-86.084999
 21
192.16252
  0
LINE
  8
0
  6
CONTINUOUS
 62
     7
 10
-84.584999
 20
190.66252
 11
-84.584999
 21
192.16252
  0
LINE
  8
0
  6
CONTINUOUS
 62
     7
 10
-84.584994
 20
192.16252
 11
-83.834993
 21
192.91252
  0
LINE
  8
0
  6
CONTINUOUS
 62
     7
 10
-83.834999
 20
189.91252
 11
-83.834999
 21
192.91252
  0
LINE
  8
0
  6
CONTINUOUS
 62
     7
 10
-84.585003
 20
190.66252
 11
-83.834993
 21
189.91252
  0
LINE
  8
0
  6
CONTINUOUS
 62
     7
 10
-85.003151
 20
190.66252
 11
-84.584999
 21
190.66252
  0
LINE
  8
0
  6
CONTINUOUS
 62
     7
 10
-84.212502
 20
189.91252
 11
-83.834999
 21
189.91252
  0
LINE
  8
0
  6
CONTINUOUS
 62
     7
 10
-82.834999
 20
189.91252
 11
-82.834999
 21
192.91252
  0
LINE
  8
0
  6
CONTINUOUS
 62
     7
 10
-82.084999
 20
190.66252
 11
-82.084999
 21
192.16252
  0
LINE
  8
0
  6
CONTINUOUS
 62
     7
 10
-82.084999
 20
192.16252
 11
-80.584999
 21
192.16252
  0
LINE
  8
0
  6
CONTINUOUS
 62
     7
 10
-82.085
 20
192.16253
 11
-82.834998
 21
192.91252
  0
LINE
  8
0
  6
CONTINUOUS
 62
     7
 10
-82.834999
 20
192.91252
 11
-79.834999
 21
192.91252
  0
LINE
  8
0
  6
CONTINUOUS
 62
     7
 10
-80.58499
 20
192.16252
 11
-79.834989
 21
192.91252
  0
LINE
  8
0
  6
CONTINUOUS
 62
     7
 10
-79.834999
 20
189.91252
 11
-79.834999
 21
192.91252
  0
LINE
  8
0
  6
CONTINUOUS
 62
     7
 10
-80.584999
 20
190.66252
 11
-80.584999
 21
192.16252
  0
LINE
  8
0
  6
CONTINUOUS
 62
     7
 10
-82.084999
 20
190.66252
 11
-80.584999
 21
190.66252
  0
LINE
  8
0
  6
CONTINUOUS
 62
     7
 10
-80.584998
 20
190.66251
 11
-79.835
 21
189.91252
  0
LINE
  8
0
  6
CONTINUOUS
 62
     7
 10
-82.834999
 20
189.91252
 11
-79.834999
 21
189.91252
  0
LINE
  8
0
  6
CONTINUOUS
 62
     7
 10
-82.084993
 20
190.66251
 11
-82.834994
 21
189.91251
  0
LINE
  8
0
  6
CONTINUOUS
 62
     7
 10
-78.084999
 20
190.66252
 11
-78.084999
 21
192.16252
  0
LINE
  8
0
  6
CONTINUOUS
 62
     7
 10
-76.584999
 20
190.66252
 11
-78.084999
 21
190.66252
  0
LINE
  8
0
  6
CONTINUOUS
 62
     7
 10
-76.584999
 20
192.16252
 11
-78.084999
 21
192.16252
  0
LINE
  8
0
  6
CONTINUOUS
 62
     7
 10
-76.584995
 20
192.16251
 11
-76.020852
 21
192.72666
  0
LINE
  8
0
  6
CONTINUOUS
 62
     7
 10
-76.584999
 20
190.66252
 11
-76.584999
 21
192.16252
  0
LINE
  8
0
  6
CONTINUOUS
 62
     7
 10
-75.834999
 20
189.91252
 11
-75.834999
 21
192.31151
  0
LINE
  8
0
  6
CONTINUOUS
 62
     7
 10
-78.834999
 20
192.91252
 11
-76.110031
 21
192.91252
  0
LINE
  8
0
  6
CONTINUOUS
 62
     7
 10
-78.834999
 20
189.91252
 11
-78.834999
 21
192.91252
  0
LINE
  8
0
  6
CONTINUOUS
 62
     7
 10
-78.084996
 20
192.16253
 11
-78.834995
 21
192.91252
  0
LINE
  8
0
  6
CONTINUOUS
 62
     7
 10
-78.084999
 20
190.66252
 11
-78.834995
 21
189.91253
  0
LINE
  8
0
  6
CONTINUOUS
 62
     7
 10
-78.834999
 20
193.91252
 11
-76.657921
 21
193.91252
  0
LINE
  8
0
  6
CONTINUOUS
 62
     7
 10
-86.834999
 20
196.91252
 11
-83.834999
 21
196.91252
  0
LINE
  8
0
  6
CONTINUOUS
 62
     7
 10
-86.084999
 20
196.16252
 11
-84.584999
 21
196.16252
  0
LINE
  8
0
  6
CONTINUOUS
 62
     7
 10
-86.085004
 20
196.16252
 11
-86.835008
 21
196.91253
  0
LINE
  8
0
  6
CONTINUOUS
 62
     7
 10
-86.834999
 20
193.91252
 11
-86.834999
 21
196.91252
  0
LINE
  8
0
  6
CONTINUOUS
 62
     7
 10
-86.084999
 20
194.66252
 11
-86.084999
 21
196.16252
  0
LINE
  8
0
  6
CONTINUOUS
 62
     7
 10
-84.584999
 20
194.66252
 11
-84.584999
 21
196.16252
  0
LINE
  8
0
  6
CONTINUOUS
 62
     7
 10
-84.584998
 20
196.16253
 11
-83.834996
 21
196.91254
  0
LINE
  8
0
  6
CONTINUOUS
 62
     7
 10
-83.834999
 20
193.91252
 11
-83.834999
 21
196.91252
  0
LINE
  8
0
  6
CONTINUOUS
 62
     7
 10
-84.584994
 20
194.66252
 11
-83.835001
 21
193.91252
  0
LINE
  8
0
  6
CONTINUOUS
 62
     7
 10
-86.084999
 20
194.66252
 11
-84.584999
 21
194.66252
  0
LINE
  8
0
  6
CONTINUOUS
 62
     7
 10
-86.834999
 20
193.91252
 11
-83.834999
 21
193.91252
  0
LINE
  8
0
  6
CONTINUOUS
 62
     7
 10
-86.085
 20
194.66252
 11
-86.835001
 21
193.91252
  0
LINE
  8
0
  6
CONTINUOUS
 62
     7
 10
-82.834999
 20
193.91252
 11
-82.834999
 21
196.91252
  0
LINE
  8
0
  6
CONTINUOUS
 62
     7
 10
-82.084999
 20
194.66252
 11
-82.084999
 21
196.16252
  0
LINE
  8
0
  6
CONTINUOUS
 62
     7
 10
-82.084999
 20
196.16252
 11
-80.584999
 21
196.16252
  0
LINE
  8
0
  6
CONTINUOUS
 62
     7
 10
-82.084994
 20
196.16252
 11
-82.834998
 21
196.91252
  0
LINE
  8
0
  6
CONTINUOUS
 62
     7
 10
-82.834999
 20
196.91252
 11
-79.834999
 21
196.91252
  0
LINE
  8
0
  6
CONTINUOUS
 62
     7
 10
-80.585004
 20
196.16253
 11
-79.835002
 21
196.91253
  0
LINE
  8
0
  6
CONTINUOUS
 62
     7
 10
-79.834999
 20
193.91252
 11
-79.834999
 21
196.91252
  0
LINE
  8
0
  6
CONTINUOUS
 62
     7
 10
-80.584999
 20
194.66252
 11
-80.584999
 21
196.16252
  0
LINE
  8
0
  6
CONTINUOUS
 62
     7
 10
-82.084999
 20
194.66252
 11
-80.584999
 21
194.66252
  0
LINE
  8
0
  6
CONTINUOUS
 62
     7
 10
-80.585002
 20
194.66253
 11
-79.834998
 21
193.91252
  0
LINE
  8
0
  6
CONTINUOUS
 62
     7
 10
-82.834999
 20
193.91252
 11
-79.834999
 21
193.91252
  0
LINE
  8
0
  6
CONTINUOUS
 62
     7
 10
-82.08499
 20
194.66252
 11
-82.834991
 21
193.91252
  0
LINE
  8
0
  6
CONTINUOUS
 62
     7
 10
-78.084999
 20
194.66252
 11
-78.084999
 21
195.82011
  0
LINE
  8
0
  6
CONTINUOUS
 62
     7
 10
-77.15229
 20
194.66252
 11
-78.084999
 21
194.66252
  0
LINE
  8
0
  6
CONTINUOUS
 62
     7
 10
-78.834999
 20
193.91252
 11
-78.834999
 21
196.57767
  0
LINE
  8
0
  6
CONTINUOUS
 62
     7
 10
-78.085002
 20
194.66252
 11
-78.835003
 21
193.91252
  0
LINE
  8
0
  6
CONTINUOUS
 62
     7
 10
-77.15229
 20
180.16252
 11
-78.084999
 21
180.16252
  0
LINE
  8
0
  6
CONTINUOUS
 62
     7
 10
-78.834999
 20
180.91252
 11
-78.834999
 21
178.24738
  0
LINE
  8
0
  6
CONTINUOUS
 62
     7
 10
-78.084991
 20
180.16252
 11
-78.835001
 21
180.91252
  0
LINE
  8
0
  6
CONTINUOUS
 62
     7
 10
-86.834999
 20
176.91252
 11
-86.834999
 21
174.92253
  0
LINE
  8
0
  6
CONTINUOUS
 62
     7
 10
-86.084999
 20
176.16252
 11
-86.084999
 21
174.97517
  0
LINE
  8
0
  6
CONTINUOUS
 62
     7
 10
-84.584999
 20
176.16252
 11
-84.584999
 21
175.21878
  0
LINE
  8
0
  6
CONTINUOUS
 62
     7
 10
-83.834999
 20
176.91252
 11
-83.834999
 21
175.41252
  0
LINE
  8
0
  6
CONTINUOUS
 62
     7
 10
-84.584991
 20
176.16252
 11
-83.834995
 21
176.91253
  0
LINE
  8
0
  6
CONTINUOUS
 62
     7
 10
-86.084999
 20
176.16252
 11
-84.584999
 21
176.16252
  0
LINE
  8
0
  6
CONTINUOUS
 62
     7
 10
-86.834999
 20
176.91252
 11
-83.834999
 21
176.91252
  0
LINE
  8
0
  6
CONTINUOUS
 62
     7
 10
-86.084995
 20
176.16252
 11
-86.834999
 21
176.91253
  0
LINE
  8
0
  6
CONTINUOUS
 62
     7
 10
-82.834999
 20
176.91252
 11
-82.834999
 21
175.75061
  0
LINE
  8
0
  6
CONTINUOUS
 62
     7
 10
-82.834999
 20
176.91252
 11
-80.552666
 21
176.91252
  0
LINE
  8
0
  6
CONTINUOUS
 62
     7
 10
-82.020848
 20
176.09838
 11
-82.834998
 21
176.91253
  0
LINE
  8
0
  6
CONTINUOUS
 62
     7
 10
-82.834999
 20
187.41252
 11
-82.834999
 21
185.91252
  0
LINE
  8
0
  6
CONTINUOUS
 62
     7
 10
-82.084999
 20
187.41252
 11
-82.084999
 21
186.66252
  0
LINE
  8
0
  6
CONTINUOUS
 62
     7
 10
-82.084999
 20
186.66252
 11
-80.584999
 21
186.66252
  0
LINE
  8
0
  6
CONTINUOUS
 62
     7
 10
-82.084994
 20
186.66251
 11
-82.834993
 21
185.91252
  0
LINE
  8
0
  6
CONTINUOUS
 62
     7
 10
-82.834999
 20
185.91252
 11
-79.834999
 21
185.91252
  0
LINE
  8
0
  6
CONTINUOUS
 62
     7
 10
-80.585
 20
186.66251
 11
-79.835007
 21
185.91252
  0
LINE
  8
0
  6
CONTINUOUS
 62
     7
 10
-79.834999
 20
187.41252
 11
-79.834999
 21
185.91252
  0
LINE
  8
0
  6
CONTINUOUS
 62
     7
 10
-80.584999
 20
187.41252
 11
-80.584999
 21
186.66252
  0
LINE
  8
0
  6
CONTINUOUS
 62
     7
 10
-78.084999
 20
187.41252
 11
-78.084999
 21
186.66252
  0
LINE
  8
0
  6
CONTINUOUS
 62
     7
 10
-76.584999
 20
186.66252
 11
-78.084999
 21
186.66252
  0
LINE
  8
0
  6
CONTINUOUS
 62
     7
 10
-76.585003
 20
186.66252
 11
-75.834998
 21
185.91252
  0
LINE
  8
0
  6
CONTINUOUS
 62
     7
 10
-76.584999
 20
187.41252
 11
-76.584999
 21
186.66252
  0
LINE
  8
0
  6
CONTINUOUS
 62
     7
 10
-75.834999
 20
187.41252
 11
-75.834999
 21
185.91252
  0
LINE
  8
0
  6
CONTINUOUS
 62
     7
 10
-78.834999
 20
185.91252
 11
-75.834999
 21
185.91252
  0
LINE
  8
0
  6
CONTINUOUS
 62
     7
 10
-78.834999
 20
187.41252
 11
-78.834999
 21
185.91252
  0
LINE
  8
0
  6
CONTINUOUS
 62
     7
 10
-78.085006
 20
186.66253
 11
-78.835007
 21
185.91252
  0
LINE
  8
0
  6
CONTINUOUS
 62
     7
 10
-76.584997
 20
184.16252
 11
-75.834995
 21
184.91252
  0
LINE
  8
0
  6
CONTINUOUS
 62
     7
 10
-78.834999
 20
184.91252
 11
-75.834999
 21
184.91252
  0
LINE
  8
0
  6
CONTINUOUS
 62
     7
 10
-86.834999
 20
181.91252
 11
-83.834999
 21
181.91252
  0
LINE
  8
0
  6
CONTINUOUS
 62
     7
 10
-86.084999
 20
182.66252
 11
-84.584999
 21
182.66252
  0
LINE
  8
0
  6
CONTINUOUS
 62
     7
 10
-86.084989
 20
182.66252
 11
-86.83499
 21
181.91251
  0
LINE
  8
0
  6
CONTINUOUS
 62
     7
 10
-86.834999
 20
183.44389
 11
-86.834999
 21
181.91252
  0
LINE
  8
0
  6
CONTINUOUS
 62
     7
 10
-86.084999
 20
183.61285
 11
-86.084999
 21
182.66252
  0
LINE
  8
0
  6
CONTINUOUS
 62
     7
 10
-84.584999
 20
184.16252
 11
-84.584999
 21
182.66252
  0
LINE
  8
0
  6
CONTINUOUS
 62
     7
 10
-84.585003
 20
182.66252
 11
-83.835005
 21
181.91253
  0
LINE
  8
0
  6
CONTINUOUS
 62
     7
 10
-83.834999
 20
184.91252
 11
-83.834999
 21
181.91252
  0
LINE
  8
0
  6
CONTINUOUS
 62
     7
 10
-84.584994
 20
184.16252
 11
-83.834994
 21
184.91252
  0
LINE
  8
0
  6
CONTINUOUS
 62
     7
 10
-85.003151
 20
184.16252
 11
-84.584999
 21
184.16252
  0
LINE
  8
0
  6
CONTINUOUS
 62
     7
 10
-84.212502
 20
184.91252
 11
-83.834999
 21
184.91252
  0
LINE
  8
0
  6
CONTINUOUS
 62
     7
 10
-82.834999
 20
184.91252
 11
-82.834999
 21
181.91252
  0
LINE
  8
0
  6
CONTINUOUS
 62
     7
 10
-82.084999
 20
184.16252
 11
-82.084999
 21
182.66252
  0
LINE
  8
0
  6
CONTINUOUS
 62
     7
 10
-82.084999
 20
182.66252
 11
-80.584999
 21
182.66252
  0
LINE
  8
0
  6
CONTINUOUS
 62
     7
 10
-82.085003
 20
182.66253
 11
-82.835003
 21
181.91253
  0
LINE
  8
0
  6
CONTINUOUS
 62
     7
 10
-82.834999
 20
181.91252
 11
-79.834999
 21
181.91252
  0
LINE
  8
0
  6
CONTINUOUS
 62
     7
 10
-80.584999
 20
182.66252
 11
-79.835
 21
181.91252
  0
LINE
  8
0
  6
CONTINUOUS
 62
     7
 10
-79.834999
 20
184.91252
 11
-79.834999
 21
181.91252
  0
LINE
  8
0
  6
CONTINUOUS
 62
     7
 10
-80.584999
 20
184.16252
 11
-80.584999
 21
182.66252
  0
LINE
  8
0
  6
CONTINUOUS
 62
     7
 10
-82.084999
 20
184.16252
 11
-80.584999
 21
184.16252
  0
LINE
  8
0
  6
CONTINUOUS
 62
     7
 10
-80.585003
 20
184.16253
 11
-79.835005
 21
184.91252
  0
LINE
  8
0
  6
CONTINUOUS
 62
     7
 10
-82.834999
 20
184.91252
 11
-79.834999
 21
184.91252
  0
LINE
  8
0
  6
CONTINUOUS
 62
     7
 10
-82.084994
 20
184.16251
 11
-82.834998
 21
184.91252
  0
LINE
  8
0
  6
CONTINUOUS
 62
     7
 10
-78.084999
 20
184.16252
 11
-78.084999
 21
182.66252
  0
LINE
  8
0
  6
CONTINUOUS
 62
     7
 10
-76.584999
 20
184.16252
 11
-78.084999
 21
184.16252
  0
LINE
  8
0
  6
CONTINUOUS
 62
     7
 10
-76.584999
 20
182.66252
 11
-78.084999
 21
182.66252
  0
LINE
  8
0
  6
CONTINUOUS
 62
     7
 10
-76.584997
 20
182.66252
 11
-76.020855
 21
182.09837
  0
LINE
  8
0
  6
CONTINUOUS
 62
     7
 10
-76.584999
 20
184.16252
 11
-76.584999
 21
182.66252
  0
LINE
  8
0
  6
CONTINUOUS
 62
     7
 10
-75.834999
 20
184.91252
 11
-75.834999
 21
182.51353
  0
LINE
  8
0
  6
CONTINUOUS
 62
     7
 10
-78.834999
 20
181.91252
 11
-76.110031
 21
181.91252
  0
LINE
  8
0
  6
CONTINUOUS
 62
     7
 10
-78.834999
 20
184.91252
 11
-78.834999
 21
181.91252
  0
LINE
  8
0
  6
CONTINUOUS
 62
     7
 10
-78.085005
 20
182.66252
 11
-78.834998
 21
181.91253
  0
LINE
  8
0
  6
CONTINUOUS
 62
     7
 10
-78.084991
 20
184.16252
 11
-78.835
 21
184.91252
  0
LINE
  8
0
  6
CONTINUOUS
 62
     7
 10
-78.834999
 20
180.91252
 11
-76.657921
 21
180.91252
  0
LINE
  8
0
  6
CONTINUOUS
 62
     7
 10
-86.834999
 20
177.91252
 11
-83.834999
 21
177.91252
  0
LINE
  8
0
  6
CONTINUOUS
 62
     7
 10
-86.084999
 20
178.66252
 11
-84.584999
 21
178.66252
  0
LINE
  8
0
  6
CONTINUOUS
 62
     7
 10
-86.085
 20
178.66253
 11
-86.835001
 21
177.91253
  0
LINE
  8
0
  6
CONTINUOUS
 62
     7
 10
-86.834999
 20
180.91252
 11
-86.834999
 21
177.91252
  0
LINE
  8
0
  6
CONTINUOUS
 62
     7
 10
-86.084999
 20
180.16252
 11
-86.084999
 21
178.66252
  0
LINE
  8
0
  6
CONTINUOUS
 62
     7
 10
-84.584999
 20
180.16252
 11
-84.584999
 21
178.66252
  0
LINE
  8
0
  6
CONTINUOUS
 62
     7
 10
-84.584991
 20
178.66252
 11
-83.835003
 21
177.91253
  0
LINE
  8
0
  6
CONTINUOUS
 62
     7
 10
-83.834999
 20
180.91252
 11
-83.834999
 21
177.91252
  0
LINE
  8
0
  6
CONTINUOUS
 62
     7
 10
-84.585008
 20
180.16252
 11
-83.835007
 21
180.91252
  0
LINE
  8
0
  6
CONTINUOUS
 62
     7
 10
-86.084999
 20
180.16252
 11
-84.584999
 21
180.16252
  0
LINE
  8
0
  6
CONTINUOUS
 62
     7
 10
-86.834999
 20
180.91252
 11
-83.834999
 21
180.91252
  0
LINE
  8
0
  6
CONTINUOUS
 62
     7
 10
-86.084995
 20
180.16251
 11
-86.834999
 21
180.91252
  0
LINE
  8
0
  6
CONTINUOUS
 62
     7
 10
-82.834999
 20
180.91252
 11
-82.834999
 21
177.91252
  0
LINE
  8
0
  6
CONTINUOUS
 62
     7
 10
-82.084999
 20
180.16252
 11
-82.084999
 21
178.66252
  0
LINE
  8
0
  6
CONTINUOUS
 62
     7
 10
-82.084999
 20
178.66252
 11
-80.584999
 21
178.66252
  0
LINE
  8
0
  6
CONTINUOUS
 62
     7
 10
-82.085003
 20
178.66252
 11
-82.835003
 21
177.91252
  0
LINE
  8
0
  6
CONTINUOUS
 62
     7
 10
-82.834999
 20
177.91252
 11
-79.834999
 21
177.91252
  0
LINE
  8
0
  6
CONTINUOUS
 62
     7
 10
-80.584996
 20
178.66251
 11
-79.835002
 21
177.91252
  0
LINE
  8
0
  6
CONTINUOUS
 62
     7
 10
-79.834999
 20
180.91252
 11
-79.834999
 21
177.91252
  0
LINE
  8
0
  6
CONTINUOUS
 62
     7
 10
-80.584999
 20
180.16252
 11
-80.584999
 21
178.66252
  0
LINE
  8
0
  6
CONTINUOUS
 62
     7
 10
-82.084999
 20
180.16252
 11
-80.584999
 21
180.16252
  0
LINE
  8
0
  6
CONTINUOUS
 62
     7
 10
-80.584998
 20
180.16252
 11
-79.835002
 21
180.91252
  0
LINE
  8
0
  6
CONTINUOUS
 62
     7
 10
-82.834999
 20
180.91252
 11
-79.834999
 21
180.91252
  0
LINE
  8
0
  6
CONTINUOUS
 62
     7
 10
-82.085001
 20
180.16252
 11
-82.83501
 21
180.91252
  0
LINE
  8
0
  6
CONTINUOUS
 62
     7
 10
-78.084999
 20
180.16252
 11
-78.084999
 21
179.00493
  0
LINE
  8
0
  6
CONTINUOUS
 62
     7
 10
-87.834999
 20
197.91252
 11
-87.834999
 21
199.90251
  0
LINE
  8
0
  6
CONTINUOUS
 62
     7
 10
-88.584999
 20
198.66252
 11
-88.584999
 21
199.84987
  0
LINE
  8
0
  6
CONTINUOUS
 62
     7
 10
-90.084999
 20
198.66252
 11
-90.084999
 21
199.60626
  0
LINE
  8
0
  6
CONTINUOUS
 62
     7
 10
-90.834999
 20
197.91252
 11
-90.834999
 21
199.41252
  0
LINE
  8
0
  6
CONTINUOUS
 62
     7
 10
-90.085001
 20
198.66252
 11
-90.834997
 21
197.91253
  0
LINE
  8
0
  6
CONTINUOUS
 62
     7
 10
-88.584999
 20
198.66252
 11
-90.084999
 21
198.66252
  0
LINE
  8
0
  6
CONTINUOUS
 62
     7
 10
-87.834999
 20
197.91252
 11
-90.834999
 21
197.91252
  0
LINE
  8
0
  6
CONTINUOUS
 62
     7
 10
-88.585007
 20
198.66252
 11
-87.835008
 21
197.91253
  0
LINE
  8
0
  6
CONTINUOUS
 62
     7
 10
-91.834999
 20
197.91252
 11
-91.834999
 21
199.07443
  0
LINE
  8
0
  6
CONTINUOUS
 62
     7
 10
-91.834999
 20
197.91252
 11
-94.117332
 21
197.91252
  0
LINE
  8
0
  6
CONTINUOUS
 62
     7
 10
-92.649147
 20
198.72667
 11
-91.834997
 21
197.91252
  0
LINE
  8
0
  6
CONTINUOUS
 62
     7
 10
-91.834999
 20
187.41252
 11
-91.834999
 21
188.91252
  0
LINE
  8
0
  6
CONTINUOUS
 62
     7
 10
-92.584999
 20
187.41252
 11
-92.584999
 21
188.16252
  0
LINE
  8
0
  6
CONTINUOUS
 62
     7
 10
-92.584999
 20
188.16252
 11
-94.084999
 21
188.16252
  0
LINE
  8
0
  6
CONTINUOUS
 62
     7
 10
-92.585
 20
188.16252
 11
-91.835004
 21
188.91252
  0
LINE
  8
0
  6
CONTINUOUS
 62
     7
 10
-91.834999
 20
188.91252
 11
-94.834999
 21
188.91252
  0
LINE
  8
0
  6
CONTINUOUS
 62
     7
 10
-94.085001
 20
188.16252
 11
-94.835006
 21
188.91253
  0
LINE
  8
0
  6
CONTINUOUS
 62
     7
 10
-94.834999
 20
187.41252
 11
-94.834999
 21
188.91252
  0
LINE
  8
0
  6
CONTINUOUS
 62
     7
 10
-94.084999
 20
187.41252
 11
-94.084999
 21
188.16252
  0
LINE
  8
0
  6
CONTINUOUS
 62
     7
 10
-96.584999
 20
187.41252
 11
-96.584999
 21
188.16252
  0
LINE
  8
0
  6
CONTINUOUS
 62
     7
 10
-98.084999
 20
188.16252
 11
-96.584999
 21
188.16252
  0
LINE
  8
0
  6
CONTINUOUS
 62
     7
 10
-98.085
 20
188.16252
 11
-98.834994
 21
188.91251
  0
LINE
  8
0
  6
CONTINUOUS
 62
     7
 10
-98.084999
 20
187.41252
 11
-98.084999
 21
188.16252
  0
LINE
  8
0
  6
CONTINUOUS
 62
     7
 10
-98.834999
 20
187.41252
 11
-98.834999
 21
188.91252
  0
LINE
  8
0
  6
CONTINUOUS
 62
     7
 10
-95.834999
 20
188.91252
 11
-98.834999
 21
188.91252
  0
LINE
  8
0
  6
CONTINUOUS
 62
     7
 10
-95.834999
 20
187.41252
 11
-95.834999
 21
188.91252
  0
LINE
  8
0
  6
CONTINUOUS
 62
     7
 10
-96.584999
 20
188.16253
 11
-95.834998
 21
188.91253
  0
LINE
  8
0
  6
CONTINUOUS
 62
     7
 10
-98.084994
 20
190.66252
 11
-98.834995
 21
189.91252
  0
LINE
  8
0
  6
CONTINUOUS
 62
     7
 10
-95.834999
 20
189.91252
 11
-98.834999
 21
189.91252
  0
LINE
  8
0
  6
CONTINUOUS
 62
     7
 10
-87.834999
 20
192.91252
 11
-90.834999
 21
192.91252
  0
LINE
  8
0
  6
CONTINUOUS
 62
     7
 10
-88.584999
 20
192.16252
 11
-90.084999
 21
192.16252
  0
LINE
  8
0
  6
CONTINUOUS
 62
     7
 10
-88.584995
 20
192.16252
 11
-87.834997
 21
192.91252
  0
LINE
  8
0
  6
CONTINUOUS
 62
     7
 10
-87.834999
 20
191.38115
 11
-87.834999
 21
192.91252
  0
LINE
  8
0
  6
CONTINUOUS
 62
     7
 10
-88.584999
 20
191.21219
 11
-88.584999
 21
192.16252
  0
LINE
  8
0
  6
CONTINUOUS
 62
     7
 10
-90.084999
 20
190.66252
 11
-90.084999
 21
192.16252
  0
LINE
  8
0
  6
CONTINUOUS
 62
     7
 10
-90.085003
 20
192.16252
 11
-90.835007
 21
192.91253
  0
LINE
  8
0
  6
CONTINUOUS
 62
     7
 10
-90.834999
 20
189.91252
 11
-90.834999
 21
192.91252
  0
LINE
  8
0
  6
CONTINUOUS
 62
     7
 10
-90.085001
 20
190.66252
 11
-90.835003
 21
189.91252
  0
LINE
  8
0
  6
CONTINUOUS
 62
     7
 10
-89.666847
 20
190.66252
 11
-90.084999
 21
190.66252
  0
LINE
  8
0
  6
CONTINUOUS
 62
     7
 10
-90.457497
 20
189.91252
 11
-90.834999
 21
189.91252
  0
LINE
  8
0
  6
CONTINUOUS
 62
     7
 10
-91.834999
 20
189.91252
 11
-91.834999
 21
192.91252
  0
LINE
  8
0
  6
CONTINUOUS
 62
     7
 10
-92.584999
 20
190.66252
 11
-92.584999
 21
192.16252
  0
LINE
  8
0
  6
CONTINUOUS
 62
     7
 10
-92.584999
 20
192.16252
 11
-94.084999
 21
192.16252
  0
LINE
  8
0
  6
CONTINUOUS
 62
     7
 10
-92.584998
 20
192.16253
 11
-91.834996
 21
192.91253
  0
LINE
  8
0
  6
CONTINUOUS
 62
     7
 10
-91.834999
 20
192.91252
 11
-94.834999
 21
192.91252
  0
LINE
  8
0
  6
CONTINUOUS
 62
     7
 10
-94.085002
 20
192.16252
 11
-94.834995
 21
192.91251
  0
LINE
  8
0
  6
CONTINUOUS
 62
     7
 10
-94.834999
 20
189.91252
 11
-94.834999
 21
192.91252
  0
LINE
  8
0
  6
CONTINUOUS
 62
     7
 10
-94.084999
 20
190.66252
 11
-94.084999
 21
192.16252
  0
LINE
  8
0
  6
CONTINUOUS
 62
     7
 10
-92.584999
 20
190.66252
 11
-94.084999
 21
190.66252
  0
LINE
  8
0
  6
CONTINUOUS
 62
     7
 10
-94.085006
 20
190.66252
 11
-94.835007
 21
189.91252
  0
LINE
  8
0
  6
CONTINUOUS
 62
     7
 10
-91.834999
 20
189.91252
 11
-94.834999
 21
189.91252
  0
LINE
  8
0
  6
CONTINUOUS
 62
     7
 10
-92.584999
 20
190.66252
 11
-91.835005
 21
189.91252
  0
LINE
  8
0
  6
CONTINUOUS
 62
     7
 10
-96.584999
 20
190.66252
 11
-96.584999
 21
192.16252
  0
LINE
  8
0
  6
CONTINUOUS
 62
     7
 10
-98.084999
 20
190.66252
 11
-96.584999
 21
190.66252
  0
LINE
  8
0
  6
CONTINUOUS
 62
     7
 10
-98.084999
 20
192.16252
 11
-96.584999
 21
192.16252
  0
LINE
  8
0
  6
CONTINUOUS
 62
     7
 10
-98.084996
 20
192.16253
 11
-98.649143
 21
192.72668
  0
LINE
  8
0
  6
CONTINUOUS
 62
     7
 10
-98.084999
 20
190.66252
 11
-98.084999
 21
192.16252
  0
LINE
  8
0
  6
CONTINUOUS
 62
     7
 10
-98.834999
 20
189.91252
 11
-98.834999
 21
192.31151
  0
LINE
  8
0
  6
CONTINUOUS
 62
     7
 10
-95.834999
 20
192.91252
 11
-98.559967
 21
192.91252
  0
LINE
  8
0
  6
CONTINUOUS
 62
     7
 10
-95.834999
 20
189.91252
 11
-95.834999
 21
192.91252
  0
LINE
  8
0
  6
CONTINUOUS
 62
     7
 10
-96.584992
 20
192.16251
 11
-95.83499
 21
192.91252
  0
LINE
  8
0
  6
CONTINUOUS
 62
     7
 10
-96.584994
 20
190.66252
 11
-95.835006
 21
189.91253
  0
LINE
  8
0
  6
CONTINUOUS
 62
     7
 10
-95.834999
 20
193.91252
 11
-98.012077
 21
193.91252
  0
LINE
  8
0
  6
CONTINUOUS
 62
     7
 10
-87.834999
 20
196.91252
 11
-90.834999
 21
196.91252
  0
LINE
  8
0
  6
CONTINUOUS
 62
     7
 10
-88.584999
 20
196.16252
 11
-90.084999
 21
196.16252
  0
LINE
  8
0
  6
CONTINUOUS
 62
     7
 10
-88.585002
 20
196.16252
 11
-87.835
 21
196.91253
  0
LINE
  8
0
  6
CONTINUOUS
 62
     7
 10
-87.834999
 20
193.91252
 11
-87.834999
 21
196.91252
  0
LINE
  8
0
  6
CONTINUOUS
 62
     7
 10
-88.584999
 20
194.66252
 11
-88.584999
 21
196.16252
  0
LINE
  8
0
  6
CONTINUOUS
 62
     7
 10
-90.084999
 20
194.66252
 11
-90.084999
 21
196.16252
  0
LINE
  8
0
  6
CONTINUOUS
 62
     7
 10
-90.084998
 20
196.16251
 11
-90.834997
 21
196.91251
  0
LINE
  8
0
  6
CONTINUOUS
 62
     7
 10
-90.834999
 20
193.91252
 11
-90.834999
 21
196.91252
  0
LINE
  8
0
  6
CONTINUOUS
 62
     7
 10
-90.085005
 20
194.66252
 11
-90.835003
 21
193.91253
  0
LINE
  8
0
  6
CONTINUOUS
 62
     7
 10
-88.584999
 20
194.66252
 11
-90.084999
 21
194.66252
  0
LINE
  8
0
  6
CONTINUOUS
 62
     7
 10
-87.834999
 20
193.91252
 11
-90.834999
 21
193.91252
  0
LINE
  8
0
  6
CONTINUOUS
 62
     7
 10
-88.585
 20
194.66252
 11
-87.835006
 21
193.91252
  0
LINE
  8
0
  6
CONTINUOUS
 62
     7
 10
-91.834999
 20
193.91252
 11
-91.834999
 21
196.91252
  0
LINE
  8
0
  6
CONTINUOUS
 62
     7
 10
-92.584999
 20
194.66252
 11
-92.584999
 21
196.16252
  0
LINE
  8
0
  6
CONTINUOUS
 62
     7
 10
-92.584999
 20
196.16252
 11
-94.084999
 21
196.16252
  0
LINE
  8
0
  6
CONTINUOUS
 62
     7
 10
-92.584992
 20
196.16252
 11
-91.834999
 21
196.91251
  0
LINE
  8
0
  6
CONTINUOUS
 62
     7
 10
-91.834999
 20
196.91252
 11
-94.834999
 21
196.91252
  0
LINE
  8
0
  6
CONTINUOUS
 62
     7
 10
-94.084996
 20
196.16252
 11
-94.835001
 21
196.91252
  0
LINE
  8
0
  6
CONTINUOUS
 62
     7
 10
-94.834999
 20
193.91252
 11
-94.834999
 21
196.91252
  0
LINE
  8
0
  6
CONTINUOUS
 62
     7
 10
-94.084999
 20
194.66252
 11
-94.084999
 21
196.16252
  0
LINE
  8
0
  6
CONTINUOUS
 62
     7
 10
-92.584999
 20
194.66252
 11
-94.084999
 21
194.66252
  0
LINE
  8
0
  6
CONTINUOUS
 62
     7
 10
-94.084992
 20
194.66252
 11
-94.834993
 21
193.91252
  0
LINE
  8
0
  6
CONTINUOUS
 62
     7
 10
-91.834999
 20
193.91252
 11
-94.834999
 21
193.91252
  0
LINE
  8
0
  6
CONTINUOUS
 62
     7
 10
-92.585
 20
194.66252
 11
-91.835002
 21
193.91253
  0
LINE
  8
0
  6
CONTINUOUS
 62
     7
 10
-96.584999
 20
194.66252
 11
-96.584999
 21
195.82011
  0
LINE
  8
0
  6
CONTINUOUS
 62
     7
 10
-97.517708
 20
194.66252
 11
-96.584999
 21
194.66252
  0
LINE
  8
0
  6
CONTINUOUS
 62
     7
 10
-95.834999
 20
193.91252
 11
-95.834999
 21
196.57767
  0
LINE
  8
0
  6
CONTINUOUS
 62
     7
 10
-96.585005
 20
194.66252
 11
-95.834995
 21
193.91252
  0
LINE
  8
0
  6
CONTINUOUS
 62
     7
 10
-97.517708
 20
180.16252
 11
-96.584999
 21
180.16252
  0
LINE
  8
0
  6
CONTINUOUS
 62
     7
 10
-95.834999
 20
180.91252
 11
-95.834999
 21
178.24738
  0
LINE
  8
0
  6
CONTINUOUS
 62
     7
 10
-96.584999
 20
180.16252
 11
-95.834999
 21
180.91252
  0
LINE
  8
0
  6
CONTINUOUS
 62
     7
 10
-87.834999
 20
176.91252
 11
-87.834999
 21
174.92253
  0
LINE
  8
0
  6
CONTINUOUS
 62
     7
 10
-88.584999
 20
176.16252
 11
-88.584999
 21
174.97517
  0
LINE
  8
0
  6
CONTINUOUS
 62
     7
 10
-90.084999
 20
176.16252
 11
-90.084999
 21
175.21878
  0
LINE
  8
0
  6
CONTINUOUS
 62
     7
 10
-90.834999
 20
176.91252
 11
-90.834999
 21
175.41252
  0
LINE
  8
0
  6
CONTINUOUS
 62
     7
 10
-90.084996
 20
176.16252
 11
-90.834989
 21
176.91252
  0
LINE
  8
0
  6
CONTINUOUS
 62
     7
 10
-88.584999
 20
176.16252
 11
-90.084999
 21
176.16252
  0
LINE
  8
0
  6
CONTINUOUS
 62
     7
 10
-87.834999
 20
176.91252
 11
-90.834999
 21
176.91252
  0
LINE
  8
0
  6
CONTINUOUS
 62
     7
 10
-88.584996
 20
176.16252
 11
-87.834997
 21
176.91253
  0
LINE
  8
0
  6
CONTINUOUS
 62
     7
 10
-91.834999
 20
176.91252
 11
-91.834999
 21
175.75061
  0
LINE
  8
0
  6
CONTINUOUS
 62
     7
 10
-91.834999
 20
176.91252
 11
-94.117332
 21
176.91252
  0
LINE
  8
0
  6
CONTINUOUS
 62
     7
 10
-92.649139
 20
176.09837
 11
-91.834996
 21
176.91252
  0
LINE
  8
0
  6
CONTINUOUS
 62
     7
 10
-91.834999
 20
187.41252
 11
-91.834999
 21
185.91252
  0
LINE
  8
0
  6
CONTINUOUS
 62
     7
 10
-92.584999
 20
187.41252
 11
-92.584999
 21
186.66252
  0
LINE
  8
0
  6
CONTINUOUS
 62
     7
 10
-92.584999
 20
186.66252
 11
-94.084999
 21
186.66252
  0
LINE
  8
0
  6
CONTINUOUS
 62
     7
 10
-92.584997
 20
186.66253
 11
-91.834993
 21
185.91252
  0
LINE
  8
0
  6
CONTINUOUS
 62
     7
 10
-91.834999
 20
185.91252
 11
-94.834999
 21
185.91252
  0
LINE
  8
0
  6
CONTINUOUS
 62
     7
 10
-94.084989
 20
186.66253
 11
-94.834991
 21
185.91252
  0
LINE
  8
0
  6
CONTINUOUS
 62
     7
 10
-94.834999
 20
187.41252
 11
-94.834999
 21
185.91252
  0
LINE
  8
0
  6
CONTINUOUS
 62
     7
 10
-94.084999
 20
187.41252
 11
-94.084999
 21
186.66252
  0
LINE
  8
0
  6
CONTINUOUS
 62
     7
 10
-96.584999
 20
187.41252
 11
-96.584999
 21
186.66252
  0
LINE
  8
0
  6
CONTINUOUS
 62
     7
 10
-98.084999
 20
186.66252
 11
-96.584999
 21
186.66252
  0
LINE
  8
0
  6
CONTINUOUS
 62
     7
 10
-98.085003
 20
186.66253
 11
-98.835004
 21
185.91252
  0
LINE
  8
0
  6
CONTINUOUS
 62
     7
 10
-98.084999
 20
187.41252
 11
-98.084999
 21
186.66252
  0
LINE
  8
0
  6
CONTINUOUS
 62
     7
 10
-98.834999
 20
187.41252
 11
-98.834999
 21
185.91252
  0
LINE
  8
0
  6
CONTINUOUS
 62
     7
 10
-95.834999
 20
185.91252
 11
-98.834999
 21
185.91252
  0
LINE
  8
0
  6
CONTINUOUS
 62
     7
 10
-95.834999
 20
187.41252
 11
-95.834999
 21
185.91252
  0
LINE
  8
0
  6
CONTINUOUS
 62
     7
 10
-96.584997
 20
186.66252
 11
-95.835004
 21
185.91252
  0
LINE
  8
0
  6
CONTINUOUS
 62
     7
 10
-98.085003
 20
184.16252
 11
-98.835007
 21
184.91253
  0
LINE
  8
0
  6
CONTINUOUS
 62
     7
 10
-95.834999
 20
184.91252
 11
-98.834999
 21
184.91252
  0
LINE
  8
0
  6
CONTINUOUS
 62
     7
 10
-87.834999
 20
181.91252
 11
-90.834999
 21
181.91252
  0
LINE
  8
0
  6
CONTINUOUS
 62
     7
 10
-88.584999
 20
182.66252
 11
-90.084999
 21
182.66252
  0
LINE
  8
0
  6
CONTINUOUS
 62
     7
 10
-88.585005
 20
182.66253
 11
-87.835
 21
181.91252
  0
LINE
  8
0
  6
CONTINUOUS
 62
     7
 10
-87.834999
 20
183.44389
 11
-87.834999
 21
181.91252
  0
LINE
  8
0
  6
CONTINUOUS
 62
     7
 10
-88.584999
 20
183.61285
 11
-88.584999
 21
182.66252
  0
LINE
  8
0
  6
CONTINUOUS
 62
     7
 10
-90.084999
 20
184.16252
 11
-90.084999
 21
182.66252
  0
LINE
  8
0
  6
CONTINUOUS
 62
     7
 10
-90.084996
 20
182.66252
 11
-90.834997
 21
181.91252
  0
LINE
  8
0
  6
CONTINUOUS
 62
     7
 10
-90.834999
 20
184.91252
 11
-90.834999
 21
181.91252
  0
LINE
  8
0
  6
CONTINUOUS
 62
     7
 10
-90.085004
 20
184.16253
 11
-90.834992
 21
184.91252
  0
LINE
  8
0
  6
CONTINUOUS
 62
     7
 10
-89.666847
 20
184.16252
 11
-90.084999
 21
184.16252
  0
LINE
  8
0
  6
CONTINUOUS
 62
     7
 10
-90.457497
 20
184.91252
 11
-90.834999
 21
184.91252
  0
LINE
  8
0
  6
CONTINUOUS
 62
     7
 10
-91.834999
 20
184.91252
 11
-91.834999
 21
181.91252
  0
LINE
  8
0
  6
CONTINUOUS
 62
     7
 10
-92.584999
 20
184.16252
 11
-92.584999
 21
182.66252
  0
LINE
  8
0
  6
CONTINUOUS
 62
     7
 10
-92.584999
 20
182.66252
 11
-94.084999
 21
182.66252
  0
LINE
  8
0
  6
CONTINUOUS
 62
     7
 10
-92.585001
 20
182.66253
 11
-91.834997
 21
181.91252
  0
LINE
  8
0
  6
CONTINUOUS
 62
     7
 10
-91.834999
 20
181.91252
 11
-94.834999
 21
181.91252
  0
LINE
  8
0
  6
CONTINUOUS
 62
     7
 10
-94.085
 20
182.66253
 11
-94.835002
 21
181.91252
  0
LINE
  8
0
  6
CONTINUOUS
 62
     7
 10
-94.834999
 20
184.91252
 11
-94.834999
 21
181.91252
  0
LINE
  8
0
  6
CONTINUOUS
 62
     7
 10
-94.084999
 20
184.16252
 11
-94.084999
 21
182.66252
  0
LINE
  8
0
  6
CONTINUOUS
 62
     7
 10
-92.584999
 20
184.16252
 11
-94.084999
 21
184.16252
  0
LINE
  8
0
  6
CONTINUOUS
 62
     7
 10
-94.08499
 20
184.16252
 11
-94.834999
 21
184.91252
  0
LINE
  8
0
  6
CONTINUOUS
 62
     7
 10
-91.834999
 20
184.91252
 11
-94.834999
 21
184.91252
  0
LINE
  8
0
  6
CONTINUOUS
 62
     7
 10
-92.584998
 20
184.16253
 11
-91.834996
 21
184.91253
  0
LINE
  8
0
  6
CONTINUOUS
 62
     7
 10
-96.584999
 20
184.16252
 11
-96.584999
 21
182.66252
  0
LINE
  8
0
  6
CONTINUOUS
 62
     7
 10
-98.084999
 20
184.16252
 11
-96.584999
 21
184.16252
  0
LINE
  8
0
  6
CONTINUOUS
 62
     7
 10
-98.084999
 20
182.66252
 11
-96.584999
 21
182.66252
  0
LINE
  8
0
  6
CONTINUOUS
 62
     7
 10
-98.084999
 20
182.66252
 11
-98.649144
 21
182.09838
  0
LINE
  8
0
  6
CONTINUOUS
 62
     7
 10
-98.084999
 20
184.16252
 11
-98.084999
 21
182.66252
  0
LINE
  8
0
  6
CONTINUOUS
 62
     7
 10
-98.834999
 20
184.91252
 11
-98.834999
 21
182.51353
  0
LINE
  8
0
  6
CONTINUOUS
 62
     7
 10
-95.834999
 20
181.91252
 11
-98.559967
 21
181.91252
  0
LINE
  8
0
  6
CONTINUOUS
 62
     7
 10
-95.834999
 20
184.91252
 11
-95.834999
 21
181.91252
  0
LINE
  8
0
  6
CONTINUOUS
 62
     7
 10
-96.58499
 20
182.66252
 11
-95.834997
 21
181.91252
  0
LINE
  8
0
  6
CONTINUOUS
 62
     7
 10
-96.585005
 20
184.16253
 11
-95.835003
 21
184.91253
  0
LINE
  8
0
  6
CONTINUOUS
 62
     7
 10
-95.834999
 20
180.91252
 11
-98.012077
 21
180.91252
  0
LINE
  8
0
  6
CONTINUOUS
 62
     7
 10
-87.834999
 20
177.91252
 11
-90.834999
 21
177.91252
  0
LINE
  8
0
  6
CONTINUOUS
 62
     7
 10
-88.584999
 20
178.66252
 11
-90.084999
 21
178.66252
  0
LINE
  8
0
  6
CONTINUOUS
 62
     7
 10
-88.584997
 20
178.66252
 11
-87.834998
 21
177.91253
  0
LINE
  8
0
  6
CONTINUOUS
 62
     7
 10
-87.834999
 20
180.91252
 11
-87.834999
 21
177.91252
  0
LINE
  8
0
  6
CONTINUOUS
 62
     7
 10
-88.584999
 20
180.16252
 11
-88.584999
 21
178.66252
  0
LINE
  8
0
  6
CONTINUOUS
 62
     7
 10
-90.084999
 20
180.16252
 11
-90.084999
 21
178.66252
  0
LINE
  8
0
  6
CONTINUOUS
 62
     7
 10
-90.084996
 20
178.66252
 11
-90.834995
 21
177.91252
  0
LINE
  8
0
  6
CONTINUOUS
 62
     7
 10
-90.834999
 20
180.91252
 11
-90.834999
 21
177.91252
  0
LINE
  8
0
  6
CONTINUOUS
 62
     7
 10
-90.085002
 20
180.16252
 11
-90.834996
 21
180.91252
  0
LINE
  8
0
  6
CONTINUOUS
 62
     7
 10
-88.584999
 20
180.16252
 11
-90.084999
 21
180.16252
  0
LINE
  8
0
  6
CONTINUOUS
 62
     7
 10
-87.834999
 20
180.91252
 11
-90.834999
 21
180.91252
  0
LINE
  8
0
  6
CONTINUOUS
 62
     7
 10
-88.584993
 20
180.16252
 11
-87.834993
 21
180.91252
  0
LINE
  8
0
  6
CONTINUOUS
 62
     7
 10
-91.834999
 20
180.91252
 11
-91.834999
 21
177.91252
  0
LINE
  8
0
  6
CONTINUOUS
 62
     7
 10
-92.584999
 20
180.16252
 11
-92.584999
 21
178.66252
  0
LINE
  8
0
  6
CONTINUOUS
 62
     7
 10
-92.584999
 20
178.66252
 11
-94.084999
 21
178.66252
  0
LINE
  8
0
  6
CONTINUOUS
 62
     7
 10
-92.585004
 20
178.66252
 11
-91.834994
 21
177.91252
  0
LINE
  8
0
  6
CONTINUOUS
 62
     7
 10
-91.834999
 20
177.91252
 11
-94.834999
 21
177.91252
  0
LINE
  8
0
  6
CONTINUOUS
 62
     7
 10
-94.084997
 20
178.66252
 11
-94.834997
 21
177.91252
  0
LINE
  8
0
  6
CONTINUOUS
 62
     7
 10
-94.834999
 20
180.91252
 11
-94.834999
 21
177.91252
  0
LINE
  8
0
  6
CONTINUOUS
 62
     7
 10
-94.084999
 20
180.16252
 11
-94.084999
 21
178.66252
  0
LINE
  8
0
  6
CONTINUOUS
 62
     7
 10
-92.584999
 20
180.16252
 11
-94.084999
 21
180.16252
  0
LINE
  8
0
  6
CONTINUOUS
 62
     7
 10
-94.085003
 20
180.16253
 11
-94.835001
 21
180.91252
  0
LINE
  8
0
  6
CONTINUOUS
 62
     7
 10
-91.834999
 20
180.91252
 11
-94.834999
 21
180.91252
  0
LINE
  8
0
  6
CONTINUOUS
 62
     7
 10
-92.584998
 20
180.16252
 11
-91.834999
 21
180.91252
  0
LINE
  8
0
  6
CONTINUOUS
 62
     7
 10
-96.584999
 20
180.16252
 11
-96.584999
 21
179.00493
  0
LINE
  8
0
  6
CENTER
 62
     7
 10
-72.294998
 20
187.41252
 11
-102.375
 21
187.41252
  0
LINE
  8
0
  6
CENTER
 62
     7
 10
-87.334999
 20
202.45251
 11
-87.334999
 21
172.37253
  0
LINE
  8
0
  6
CONTINUOUS
 62
     7
 10
-91.898688
 20
119.14
 11
-91.335002
 21
119.70369
  0
LINE
  8
0
  6
CONTINUOUS
 62
     7
 10
-94.143744
 20
119.14
 11
-91.334996
 21
121.94875
  0
LINE
  8
0
  6
CONTINUOUS
 62
     7
 10
-96.388807
 20
119.14
 11
-91.588815
 21
123.94
  0
LINE
  8
0
  6
CONTINUOUS
 62
     7
 10
-98.633865
 20
119.14
 11
-93.833871
 21
123.94
  0
LINE
  8
0
  6
CONTINUOUS
 62
     7
 10
-99.834996
 20
120.18393
 11
-96.078936
 21
123.94
  0
LINE
  8
0
  6
CONTINUOUS
 62
     7
 10
-99.835005
 20
122.429
 11
-98.324007
 21
123.94
  0
LINE
  8
0
  6
CONTINUOUS
 62
     7
 10
-76.183257
 20
119.14
 11
-74.835002
 21
120.48826
  0
LINE
  8
0
  6
CONTINUOUS
 62
     7
 10
-78.42831
 20
119.14
 11
-74.834997
 21
122.73332
  0
LINE
  8
0
  6
CONTINUOUS
 62
     7
 10
-80.673371
 20
119.14
 11
-75.873377
 21
123.94
  0
LINE
  8
0
  6
CONTINUOUS
 62
     7
 10
-82.918439
 20
119.14
 11
-78.118446
 21
123.94
  0
LINE
  8
0
  6
CONTINUOUS
 62
     7
 10
-83.334997
 20
120.9685
 11
-80.363505
 21
123.94
  0
LINE
  8
0
  6
CONTINUOUS
 62
     7
 10
-83.334999
 20
123.21357
 11
-82.608568
 21
123.94
  0
LINE
  8
0
  6
CONTINUOUS
 62
     7
 10
-177
 20
-0.19999981
 11
0
 21
-0.19999981
  0
LINE
  8
0
  6
CONTINUOUS
 62
     7
 10
-177
 20
274.29999
 11
-177
 21
-0.19999981
  0
LINE
  8
0
  6
CONTINUOUS
 62
     7
 10
-177
 20
-0.39999962
 11
-1.6000032
 21
-0.39999962
  0
LINE
  8
0
  6
CONTINUOUS
 62
     7
 10
0
 20
274.29999
 11
0
 21
0
  0
LINE
  8
0
  6
CONTINUOUS
 62
     7
 10
-0.20000005
 20
274.29999
 11
-0.20000005
 21
0
  0
LINE
  8
0
  6
CONTINUOUS
 62
     7
 10
-177
 20
274.29999
 11
0
 21
274.29999
  0
LINE
  8
0
  6
CONTINUOUS
 62
     7
 10
-177
 20
274.5
 11
0
 21
274.5
  0
LINE
  8
0
  6
CONTINUOUS
 62
     7
 10
-177.2
 20
274.29999
 11
-177.2
 21
-0.19999981
  0
LINE
  8
0
  6
CONTINUOUS
 62
     7
 10
-61.799999
 20
38.5
 11
-61.799999
 21
0
  0
LINE
  8
0
  6
CONTINUOUS
 62
     7
 10
-61.799999
 20
12.5
 11
0
 21
12.5
  0
LINE
  8
0
  6
CONTINUOUS
 62
     7
 10
-61.799999
 20
25
 11
0
 21
25
  0
LINE
  8
0
  6
CONTINUOUS
 62
     7
 10
-61.799999
 20
38.5
 11
0
 21
38.5
  0
CIRCLE
  8
0
  6
CONTINUOUS
 62
     7
 10
-87.334999
 20
187.41252
 40
12.5
  0
CIRCLE
  8
0
  6
CONTINUOUS
 62
     7
 10
-87.334999
 20
187.41252
 40
4
  0
CIRCLE
  8
0
  6
CONTINUOUS
 62
     7
 10
-87.334999
 20
187.41252
 40
2.0999999
  0
TEXT
  8
0
  6
CONTINUOUS
 62
     7
 10
-54.100907
 20
32.718217
 40
4.8000002
 41
0.84448342
  1
ミニシリンダー用当板
  0
TEXT
  8
0
  6
CONTINUOUS
 62
     7
 10
-50.311071
 20
26.106237
 40
4.8000002
 41
0.84556534
  1
丸型%%C２５（黒）
  0
TEXT
  8
0
  6
CONTINUOUS
 62
     7
 10
-44.409074
 20
15.637266
 40
4.8000002
 41
0.84741096
  1
ＣＰ－０１５
  0
TEXT
  8
0
  6
CONTINUOUS
 62
     7
 10
-44.500907
 20
3.0561352
 40
4.8000002
 41
0.84741096
  1
３７００７１
  0
ENDSEC
  0
EOF
