  0
SECTION
  2
HEADER
  9
$EXTMAX
 10
1.2182922
 20
274.528
 30
0
  9
$EXTMIN
 10
-177.2301
 20
-1.0560455
 30
0
  9
$LIMMAX
 10
1.2182922
 20
274.528
  9
$LIMMIN
 10
-177.2301
 20
-1.0560455
  9
$PLIMMAX
 10
1.2182922
 20
274.528
  9
$PLIMMIN
 10
-177.2301
 20
-1.0560455
  9
$PEXTMAX
 10
1.2182922
 20
274.528
 30
0
  9
$PEXTMIN
 10
-177.2301
 20
-1.0560455
 30
0
  9
$TEXTSIZE
 40
3.2
  9
$DIMSHO
 70
     0
  9
$DIMASZ
 40
1.0
  9
$DIMTAD
 70
     1
  9
$DIMTIH
 70
     0
  9
$DIMTOH
 70
     0
  9
$DIMEXE
 40
2.54
  9
$DIMEXO
 40
2.54
  9
$DIMTVP
 40
1.0
  9
$DIMSAH
 70
     1
  9
$DIMDLE
 40
0.0
  9
$DIMTXT
 40
3.2
  9
$DIMGAP
 40
1.6
  0
ENDSEC
  0
SECTION
  2
TABLES
  0
TABLE
  2
LTYPE
 70
     39
  0
LTYPE
  2
CONTINUOUS
 70
    64
  3
Solid line
 72
    65
 73
     0
 40
0.0
  0
LTYPE
  2
ACAD_ISO02W100
 70
     0
  3
ISO dash __ __ __ __ __ __ __ __ __ __ __ __ __
 72
    65
 73
     2
 40
15.0
 49
12.0
 49
-3.0
  0
LTYPE
  2
ACAD_ISO03W100
 70
     0
  3
ISO dash space __    __    __    __    __    __
 72
    65
 73
     2
 40
30.0
 49
12.0
 49
-18.0
  0
LTYPE
  2
ACAD_ISO04W100
 70
     0
  3
ISO long-dash dot ____ . ____ . ____ . ____ . _
 72
    65
 73
     4
 40
30.0
 49
24.0
 49
-3.0
 49
0.0
 49
-3.0
  0
LTYPE
  2
ACAD_ISO05W100
 70
     0
  3
ISO long-dash double-dot ____ .. ____ .. ____ .
 72
    65
 73
     6
 40
33.0
 49
24.0
 49
-3.0
 49
0.0
 49
-3.0
 49
0.0
 49
-3.0
  0
LTYPE
  2
ACAD_ISO06W100
 70
     0
  3
ISO long-dash triple-dot ____ ... ____ ... ____
 72
    65
 73
     8
 40
36.0
 49
24.0
 49
-3.0
 49
0.0
 49
-3.0
 49
0.0
 49
-3.0
 49
0.0
 49
-3.0
  0
LTYPE
  2
ACAD_ISO07W100
 70
     0
  3
ISO dot . . . . . . . . . . . . . . . . . . . .
 72
    65
 73
     2
 40
3.0
 49
0.0
 49
-3.0
  0
LTYPE
  2
ACAD_ISO08W100
 70
     0
  3
ISO long-dash short-dash ____ __ ____ __ ____ _
 72
    65
 73
     4
 40
36.0
 49
24.0
 49
-3.0
 49
6.0
 49
-3.0
  0
LTYPE
  2
ACAD_ISO09W100
 70
     0
  3
ISO long-dash double-short-dash ____ __ __ ____
 72
    65
 73
     6
 40
45.0
 49
24.0
 49
-3.0
 49
6.0
 49
-3.0
 49
6.0
 49
-3.0
  0
LTYPE
  2
ACAD_ISO10W100
 70
     0
  3
ISO dash dot __ . __ . __ . __ . __ . __ . __ .
 72
    65
 73
     4
 40
18.0
 49
12.0
 49
-3.0
 49
0.0
 49
-3.0
  0
LTYPE
  2
ACAD_ISO11W100
 70
     0
  3
ISO double-dash dot __ __ . __ __ . __ __ . __ 
 72
    65
 73
     6
 40
33.0
 49
12.0
 49
-3.0
 49
12.0
 49
-3.0
 49
0.0
 49
-3.0
  0
LTYPE
  2
ACAD_ISO12W100
 70
     0
  3
ISO dash double-dot __ . . __ . . __ . . __ . .
 72
    65
 73
     6
 40
21.0
 49
12.0
 49
-3.0
 49
0.0
 49
-3.0
 49
0.0
 49
-3.0
  0
LTYPE
  2
ACAD_ISO13W100
 70
     0
  3
ISO double-dash double-dot __ __ . . __ __ . . 
 72
    65
 73
     8
 40
36.0
 49
12.0
 49
-3.0
 49
12.0
 49
-3.0
 49
0.0
 49
-3.0
 49
0.0
 49
-3.0
  0
LTYPE
  2
ACAD_ISO14W100
 70
     0
  3
ISO dash triple-dot __ . . . __ . . . __ . . . 
 72
    65
 73
     8
 40
24.0
 49
12.0
 49
-3.0
 49
0.0
 49
-3.0
 49
0.0
 49
-3.0
 49
0.0
 49
-3.0
  0
LTYPE
  2
ACAD_ISO15W100
 70
     0
  3
ISO double-dash triple-dot __ __ . . . __ __ . 
 72
    65
 73
    10
 40
39.0
 49
12.0
 49
-3.0
 49
12.0
 49
-3.0
 49
0.0
 49
-3.0
 49
0.0
 49
-3.0
 49
0.0
 49
-3.0
  0
LTYPE
  2
BORDER
 70
    64
  3
Border __ __ . __ __ . __ __ . __ __ . __ __ .
 72
    65
 73
     6
 40
3.5
 49
1.0
 49
-0.5
 49
1.0
 49
-0.5
 49
0.0
 49
-0.5
  0
LTYPE
  2
BORDER2
 70
    64
  3
Border (.5x) __.__.__.__.__.__.__.__.__.__.__.
 72
    65
 73
     6
 40
1.75
 49
0.5
 49
-0.25
 49
0.5
 49
-0.25
 49
0.0
 49
-0.25
  0
LTYPE
  2
BORDERX2
 70
    64
  3
Border (2x) ____  ____  .  ____  ____  .  ___
 72
    65
 73
     6
 40
7.0
 49
2.0
 49
-1.0
 49
2.0
 49
-1.0
 49
0.0
 49
-1.0
  0
LTYPE
  2
CENTER
 70
    64
  3
Center ____ _ ____ _ ____ _ ____ _ ____ _ ____
 72
    65
 73
     4
 40
12.0
 49
7.5
 49
-1.5
 49
1.5
 49
-1.5
  0
LTYPE
  2
CENTER2
 70
    64
  3
Center (.5x) ___ _ ___ _ ___ _ ___ _ ___ _ ___
 72
    65
 73
     4
 40
6.0
 49
3.75
 49
-0.75
 49
0.75
 49
-0.75
  0
LTYPE
  2
CENTERX2
 70
    64
  3
Center (2x) ________  __  ________  __  _____
 72
    65
 73
     4
 40
24.0
 49
15.0
 49
-3.0
 49
3.0
 49
-3.0
  0
LTYPE
  2
DASHDOT
 70
    64
  3
Dash dot __ . __ . __ . __ . __ . __ . __ . __
 72
    65
 73
     4
 40
6.0
 49
3.0
 49
-1.5
 49
0.0
 49
-1.5
  0
LTYPE
  2
DASHDOT2
 70
    64
  3
Dash dot (.5x) _._._._._._._._._._._._._._._.
 72
    65
 73
     4
 40
3.0
 49
1.5
 49
-0.75
 49
0.0
 49
-0.75
  0
LTYPE
  2
DASHDOTX2
 70
    64
  3
Dash dot (2x) ____  .  ____  .  ____  .  ___
 72
    65
 73
     4
 40
12.0
 49
6.0
 49
-3.0
 49
0.0
 49
-3.0
  0
LTYPE
  2
DASHED
 70
    64
  3
Dashed __ __ __ __ __ __ __ __ __ __ __ __ __ _
 72
    65
 73
     2
 40
4.5
 49
3.0
 49
-1.5
  0
LTYPE
  2
DASHED2
 70
    64
  3
Dashed (.5x) _ _ _ _ _ _ _ _ _ _ _ _ _ _ _ _ _
 72
    65
 73
     2
 40
2.25
 49
1.5
 49
-0.75
  0
LTYPE
  2
DASHEDX2
 70
    64
  3
Dashed (2x) ____  ____  ____  ____  ____  ___
 72
    65
 73
     2
 40
9.0
 49
6.0
 49
-3.0
  0
LTYPE
  2
DIVIDE
 70
    64
  3
Divide ____ . . ____ . . ____ . . ____ . . ____
 72
    65
 73
     6
 40
7.5
 49
3.0
 49
-1.5
 49
0.0
 49
-1.5
 49
0.0
 49
-1.5
  0
LTYPE
  2
DIVIDE2
 70
    64
  3
Divide (.5x) __..__..__..__..__..__..__..__.._
 72
    65
 73
     6
 40
3.75
 49
1.5
 49
-0.75
 49
0.0
 49
-0.75
 49
0.0
 49
-0.75
  0
LTYPE
  2
DIVIDEX2
 70
    64
  3
Divide (2x) ________  .  .  ________  .  .  _
 72
    65
 73
     6
 40
15.0
 49
6.0
 49
-3.0
 49
0.0
 49
-3.0
 49
0.0
 49
-3.0
  0
LTYPE
  2
DOT
 70
    64
  3
Dot . . . . . . . . . . . . . . . . . . . . . .
 72
    65
 73
     2
 40
1.5
 49
0.0
 49
-1.5
  0
LTYPE
  2
DOT2
 70
    64
  3
Dot (.5x) .....................................
 72
    65
 73
     2
 40
0.75
 49
0.0
 49
-0.75
  0
LTYPE
  2
DOTX2
 70
    64
  3
Dot (2x) .  .  .  .  .  .  .  .  .  .  .  .  . 
 72
    65
 73
     2
 40
3.0
 49
0.0
 49
-3.0
  0
LTYPE
  2
HIDDEN
 70
    64
  3
Hidden __ __ __ __ __ __ __ __ __ __ __ __ __ _
 72
    65
 73
     2
 40
4.5
 49
3.0
 49
-1.5
  0
LTYPE
  2
HIDDEN2
 70
    64
  3
Hidden (.5x) _ _ _ _ _ _ _ _ _ _ _ _ _ _ _ _ _
 72
    65
 73
     2
 40
2.25
 49
1.5
 49
-0.75
  0
LTYPE
  2
HIDDENX2
 70
    64
  3
Hidden (2x) ____ ____ ____ ____ ____ ____ ____
 72
    65
 73
     2
 40
9.0
 49
6.0
 49
-3.0
  0
LTYPE
  2
PHANTOM
 70
    64
  3
Phantom ______  __  __  ______  __  __  ______
 72
    65
 73
     6
 40
15.0
 49
7.5
 49
-1.5
 49
1.5
 49
-1.5
 49
1.5
 49
-1.5
  0
LTYPE
  2
PHANTOM2
 70
    64
  3
Phantom (.5x) ___ _ _ ___ _ _ ___ _ _ ___ _ _
 72
    65
 73
     6
 40
7.5
 49
3.75
 49
-0.75
 49
0.75
 49
-0.75
 49
0.75
 49
-0.75
  0
LTYPE
  2
PHANTOMX2
 70
    64
  3
Phantom (2x) ____________    ____    ____   _
 72
    65
 73
     6
 40
30.0
 49
15.0
 49
-3.0
 49
3.0
 49
-3.0
 49
3.0
 49
-3.0
  0
ENDTAB
  0
TABLE
  2
LAYER
 70
     1
  0
LAYER
  2
0
 70
     0
 62
     7
  6
CONTINUOUS
  0
ENDTAB
  0
TABLE
  2
STYLE
 70
     1
  0
STYLE
  2
STANDARD
 70
     0
 40
0.0
 41
1.0
 50
0.0
 71
     0
 42
0.2
  3
txt
  4
BIGFONT
  0
ENDTAB
  0
TABLE
  2
DIMSTYLE
 70
     0
  0
ENDTAB
  0
ENDSEC
  0
SECTION
  2
BLOCKS
  0
BLOCK
  8
0
  2
KOZU0001
 70
    64
 10
0
 20
0
  0
LINE
  8
0
  6
CONTINUOUS
 62
     7
 10
0
 20
0
 11
14.124106
 21
23.317227
  0
LINE
  8
0
  6
CONTINUOUS
 62
     7
 10
0
 20
0
 11
0.69897722
 21
3.0840607
  0
LINE
  8
0
  6
CONTINUOUS
 62
     7
 10
0
 20
0
 11
2.4096182
 21
2.0478622
  0
TEXT
  8
0
  6
CONTINUOUS
 62
     7
 10
15.696229
 20
28.917231
 40
3.2
 41
0.84741101
  1
セレーション
  0
TEXT
  8
0
  6
CONTINUOUS
 62
     7
 10
15.696229
 20
24.117231
 40
3.2
 41
0.84448347
  1
Ｐ＝１．５深０．７５
  0
LINE
  8
0
  6
CONTINUOUS
 62
     7
 10
0
 20
0
 11
14.124106
 21
23.317227
  0
LINE
  8
0
  6
CONTINUOUS
 62
     7
 10
14.124103
 20
23.317231
 11
47.9532
 21
23.317231
  0
ENDBLK
  8
0
  0
ENDSEC
  0
SECTION
  2
ENTITIES
  0
LINE
  8
0
  6
CONTINUOUS
 62
     7
 10
-59.685001
 20
138.48
 11
-59.685001
 21
135.28
  0
LINE
  8
0
  6
CONTINUOUS
 62
     7
 10
-45.685001
 20
135.48
 11
-45.685001
 21
117.48
  0
LINE
  8
0
  6
CONTINUOUS
 62
     7
 10
-59.685001
 20
138.48
 11
-48.685001
 21
138.48
  0
LINE
  8
0
  6
CONTINUOUS
 62
     7
 10
-48.885002
 20
117.48
 11
-45.685001
 21
117.48
  0
LINE
  8
0
  6
CONTINUOUS
 62
     7
 10
-48.885002
 20
135.28
 11
-48.885002
 21
117.48
  0
LINE
  8
0
  6
CONTINUOUS
 62
     7
 10
-59.685001
 20
135.28
 11
-48.885002
 21
135.28
  0
LINE
  8
0
  6
CENTER
 62
     7
 10
-52.413624
 20
123.48
 11
-42.728111
 21
123.48
  0
LINE
  8
0
  6
DASHED
 62
     7
 10
-46.685001
 20
126.48
 11
-45.685001
 21
126.48
  0
LINE
  8
0
  6
DASHED
 62
     7
 10
-46.685001
 20
120.48
 11
-45.685001
 21
120.48
  0
LINE
  8
0
  6
DASHED
 62
     7
 10
-46.685001
 20
126.48
 11
-46.685001
 21
120.48
  0
LINE
  8
0
  6
DASHED
 62
     7
 10
-49.585003
 20
121.37999
 11
-46.685001
 21
121.37999
  0
LINE
  8
0
  6
DASHED
 62
     7
 10
-49.585003
 20
125.58
 11
-46.685001
 21
125.58
  0
LINE
  8
0
  6
CONTINUOUS
 62
     7
 10
-49.585003
 20
126.48
 11
-49.585003
 21
120.48
  0
LINE
  8
0
  6
CONTINUOUS
 62
     7
 10
-49.585003
 20
126.48
 11
-48.885002
 21
126.48
  0
LINE
  8
0
  6
CONTINUOUS
 62
     7
 10
-49.585003
 20
120.48
 11
-48.885002
 21
120.48
  0
LINE
  8
0
  6
CONTINUOUS
 62
     7
 10
-58.935001
 20
138.48
 11
-58.935001
 21
135.28
  0
LINE
  8
0
  6
CONTINUOUS
 62
     7
 10
-132.61499
 20
138.48
 11
-132.61499
 21
120.48
  0
LINE
  8
0
  6
CONTINUOUS
 62
     7
 10
-92.614998
 20
138.48
 11
-92.614998
 21
120.48
  0
LINE
  8
0
  6
CONTINUOUS
 62
     7
 10
-129.61499
 20
117.48
 11
-95.614998
 21
117.48
  0
LINE
  8
0
  6
CONTINUOUS
 62
     7
 10
-132.61499
 20
138.48
 11
-92.614998
 21
138.48
  0
LINE
  8
0
  6
CONTINUOUS
 62
     7
 10
-132.61499
 20
135.28
 11
-92.614998
 21
135.28
  0
LINE
  8
0
  6
CONTINUOUS
 62
     7
 10
-115.9691
 20
120.48
 11
-109.26089
 21
120.48
  0
LINE
  8
0
  6
CONTINUOUS
 62
     7
 10
-115.9691
 20
126.48
 11
-109.26089
 21
126.48
  0
LINE
  8
0
  6
CENTER
 62
     7
 10
-106.48561
 20
123.48
 11
-118.96454
 21
123.48
  0
LINE
  8
0
  6
CENTER
 62
     7
 10
-112.615
 20
128.12
 11
-112.615
 21
118.84
  0
LINE
  8
0
  6
CONTINUOUS
 62
     7
 10
-131.70688
 20
138.47999
 11
-132.615
 21
137.57187
  0
LINE
  8
0
  6
CONTINUOUS
 62
     7
 10
-92.614989
 20
137.26679
 11
-94.60179
 21
135.27999
  0
LINE
  8
0
  6
CONTINUOUS
 62
     7
 10
-112.61499
 20
138.47999
 11
-115.81499
 21
135.27999
  0
LINE
  8
0
  6
CONTINUOUS
 62
     7
 10
-114.73631
 20
138.47999
 11
-117.93631
 21
135.27999
  0
LINE
  8
0
  6
CONTINUOUS
 62
     7
 10
-116.85763
 20
138.47998
 11
-120.05764
 21
135.27998
  0
LINE
  8
0
  6
CONTINUOUS
 62
     7
 10
-118.97896
 20
138.47999
 11
-122.17895
 21
135.27999
  0
LINE
  8
0
  6
CONTINUOUS
 62
     7
 10
-121.10028
 20
138.47999
 11
-124.30028
 21
135.27999
  0
LINE
  8
0
  6
CONTINUOUS
 62
     7
 10
-123.2216
 20
138.47999
 11
-126.4216
 21
135.27999
  0
LINE
  8
0
  6
CONTINUOUS
 62
     7
 10
-125.34292
 20
138.47999
 11
-128.54292
 21
135.27999
  0
LINE
  8
0
  6
CONTINUOUS
 62
     7
 10
-127.46424
 20
138.47999
 11
-130.66424
 21
135.27999
  0
LINE
  8
0
  6
CONTINUOUS
 62
     7
 10
-129.58556
 20
138.47999
 11
-132.615
 21
135.45055
  0
LINE
  8
0
  6
CONTINUOUS
 62
     7
 10
-110.49367
 20
138.47999
 11
-113.69367
 21
135.27999
  0
LINE
  8
0
  6
CONTINUOUS
 62
     7
 10
-108.37235
 20
138.47999
 11
-111.57235
 21
135.27999
  0
LINE
  8
0
  6
CONTINUOUS
 62
     7
 10
-106.25103
 20
138.47999
 11
-109.45103
 21
135.27999
  0
LINE
  8
0
  6
CONTINUOUS
 62
     7
 10
-104.12971
 20
138.47999
 11
-107.32971
 21
135.27999
  0
LINE
  8
0
  6
CONTINUOUS
 62
     7
 10
-102.00839
 20
138.47999
 11
-105.20839
 21
135.27999
  0
LINE
  8
0
  6
CONTINUOUS
 62
     7
 10
-99.887069
 20
138.47999
 11
-103.08707
 21
135.27999
  0
LINE
  8
0
  6
CONTINUOUS
 62
     7
 10
-97.76575
 20
138.47999
 11
-100.96575
 21
135.27999
  0
LINE
  8
0
  6
CONTINUOUS
 62
     7
 10
-95.64443
 20
138.47999
 11
-98.844429
 21
135.27999
  0
LINE
  8
0
  6
CONTINUOUS
 62
     7
 10
-93.52311
 20
138.47999
 11
-96.723109
 21
135.27999
  0
LINE
  8
0
  6
CONTINUOUS
 62
     7
 10
-132.61499
 20
201.9081
 11
-132.61499
 21
188.4081
  0
LINE
  8
0
  6
CONTINUOUS
 62
     7
 10
-92.614998
 20
201.9081
 11
-92.614998
 21
188.4081
  0
LINE
  8
0
  6
CONTINUOUS
 62
     7
 10
-132.61499
 20
201.9081
 11
-92.614998
 21
201.9081
  0
LINE
  8
0
  6
CONTINUOUS
 62
     7
 10
-93.114993
 20
187.9081
 11
-92.614993
 21
188.4081
  0
LINE
  8
0
  6
CONTINUOUS
 62
     7
 10
-93.864989
 20
188.65809
 11
-93.114993
 21
187.9081
  0
LINE
  8
0
  6
CONTINUOUS
 62
     7
 10
-132.11499
 20
187.90809
 11
-131.36499
 21
188.6581
  0
LINE
  8
0
  6
CONTINUOUS
 62
     7
 10
-132.615
 20
188.4081
 11
-132.11499
 21
187.90809
  0
LINE
  8
0
  6
CONTINUOUS
 62
     7
 10
-111.115
 20
187.90811
 11
-110.365
 21
188.65811
  0
LINE
  8
0
  6
CONTINUOUS
 62
     7
 10
-111.86499
 20
188.65809
 11
-111.115
 21
187.90811
  0
LINE
  8
0
  6
CONTINUOUS
 62
     7
 10
-109.615
 20
187.9081
 11
-108.865
 21
188.6581
  0
LINE
  8
0
  6
CONTINUOUS
 62
     7
 10
-110.365
 20
188.65811
 11
-109.615
 21
187.9081
  0
LINE
  8
0
  6
CONTINUOUS
 62
     7
 10
-108.115
 20
187.90809
 11
-107.365
 21
188.65811
  0
LINE
  8
0
  6
CONTINUOUS
 62
     7
 10
-108.865
 20
188.6581
 11
-108.115
 21
187.90809
  0
LINE
  8
0
  6
CONTINUOUS
 62
     7
 10
-106.615
 20
187.9081
 11
-105.865
 21
188.6581
  0
LINE
  8
0
  6
CONTINUOUS
 62
     7
 10
-107.365
 20
188.6581
 11
-106.615
 21
187.9081
  0
LINE
  8
0
  6
CONTINUOUS
 62
     7
 10
-105.11499
 20
187.90809
 11
-104.36499
 21
188.65809
  0
LINE
  8
0
  6
CONTINUOUS
 62
     7
 10
-105.865
 20
188.6581
 11
-105.11499
 21
187.90809
  0
LINE
  8
0
  6
CONTINUOUS
 62
     7
 10
-103.615
 20
187.90809
 11
-102.865
 21
188.6581
  0
LINE
  8
0
  6
CONTINUOUS
 62
     7
 10
-104.36499
 20
188.65809
 11
-103.615
 21
187.90809
  0
LINE
  8
0
  6
CONTINUOUS
 62
     7
 10
-102.11499
 20
187.90809
 11
-101.36499
 21
188.65809
  0
LINE
  8
0
  6
CONTINUOUS
 62
     7
 10
-102.865
 20
188.6581
 11
-102.11499
 21
187.90809
  0
LINE
  8
0
  6
CONTINUOUS
 62
     7
 10
-100.615
 20
187.90811
 11
-99.865006
 21
188.6581
  0
LINE
  8
0
  6
CONTINUOUS
 62
     7
 10
-101.36499
 20
188.65809
 11
-100.615
 21
187.90811
  0
LINE
  8
0
  6
CONTINUOUS
 62
     7
 10
-99.115
 20
187.9081
 11
-98.364999
 21
188.6581
  0
LINE
  8
0
  6
CONTINUOUS
 62
     7
 10
-99.865006
 20
188.6581
 11
-99.115
 21
187.9081
  0
LINE
  8
0
  6
CONTINUOUS
 62
     7
 10
-97.614987
 20
187.9081
 11
-96.864997
 21
188.65809
  0
LINE
  8
0
  6
CONTINUOUS
 62
     7
 10
-98.364996
 20
188.6581
 11
-97.614984
 21
187.9081
  0
LINE
  8
0
  6
CONTINUOUS
 62
     7
 10
-96.114997
 20
187.9081
 11
-95.364996
 21
188.6581
  0
LINE
  8
0
  6
CONTINUOUS
 62
     7
 10
-96.865002
 20
188.65809
 11
-96.115002
 21
187.9081
  0
LINE
  8
0
  6
CONTINUOUS
 62
     7
 10
-94.61499
 20
187.90809
 11
-93.864989
 21
188.65809
  0
LINE
  8
0
  6
CONTINUOUS
 62
     7
 10
-95.364996
 20
188.6581
 11
-94.61499
 21
187.90809
  0
LINE
  8
0
  6
CONTINUOUS
 62
     7
 10
-113.365
 20
188.6581
 11
-112.61499
 21
187.90809
  0
LINE
  8
0
  6
CONTINUOUS
 62
     7
 10
-112.61499
 20
187.90809
 11
-111.86499
 21
188.65809
  0
LINE
  8
0
  6
CONTINUOUS
 62
     7
 10
-114.865
 20
188.6581
 11
-114.115
 21
187.90811
  0
LINE
  8
0
  6
CONTINUOUS
 62
     7
 10
-114.115
 20
187.90809
 11
-113.365
 21
188.6581
  0
LINE
  8
0
  6
CONTINUOUS
 62
     7
 10
-116.365
 20
188.6581
 11
-115.61499
 21
187.90809
  0
LINE
  8
0
  6
CONTINUOUS
 62
     7
 10
-115.61499
 20
187.9081
 11
-114.865
 21
188.6581
  0
LINE
  8
0
  6
CONTINUOUS
 62
     7
 10
-117.865
 20
188.6581
 11
-117.115
 21
187.9081
  0
LINE
  8
0
  6
CONTINUOUS
 62
     7
 10
-117.115
 20
187.9081
 11
-116.365
 21
188.6581
  0
LINE
  8
0
  6
CONTINUOUS
 62
     7
 10
-119.365
 20
188.65809
 11
-118.615
 21
187.90809
  0
LINE
  8
0
  6
CONTINUOUS
 62
     7
 10
-118.615
 20
187.90809
 11
-117.865
 21
188.6581
  0
LINE
  8
0
  6
CONTINUOUS
 62
     7
 10
-120.865
 20
188.65811
 11
-120.115
 21
187.9081
  0
LINE
  8
0
  6
CONTINUOUS
 62
     7
 10
-120.115
 20
187.9081
 11
-119.365
 21
188.6581
  0
LINE
  8
0
  6
CONTINUOUS
 62
     7
 10
-122.36499
 20
188.65809
 11
-121.61501
 21
187.90811
  0
LINE
  8
0
  6
CONTINUOUS
 62
     7
 10
-121.61501
 20
187.90811
 11
-120.865
 21
188.65811
  0
LINE
  8
0
  6
CONTINUOUS
 62
     7
 10
-123.865
 20
188.6581
 11
-123.11499
 21
187.90809
  0
LINE
  8
0
  6
CONTINUOUS
 62
     7
 10
-123.11499
 20
187.90809
 11
-122.36499
 21
188.65809
  0
LINE
  8
0
  6
CONTINUOUS
 62
     7
 10
-125.365
 20
188.65809
 11
-124.615
 21
187.9081
  0
LINE
  8
0
  6
CONTINUOUS
 62
     7
 10
-124.61499
 20
187.9081
 11
-123.865
 21
188.6581
  0
LINE
  8
0
  6
CONTINUOUS
 62
     7
 10
-126.865
 20
188.6581
 11
-126.11499
 21
187.90809
  0
LINE
  8
0
  6
CONTINUOUS
 62
     7
 10
-126.11499
 20
187.90809
 11
-125.365
 21
188.65809
  0
LINE
  8
0
  6
CONTINUOUS
 62
     7
 10
-128.365
 20
188.6581
 11
-127.615
 21
187.9081
  0
LINE
  8
0
  6
CONTINUOUS
 62
     7
 10
-127.615
 20
187.9081
 11
-126.865
 21
188.6581
  0
LINE
  8
0
  6
CONTINUOUS
 62
     7
 10
-129.865
 20
188.6581
 11
-129.115
 21
187.90809
  0
LINE
  8
0
  6
CONTINUOUS
 62
     7
 10
-129.115
 20
187.90809
 11
-128.365
 21
188.6581
  0
LINE
  8
0
  6
CONTINUOUS
 62
     7
 10
-131.36499
 20
188.6581
 11
-130.615
 21
187.9081
  0
LINE
  8
0
  6
CONTINUOUS
 62
     7
 10
-130.615
 20
187.9081
 11
-129.865
 21
188.6581
  0
LINE
  8
0
  6
DASHED
 62
     7
 10
-132.61499
 20
198.7081
 11
-92.614998
 21
198.7081
  0
LINE
  8
0
  6
CENTER
 62
     7
 10
-112.615
 20
204.06248
 11
-112.615
 21
186.06334
  0
LINE
  8
0
  6
DASHED
 62
     7
 10
-117.115
 20
200.9081
 11
-108.115
 21
200.9081
  0
LINE
  8
0
  6
DASHED
 62
     7
 10
-108.115
 20
201.9081
 11
-108.115
 21
200.9081
  0
LINE
  8
0
  6
DASHED
 62
     7
 10
-117.115
 20
201.9081
 11
-117.115
 21
200.9081
  0
LINE
  8
0
  6
DASHED
 62
     7
 10
-110.515
 20
200.9081
 11
-110.515
 21
198.7081
  0
LINE
  8
0
  6
DASHED
 62
     7
 10
-114.715
 20
200.9081
 11
-114.715
 21
198.7081
  0
LINE
  8
0
  6
DASHED
 62
     7
 10
-117.115
 20
198.0081
 11
-108.115
 21
198.0081
  0
LINE
  8
0
  6
DASHED
 62
     7
 10
-117.115
 20
198.7081
 11
-117.115
 21
198.0081
  0
LINE
  8
0
  6
DASHED
 62
     7
 10
-108.115
 20
198.7081
 11
-108.115
 21
198.0081
  0
LINE
  8
0
  6
CONTINUOUS
 62
     7
 10
-177
 20
-0.19999981
 11
0
 21
-0.19999981
  0
LINE
  8
0
  6
CONTINUOUS
 62
     7
 10
-177
 20
274.29999
 11
-177
 21
-0.19999981
  0
LINE
  8
0
  6
CONTINUOUS
 62
     7
 10
-177
 20
-0.39999962
 11
-1.6000032
 21
-0.39999962
  0
LINE
  8
0
  6
CONTINUOUS
 62
     7
 10
-177.2
 20
274.29999
 11
-177.2
 21
-0.19999981
  0
LINE
  8
0
  6
CONTINUOUS
 62
     7
 10
0
 20
274.29999
 11
0
 21
0
  0
LINE
  8
0
  6
CONTINUOUS
 62
     7
 10
-0.20000005
 20
274.29999
 11
-0.20000005
 21
0
  0
LINE
  8
0
  6
CONTINUOUS
 62
     7
 10
-177
 20
274.29999
 11
0
 21
274.29999
  0
LINE
  8
0
  6
CONTINUOUS
 62
     7
 10
-177
 20
274.5
 11
0
 21
274.5
  0
LINE
  8
0
  6
CONTINUOUS
 62
     7
 10
-61.799999
 20
38.299999
 11
-61.799999
 21
0
  0
LINE
  8
0
  6
CONTINUOUS
 62
     7
 10
-61.799999
 20
12.3
 11
0
 21
12.3
  0
LINE
  8
0
  6
CONTINUOUS
 62
     7
 10
-61.799999
 20
24.799999
 11
0
 21
24.799999
  0
LINE
  8
0
  6
CONTINUOUS
 62
     7
 10
-61.799999
 20
38.299999
 11
0
 21
38.299999
  0
ARC
  8
0
  6
CONTINUOUS
 62
     7
 10
-48.685001
 20
135.48
 40
3
 50
0
 51
90.000003
  0
ARC
  8
0
  6
CONTINUOUS
 62
     7
 10
-129.61499
 20
120.48
 40
3
 50
179.99999
 51
270
  0
ARC
  8
0
  6
CONTINUOUS
 62
     7
 10
-95.614998
 20
120.48
 40
3
 50
270
 51
360
  0
ARC
  8
0
  6
CONTINUOUS
 62
     7
 10
-112.615
 20
123.48
 40
4.5
 50
138.18969
 51
221.81031
  0
ARC
  8
0
  6
CONTINUOUS
 62
     7
 10
-112.615
 20
123.48
 40
4.5
 50
318.18968
 51
41.810317
  0
CIRCLE
  8
0
  6
CONTINUOUS
 62
     7
 10
-112.615
 20
123.48
 40
2.0999999
  0
TEXT
  8
0
  6
CONTINUOUS
 62
     7
 10
-53.950505
 20
32.398889
 40
4.8000002
 41
0.84448342
  1
ミニシリンダー　ツメ
  0
TEXT
  8
0
  6
CONTINUOUS
 62
     7
 10
-41.546385
 20
26.161758
 40
4.8000002
 41
0.85126999
  1
（Ｌ型）
  0
TEXT
  8
0
  6
CONTINUOUS
 62
     7
 10
-45.348445
 20
15.433891
 40
4.8000002
 41
0.84741096
  1
ＣＰ－０１４
  0
TEXT
  8
0
  6
CONTINUOUS
 62
     7
 10
-44.475247
 20
2.9596281
 40
4.8000002
 41
0.84741096
  1
３７００７３
  0
INSERT
  8
0
  6
CONTINUOUS
 62
     7
  2
KOZU0001
 10
-108.26776
 20
137.06619
  0
ENDSEC
  0
EOF
