  0
SECTION
  2
HEADER
  9
$EXTMAX
 10
1.2182922
 20
274.528
 30
0
  9
$EXTMIN
 10
-177.2301
 20
-1.0560455
 30
0
  9
$LIMMAX
 10
1.2182922
 20
274.528
  9
$LIMMIN
 10
-177.2301
 20
-1.0560455
  9
$PLIMMAX
 10
1.2182922
 20
274.528
  9
$PLIMMIN
 10
-177.2301
 20
-1.0560455
  9
$PEXTMAX
 10
1.2182922
 20
274.528
 30
0
  9
$PEXTMIN
 10
-177.2301
 20
-1.0560455
 30
0
  9
$TEXTSIZE
 40
3.2
  9
$DIMSHO
 70
     0
  9
$DIMASZ
 40
1.0
  9
$DIMTAD
 70
     1
  9
$DIMTIH
 70
     0
  9
$DIMTOH
 70
     0
  9
$DIMEXE
 40
2.54
  9
$DIMEXO
 40
2.54
  9
$DIMTVP
 40
1.0
  9
$DIMSAH
 70
     1
  9
$DIMDLE
 40
0.0
  9
$DIMTXT
 40
3.2
  9
$DIMGAP
 40
1.6
  0
ENDSEC
  0
SECTION
  2
TABLES
  0
TABLE
  2
LTYPE
 70
     39
  0
LTYPE
  2
CONTINUOUS
 70
    64
  3
Solid line
 72
    65
 73
     0
 40
0.0
  0
LTYPE
  2
ACAD_ISO02W100
 70
     0
  3
ISO dash __ __ __ __ __ __ __ __ __ __ __ __ __
 72
    65
 73
     2
 40
15.0
 49
12.0
 49
-3.0
  0
LTYPE
  2
ACAD_ISO03W100
 70
     0
  3
ISO dash space __    __    __    __    __    __
 72
    65
 73
     2
 40
30.0
 49
12.0
 49
-18.0
  0
LTYPE
  2
ACAD_ISO04W100
 70
     0
  3
ISO long-dash dot ____ . ____ . ____ . ____ . _
 72
    65
 73
     4
 40
30.0
 49
24.0
 49
-3.0
 49
0.0
 49
-3.0
  0
LTYPE
  2
ACAD_ISO05W100
 70
     0
  3
ISO long-dash double-dot ____ .. ____ .. ____ .
 72
    65
 73
     6
 40
33.0
 49
24.0
 49
-3.0
 49
0.0
 49
-3.0
 49
0.0
 49
-3.0
  0
LTYPE
  2
ACAD_ISO06W100
 70
     0
  3
ISO long-dash triple-dot ____ ... ____ ... ____
 72
    65
 73
     8
 40
36.0
 49
24.0
 49
-3.0
 49
0.0
 49
-3.0
 49
0.0
 49
-3.0
 49
0.0
 49
-3.0
  0
LTYPE
  2
ACAD_ISO07W100
 70
     0
  3
ISO dot . . . . . . . . . . . . . . . . . . . .
 72
    65
 73
     2
 40
3.0
 49
0.0
 49
-3.0
  0
LTYPE
  2
ACAD_ISO08W100
 70
     0
  3
ISO long-dash short-dash ____ __ ____ __ ____ _
 72
    65
 73
     4
 40
36.0
 49
24.0
 49
-3.0
 49
6.0
 49
-3.0
  0
LTYPE
  2
ACAD_ISO09W100
 70
     0
  3
ISO long-dash double-short-dash ____ __ __ ____
 72
    65
 73
     6
 40
45.0
 49
24.0
 49
-3.0
 49
6.0
 49
-3.0
 49
6.0
 49
-3.0
  0
LTYPE
  2
ACAD_ISO10W100
 70
     0
  3
ISO dash dot __ . __ . __ . __ . __ . __ . __ .
 72
    65
 73
     4
 40
18.0
 49
12.0
 49
-3.0
 49
0.0
 49
-3.0
  0
LTYPE
  2
ACAD_ISO11W100
 70
     0
  3
ISO double-dash dot __ __ . __ __ . __ __ . __ 
 72
    65
 73
     6
 40
33.0
 49
12.0
 49
-3.0
 49
12.0
 49
-3.0
 49
0.0
 49
-3.0
  0
LTYPE
  2
ACAD_ISO12W100
 70
     0
  3
ISO dash double-dot __ . . __ . . __ . . __ . .
 72
    65
 73
     6
 40
21.0
 49
12.0
 49
-3.0
 49
0.0
 49
-3.0
 49
0.0
 49
-3.0
  0
LTYPE
  2
ACAD_ISO13W100
 70
     0
  3
ISO double-dash double-dot __ __ . . __ __ . . 
 72
    65
 73
     8
 40
36.0
 49
12.0
 49
-3.0
 49
12.0
 49
-3.0
 49
0.0
 49
-3.0
 49
0.0
 49
-3.0
  0
LTYPE
  2
ACAD_ISO14W100
 70
     0
  3
ISO dash triple-dot __ . . . __ . . . __ . . . 
 72
    65
 73
     8
 40
24.0
 49
12.0
 49
-3.0
 49
0.0
 49
-3.0
 49
0.0
 49
-3.0
 49
0.0
 49
-3.0
  0
LTYPE
  2
ACAD_ISO15W100
 70
     0
  3
ISO double-dash triple-dot __ __ . . . __ __ . 
 72
    65
 73
    10
 40
39.0
 49
12.0
 49
-3.0
 49
12.0
 49
-3.0
 49
0.0
 49
-3.0
 49
0.0
 49
-3.0
 49
0.0
 49
-3.0
  0
LTYPE
  2
BORDER
 70
    64
  3
Border __ __ . __ __ . __ __ . __ __ . __ __ .
 72
    65
 73
     6
 40
3.5
 49
1.0
 49
-0.5
 49
1.0
 49
-0.5
 49
0.0
 49
-0.5
  0
LTYPE
  2
BORDER2
 70
    64
  3
Border (.5x) __.__.__.__.__.__.__.__.__.__.__.
 72
    65
 73
     6
 40
1.75
 49
0.5
 49
-0.25
 49
0.5
 49
-0.25
 49
0.0
 49
-0.25
  0
LTYPE
  2
BORDERX2
 70
    64
  3
Border (2x) ____  ____  .  ____  ____  .  ___
 72
    65
 73
     6
 40
7.0
 49
2.0
 49
-1.0
 49
2.0
 49
-1.0
 49
0.0
 49
-1.0
  0
LTYPE
  2
CENTER
 70
    64
  3
Center ____ _ ____ _ ____ _ ____ _ ____ _ ____
 72
    65
 73
     4
 40
12.0
 49
7.5
 49
-1.5
 49
1.5
 49
-1.5
  0
LTYPE
  2
CENTER2
 70
    64
  3
Center (.5x) ___ _ ___ _ ___ _ ___ _ ___ _ ___
 72
    65
 73
     4
 40
6.0
 49
3.75
 49
-0.75
 49
0.75
 49
-0.75
  0
LTYPE
  2
CENTERX2
 70
    64
  3
Center (2x) ________  __  ________  __  _____
 72
    65
 73
     4
 40
24.0
 49
15.0
 49
-3.0
 49
3.0
 49
-3.0
  0
LTYPE
  2
DASHDOT
 70
    64
  3
Dash dot __ . __ . __ . __ . __ . __ . __ . __
 72
    65
 73
     4
 40
6.0
 49
3.0
 49
-1.5
 49
0.0
 49
-1.5
  0
LTYPE
  2
DASHDOT2
 70
    64
  3
Dash dot (.5x) _._._._._._._._._._._._._._._.
 72
    65
 73
     4
 40
3.0
 49
1.5
 49
-0.75
 49
0.0
 49
-0.75
  0
LTYPE
  2
DASHDOTX2
 70
    64
  3
Dash dot (2x) ____  .  ____  .  ____  .  ___
 72
    65
 73
     4
 40
12.0
 49
6.0
 49
-3.0
 49
0.0
 49
-3.0
  0
LTYPE
  2
DASHED
 70
    64
  3
Dashed __ __ __ __ __ __ __ __ __ __ __ __ __ _
 72
    65
 73
     2
 40
4.5
 49
3.0
 49
-1.5
  0
LTYPE
  2
DASHED2
 70
    64
  3
Dashed (.5x) _ _ _ _ _ _ _ _ _ _ _ _ _ _ _ _ _
 72
    65
 73
     2
 40
2.25
 49
1.5
 49
-0.75
  0
LTYPE
  2
DASHEDX2
 70
    64
  3
Dashed (2x) ____  ____  ____  ____  ____  ___
 72
    65
 73
     2
 40
9.0
 49
6.0
 49
-3.0
  0
LTYPE
  2
DIVIDE
 70
    64
  3
Divide ____ . . ____ . . ____ . . ____ . . ____
 72
    65
 73
     6
 40
7.5
 49
3.0
 49
-1.5
 49
0.0
 49
-1.5
 49
0.0
 49
-1.5
  0
LTYPE
  2
DIVIDE2
 70
    64
  3
Divide (.5x) __..__..__..__..__..__..__..__.._
 72
    65
 73
     6
 40
3.75
 49
1.5
 49
-0.75
 49
0.0
 49
-0.75
 49
0.0
 49
-0.75
  0
LTYPE
  2
DIVIDEX2
 70
    64
  3
Divide (2x) ________  .  .  ________  .  .  _
 72
    65
 73
     6
 40
15.0
 49
6.0
 49
-3.0
 49
0.0
 49
-3.0
 49
0.0
 49
-3.0
  0
LTYPE
  2
DOT
 70
    64
  3
Dot . . . . . . . . . . . . . . . . . . . . . .
 72
    65
 73
     2
 40
1.5
 49
0.0
 49
-1.5
  0
LTYPE
  2
DOT2
 70
    64
  3
Dot (.5x) .....................................
 72
    65
 73
     2
 40
0.75
 49
0.0
 49
-0.75
  0
LTYPE
  2
DOTX2
 70
    64
  3
Dot (2x) .  .  .  .  .  .  .  .  .  .  .  .  . 
 72
    65
 73
     2
 40
3.0
 49
0.0
 49
-3.0
  0
LTYPE
  2
HIDDEN
 70
    64
  3
Hidden __ __ __ __ __ __ __ __ __ __ __ __ __ _
 72
    65
 73
     2
 40
4.5
 49
3.0
 49
-1.5
  0
LTYPE
  2
HIDDEN2
 70
    64
  3
Hidden (.5x) _ _ _ _ _ _ _ _ _ _ _ _ _ _ _ _ _
 72
    65
 73
     2
 40
2.25
 49
1.5
 49
-0.75
  0
LTYPE
  2
HIDDENX2
 70
    64
  3
Hidden (2x) ____ ____ ____ ____ ____ ____ ____
 72
    65
 73
     2
 40
9.0
 49
6.0
 49
-3.0
  0
LTYPE
  2
PHANTOM
 70
    64
  3
Phantom ______  __  __  ______  __  __  ______
 72
    65
 73
     6
 40
15.0
 49
7.5
 49
-1.5
 49
1.5
 49
-1.5
 49
1.5
 49
-1.5
  0
LTYPE
  2
PHANTOM2
 70
    64
  3
Phantom (.5x) ___ _ _ ___ _ _ ___ _ _ ___ _ _
 72
    65
 73
     6
 40
7.5
 49
3.75
 49
-0.75
 49
0.75
 49
-0.75
 49
0.75
 49
-0.75
  0
LTYPE
  2
PHANTOMX2
 70
    64
  3
Phantom (2x) ____________    ____    ____   _
 72
    65
 73
     6
 40
30.0
 49
15.0
 49
-3.0
 49
3.0
 49
-3.0
 49
3.0
 49
-3.0
  0
ENDTAB
  0
TABLE
  2
LAYER
 70
     1
  0
LAYER
  2
0
 70
     0
 62
     7
  6
CONTINUOUS
  0
ENDTAB
  0
TABLE
  2
STYLE
 70
     1
  0
STYLE
  2
STANDARD
 70
     0
 40
0.0
 41
1.0
 50
0.0
 71
     0
 42
0.2
  3
txt
  4
BIGFONT
  0
ENDTAB
  0
TABLE
  2
DIMSTYLE
 70
     0
  0
ENDTAB
  0
ENDSEC
  0
SECTION
  2
BLOCKS
  0
BLOCK
  8
0
  2
KOZU0001
 70
    64
 10
0
 20
0
  0
LINE
  8
0
  6
CONTINUOUS
 62
     7
 10
0
 20
0
 11
5.453424
 21
8.3074801
  0
LINE
  8
0
  6
CONTINUOUS
 62
     7
 10
0
 20
0
 11
0.8103432
 21
3.0566883
  0
LINE
  8
0
  6
CONTINUOUS
 62
     7
 10
0
 20
0
 11
2.4822876
 21
1.9591448
  0
TEXT
  8
0
  6
CONTINUOUS
 62
     7
 10
6.8216415
 20
9.1074717
 40
3.2
 41
0.85127004
  1
%%C５．２
  0
LINE
  8
0
  6
CONTINUOUS
 62
     7
 10
0
 20
0
 11
5.453424
 21
8.3074801
  0
LINE
  8
0
  6
CONTINUOUS
 62
     7
 10
5.4534179
 20
8.3074717
 11
20.082523
 21
8.3074717
  0
ENDBLK
  8
0
  0
BLOCK
  8
0
  2
KOZU0002
 70
    64
 10
0
 20
0
  0
LINE
  8
0
  6
CONTINUOUS
 62
     7
 10
0
 20
0
 11
-6.4617759
 21
9.5645148
  0
LINE
  8
0
  6
CONTINUOUS
 62
     7
 10
0
 20
0
 11
-2.5080597
 21
1.9260416
  0
LINE
  8
0
  6
CONTINUOUS
 62
     7
 10
0
 20
0
 11
-0.85082274
 21
3.0456691
  0
TEXT
  8
0
  6
CONTINUOUS
 62
     7
 10
-15.889922
 20
10.364517
 40
3.2
 41
0.86439074
  1
Ｍ５
  0
LINE
  8
0
  6
CONTINUOUS
 62
     7
 10
0
 20
0
 11
-6.4617759
 21
9.5645148
  0
LINE
  8
0
  6
CONTINUOUS
 62
     7
 10
-6.4617697
 20
9.5645167
 11
-17.717919
 21
9.5645167
  0
ENDBLK
  8
0
  0
BLOCK
  8
0
  2
KOZU0003
 70
    64
 10
0
 20
0
  0
LINE
  8
0
  6
CONTINUOUS
 62
     7
 10
0
 20
0
 11
5.7274503
 21
-17.820652
  0
LINE
  8
0
  6
CONTINUOUS
 62
     7
 10
0
 20
0
 11
1.8699761
 21
-2.5501351
  0
LINE
  8
0
  6
CONTINUOUS
 62
     7
 10
0
 20
0
 11
-0.034100144
 21
-3.1620937
  0
TEXT
  8
0
  6
CONTINUOUS
 62
     7
 10
8.816656
 20
-17.020653
 40
3.2
 41
0.84556539
  1
２ｘ２－Ｍ深１０
  0
TEXT
  8
0
  6
CONTINUOUS
 62
     7
 10
8.816656
 20
-22.636653
 40
3.2
 41
0.85127004
  1
（両側）
  0
LINE
  8
0
  6
CONTINUOUS
 62
     7
 10
0
 20
0
 11
5.7274503
 21
-17.820652
  0
LINE
  8
0
  6
CONTINUOUS
 62
     7
 10
5.727447
 20
-17.820653
 11
35.330655
 21
-17.820653
  0
ENDBLK
  8
0
  0
ENDSEC
  0
SECTION
  2
ENTITIES
  0
LINE
  8
0
  6
CENTER
 62
     7
 10
-51.325001
 20
168.03201
 11
-51.325001
 21
91.259438
  0
LINE
  8
0
  6
CONTINUOUS
 62
     7
 10
-58.825001
 20
99.850006
 11
-43.825001
 21
99.850006
  0
LINE
  8
0
  6
CONTINUOUS
 62
     7
 10
-58.825001
 20
164.85001
 11
-43.825001
 21
164.85001
  0
LINE
  8
0
  6
CONTINUOUS
 62
     7
 10
-43.825001
 20
164.85001
 11
-43.825001
 21
99.850006
  0
LINE
  8
0
  6
CONTINUOUS
 62
     7
 10
-58.825001
 20
164.85001
 11
-58.825001
 21
99.850006
  0
LINE
  8
0
  6
CONTINUOUS
 62
     7
 10
-58.825001
 20
149.85001
 11
-43.825001
 21
149.85001
  0
LINE
  8
0
  6
CENTER
 62
     7
 10
-56.365002
 20
139.85001
 11
-46.285
 21
139.85001
  0
LINE
  8
0
  6
CENTER
 62
     7
 10
-56.365002
 20
109.85001
 11
-46.285
 21
109.85001
  0
LINE
  8
0
  6
CENTER
 62
     7
 10
-56.465
 20
156.85001
 11
-46.185001
 21
156.85001
  0
LINE
  8
0
  6
CENTER
 62
     7
 10
-63.825001
 20
124.85001
 11
-38.825001
 21
124.85001
  0
LINE
  8
0
  6
DASHED
 62
     7
 10
-124.305
 20
217.34889
 11
-114.305
 21
217.34889
  0
LINE
  8
0
  6
DASHED
 62
     7
 10
-112.305
 20
217.94888
 11
-102.305
 21
217.94888
  0
LINE
  8
0
  6
DASHED
 62
     7
 10
-112.305
 20
212.74889
 11
-102.305
 21
212.74889
  0
LINE
  8
0
  6
CONTINUOUS
 62
     7
 10
-138.30499
 20
99.850006
 11
-88.305
 21
99.850006
  0
LINE
  8
0
  6
CENTER
 62
     7
 10
-113.305
 20
167.0089
 11
-113.305
 21
92.114891
  0
LINE
  8
0
  6
CONTINUOUS
 62
     7
 10
-124.305
 20
164.85001
 11
-114.305
 21
164.85001
  0
LINE
  8
0
  6
CONTINUOUS
 62
     7
 10
-138.30499
 20
149.85001
 11
-138.30499
 21
99.850006
  0
LINE
  8
0
  6
CONTINUOUS
 62
     7
 10
-88.305
 20
149.85001
 11
-88.305
 21
99.850006
  0
LINE
  8
0
  6
CONTINUOUS
 62
     7
 10
-138.30499
 20
149.85001
 11
-124.305
 21
149.85001
  0
LINE
  8
0
  6
CONTINUOUS
 62
     7
 10
-102.305
 20
164.85001
 11
-102.305
 21
149.85001
  0
LINE
  8
0
  6
CONTINUOUS
 62
     7
 10
-124.305
 20
164.85001
 11
-124.305
 21
149.85001
  0
LINE
  8
0
  6
CONTINUOUS
 62
     7
 10
-112.305
 20
164.85001
 11
-112.305
 21
142.8222
  0
LINE
  8
0
  6
CONTINUOUS
 62
     7
 10
-114.305
 20
164.85001
 11
-114.305
 21
142.8222
  0
LINE
  8
0
  6
CONTINUOUS
 62
     7
 10
-102.305
 20
149.85001
 11
-88.305
 21
149.85001
  0
LINE
  8
0
  6
CONTINUOUS
 62
     7
 10
-112.305
 20
164.85001
 11
-102.305
 21
164.85001
  0
LINE
  8
0
  6
CENTER
 62
     7
 10
-143.89505
 20
124.85001
 11
-84.585793
 21
124.85001
  0
LINE
  8
0
  6
CENTER
 62
     7
 10
-140.30499
 20
109.85001
 11
-123.25488
 21
109.85001
  0
LINE
  8
0
  6
CENTER
 62
     7
 10
-128.02582
 20
156.85001
 11
-98.69178
 21
156.85001
  0
LINE
  8
0
  6
DASHED
 62
     7
 10
-124.305
 20
212.84889
 11
-114.305
 21
212.84889
  0
LINE
  8
0
  6
DASHED
 62
     7
 10
-124.305
 20
217.84889
 11
-114.305
 21
217.84889
  0
LINE
  8
0
  6
DASHED
 62
     7
 10
-124.305
 20
213.34889
 11
-114.305
 21
213.34889
  0
LINE
  8
0
  6
DASHED
 62
     7
 10
-128.30499
 20
112.35001
 11
-128.30499
 21
107.35001
  0
LINE
  8
0
  6
DASHED
 62
     7
 10
-126.305
 20
111.85001
 11
-126.305
 21
107.85001
  0
LINE
  8
0
  6
DASHED
 62
     7
 10
-138.30499
 20
112.35001
 11
-128.30499
 21
112.35001
  0
LINE
  8
0
  6
DASHED
 62
     7
 10
-138.30499
 20
107.35001
 11
-128.30499
 21
107.35001
  0
LINE
  8
0
  6
DASHED
 62
     7
 10
-138.30499
 20
107.85001
 11
-126.305
 21
107.85001
  0
LINE
  8
0
  6
DASHED
 62
     7
 10
-138.30499
 20
111.85001
 11
-126.305
 21
111.85001
  0
LINE
  8
0
  6
DASHED
 62
     7
 10
-126.30501
 20
107.85001
 11
-125.15031
 21
109.85001
  0
LINE
  8
0
  6
DASHED
 62
     7
 10
-126.30499
 20
111.84999
 11
-125.1503
 21
109.85
  0
LINE
  8
0
  6
CENTER
 62
     7
 10
-140.30499
 20
139.85001
 11
-123.25488
 21
139.85001
  0
LINE
  8
0
  6
DASHED
 62
     7
 10
-128.30499
 20
212.84889
 11
-128.30499
 21
217.84889
  0
LINE
  8
0
  6
DASHED
 62
     7
 10
-126.305
 20
213.34889
 11
-126.305
 21
217.34889
  0
LINE
  8
0
  6
DASHED
 62
     7
 10
-138.30499
 20
212.84889
 11
-128.30499
 21
212.84889
  0
LINE
  8
0
  6
DASHED
 62
     7
 10
-138.30499
 20
217.84889
 11
-128.30499
 21
217.84889
  0
LINE
  8
0
  6
DASHED
 62
     7
 10
-138.30499
 20
217.34889
 11
-126.305
 21
217.34889
  0
LINE
  8
0
  6
DASHED
 62
     7
 10
-138.30499
 20
213.34889
 11
-126.305
 21
213.34889
  0
LINE
  8
0
  6
DASHED
 62
     7
 10
-126.305
 20
217.34889
 11
-125.1503
 21
215.34888
  0
LINE
  8
0
  6
DASHED
 62
     7
 10
-126.305
 20
213.34889
 11
-125.1503
 21
215.34889
  0
LINE
  8
0
  6
CENTER
 62
     7
 10
-86.305
 20
109.85001
 11
-103.35513
 21
109.85001
  0
LINE
  8
0
  6
DASHED
 62
     7
 10
-98.305
 20
112.35001
 11
-98.305
 21
107.35001
  0
LINE
  8
0
  6
DASHED
 62
     7
 10
-100.305
 20
111.85001
 11
-100.305
 21
107.85001
  0
LINE
  8
0
  6
DASHED
 62
     7
 10
-88.305
 20
112.35001
 11
-98.305
 21
112.35001
  0
LINE
  8
0
  6
DASHED
 62
     7
 10
-88.305
 20
107.35001
 11
-98.305
 21
107.35001
  0
LINE
  8
0
  6
DASHED
 62
     7
 10
-88.305
 20
107.85001
 11
-100.305
 21
107.85001
  0
LINE
  8
0
  6
DASHED
 62
     7
 10
-88.305
 20
111.85001
 11
-100.305
 21
111.85001
  0
LINE
  8
0
  6
DASHED
 62
     7
 10
-100.305
 20
107.85001
 11
-101.4597
 21
109.85001
  0
LINE
  8
0
  6
DASHED
 62
     7
 10
-100.30501
 20
111.85001
 11
-101.4597
 21
109.85001
  0
LINE
  8
0
  6
CENTER
 62
     7
 10
-86.305
 20
139.85001
 11
-103.35513
 21
139.85001
  0
LINE
  8
0
  6
DASHED
 62
     7
 10
-98.305
 20
212.84889
 11
-98.305
 21
217.84889
  0
LINE
  8
0
  6
DASHED
 62
     7
 10
-100.305
 20
213.34889
 11
-100.305
 21
217.34889
  0
LINE
  8
0
  6
DASHED
 62
     7
 10
-88.305
 20
212.84889
 11
-98.305
 21
212.84889
  0
LINE
  8
0
  6
DASHED
 62
     7
 10
-88.305
 20
217.84889
 11
-98.305
 21
217.84889
  0
LINE
  8
0
  6
DASHED
 62
     7
 10
-88.305
 20
217.34889
 11
-100.305
 21
217.34889
  0
LINE
  8
0
  6
DASHED
 62
     7
 10
-88.305
 20
213.34889
 11
-100.305
 21
213.34889
  0
LINE
  8
0
  6
DASHED
 62
     7
 10
-100.30499
 20
217.34888
 11
-101.45969
 21
215.34889
  0
LINE
  8
0
  6
DASHED
 62
     7
 10
-100.305
 20
213.34889
 11
-101.4597
 21
215.34889
  0
LINE
  8
0
  6
CONTINUOUS
 62
     7
 10
-114.305
 20
222.84889
 11
-114.305
 21
207.84889
  0
LINE
  8
0
  6
CONTINUOUS
 62
     7
 10
-112.305
 20
222.84889
 11
-112.305
 21
207.84889
  0
LINE
  8
0
  6
CONTINUOUS
 62
     7
 10
-124.305
 20
222.84889
 11
-124.305
 21
207.84889
  0
LINE
  8
0
  6
CONTINUOUS
 62
     7
 10
-102.305
 20
222.84889
 11
-102.305
 21
207.84889
  0
LINE
  8
0
  6
CONTINUOUS
 62
     7
 10
-138.30499
 20
222.84889
 11
-138.30499
 21
207.84889
  0
LINE
  8
0
  6
CONTINUOUS
 62
     7
 10
-88.305
 20
222.84889
 11
-88.305
 21
207.84889
  0
LINE
  8
0
  6
CONTINUOUS
 62
     7
 10
-138.30499
 20
222.84889
 11
-114.305
 21
222.84889
  0
LINE
  8
0
  6
CONTINUOUS
 62
     7
 10
-138.30499
 20
207.84889
 11
-114.305
 21
207.84889
  0
LINE
  8
0
  6
CENTER
 62
     7
 10
-141.30499
 20
215.34889
 11
-85.305
 21
215.34889
  0
LINE
  8
0
  6
DASHED
 62
     7
 10
-124.305
 20
154.35001
 11
-114.305
 21
154.35001
  0
LINE
  8
0
  6
DASHED
 62
     7
 10
-124.305
 20
154.85001
 11
-114.305
 21
154.85001
  0
LINE
  8
0
  6
DASHED
 62
     7
 10
-124.305
 20
158.85001
 11
-114.305
 21
158.85001
  0
LINE
  8
0
  6
DASHED
 62
     7
 10
-124.305
 20
159.35001
 11
-114.305
 21
159.35001
  0
LINE
  8
0
  6
DASHED
 62
     7
 10
-112.305
 20
159.45001
 11
-102.305
 21
159.45001
  0
LINE
  8
0
  6
DASHED
 62
     7
 10
-112.305
 20
154.25
 11
-102.305
 21
154.25
  0
LINE
  8
0
  6
CONTINUOUS
 62
     7
 10
-114.305
 20
207.84889
 11
-112.305
 21
207.84889
  0
LINE
  8
0
  6
CONTINUOUS
 62
     7
 10
-112.305
 20
207.84889
 11
-88.305
 21
207.84889
  0
LINE
  8
0
  6
CONTINUOUS
 62
     7
 10
-114.305
 20
222.84889
 11
-112.305
 21
222.84889
  0
LINE
  8
0
  6
CONTINUOUS
 62
     7
 10
-112.305
 20
222.84889
 11
-88.305
 21
222.84889
  0
LINE
  8
0
  6
DASHED
 62
     7
 10
-100.305
 20
137.85001
 11
-101.4597
 21
139.85001
  0
LINE
  8
0
  6
DASHED
 62
     7
 10
-88.305
 20
137.85001
 11
-100.305
 21
137.85001
  0
LINE
  8
0
  6
DASHED
 62
     7
 10
-100.305
 20
141.85001
 11
-101.45971
 21
139.85002
  0
LINE
  8
0
  6
DASHED
 62
     7
 10
-88.305
 20
142.35001
 11
-98.305
 21
142.35001
  0
LINE
  8
0
  6
DASHED
 62
     7
 10
-128.30499
 20
137.35001
 11
-128.30499
 21
142.35001
  0
LINE
  8
0
  6
DASHED
 62
     7
 10
-126.305
 20
137.85001
 11
-126.305
 21
141.85001
  0
LINE
  8
0
  6
DASHED
 62
     7
 10
-138.30499
 20
137.35001
 11
-128.30499
 21
137.35001
  0
LINE
  8
0
  6
DASHED
 62
     7
 10
-138.30499
 20
142.35001
 11
-128.30499
 21
142.35001
  0
LINE
  8
0
  6
DASHED
 62
     7
 10
-138.30499
 20
141.85001
 11
-126.305
 21
141.85001
  0
LINE
  8
0
  6
DASHED
 62
     7
 10
-138.30499
 20
137.85001
 11
-126.305
 21
137.85001
  0
LINE
  8
0
  6
DASHED
 62
     7
 10
-126.305
 20
141.85001
 11
-125.1503
 21
139.85001
  0
LINE
  8
0
  6
DASHED
 62
     7
 10
-126.30499
 20
137.85
 11
-125.15029
 21
139.85
  0
LINE
  8
0
  6
DASHED
 62
     7
 10
-88.305
 20
141.85001
 11
-100.305
 21
141.85001
  0
LINE
  8
0
  6
DASHED
 62
     7
 10
-98.305
 20
137.35001
 11
-98.305
 21
142.35001
  0
LINE
  8
0
  6
DASHED
 62
     7
 10
-100.305
 20
137.85001
 11
-100.305
 21
141.85001
  0
LINE
  8
0
  6
DASHED
 62
     7
 10
-88.305
 20
137.35001
 11
-98.305
 21
137.35001
  0
LINE
  8
0
  6
CENTER
 62
     7
 10
-113.305
 20
225.99075
 11
-113.305
 21
204.17674
  0
LINE
  8
0
  6
CONTINUOUS
 62
     7
 10
0
 20
274.5
 11
0
 21
0
  0
LINE
  8
0
  6
CONTINUOUS
 62
     7
 10
-176.8
 20
0
 11
0
 21
0
  0
LINE
  8
0
  6
CONTINUOUS
 62
     7
 10
-176.8
 20
274.5
 11
-176.8
 21
0
  0
LINE
  8
0
  6
CONTINUOUS
 62
     7
 10
-176.8
 20
274.5
 11
0
 21
274.5
  0
LINE
  8
0
  6
CONTINUOUS
 62
     7
 10
-61.599998
 20
38.540001
 11
-61.599998
 21
0
  0
LINE
  8
0
  6
CONTINUOUS
 62
     7
 10
-61.599998
 20
12.52
 11
0
 21
12.52
  0
LINE
  8
0
  6
CONTINUOUS
 62
     7
 10
-61.599998
 20
25.040001
 11
0
 21
25.040001
  0
LINE
  8
0
  6
CONTINUOUS
 62
     7
 10
-61.599998
 20
38.540001
 11
0
 21
38.540001
  0
LINE
  8
0
  6
CONTINUOUS
 62
     7
 10
-176.60001
 20
0.2
 11
0
 21
0.2
  0
LINE
  8
0
  6
CONTINUOUS
 62
     7
 10
-176.60001
 20
274.5
 11
-176.60001
 21
0.2
  0
LINE
  8
0
  6
CONTINUOUS
 62
     7
 10
0.2
 20
274.70001
 11
0.2
 21
0
  0
LINE
  8
0
  6
CONTINUOUS
 62
     7
 10
-176.8
 20
274.70001
 11
0.2
 21
274.70001
  0
CIRCLE
  8
0
  6
CONTINUOUS
 62
     7
 10
-51.325001
 20
139.85001
 40
2.5
  0
CIRCLE
  8
0
  6
CONTINUOUS
 62
     7
 10
-51.325001
 20
139.85001
 40
2
  0
CIRCLE
  8
0
  6
CONTINUOUS
 62
     7
 10
-51.325001
 20
109.85001
 40
2.5
  0
CIRCLE
  8
0
  6
CONTINUOUS
 62
     7
 10
-51.325001
 20
109.85001
 40
2
  0
CIRCLE
  8
0
  6
CONTINUOUS
 62
     7
 10
-51.325001
 20
156.85001
 40
2.5999999
  0
ARC
  8
0
  6
CONTINUOUS
 62
     7
 10
-113.305
 20
124.85001
 40
18
 50
93.184735
 51
86.815266
  0
TEXT
  8
0
  6
CONTINUOUS
 62
     7
 10
-56.253932
 20
29.59889
 40
4.8000002
 41
0.84409461
  1
ニッパー固定用ホルダー
  0
TEXT
  8
0
  6
CONTINUOUS
 62
     7
 10
-50.941797
 20
16.112716
 40
4.8000002
 41
0.84496196
  1
ＧＴ－ＮＲ１０Ｌ用
  0
TEXT
  8
0
  6
CONTINUOUS
 62
     7
 10
-43.229665
 20
3.3093848
 40
4.8000002
 41
0.84741096
  1
３７０３３６
  0
INSERT
  8
0
  6
CONTINUOUS
 62
     7
  2
KOZU0001
 10
-102.305
 20
157.35001
  0
INSERT
  8
0
  6
CONTINUOUS
 62
     7
  2
KOZU0002
 10
-124.305
 20
156.85
  0
INSERT
  8
0
  6
CONTINUOUS
 62
     7
  2
KOZU0003
 10
-50.56005
 20
107.46991
  0
ENDSEC
  0
EOF
