  0
SECTION
  2
HEADER
  9
$EXTMAX
 10
1.2182922
 20
274.528
 30
0
  9
$EXTMIN
 10
-177.2301
 20
-1.0560455
 30
0
  9
$LIMMAX
 10
1.2182922
 20
274.528
  9
$LIMMIN
 10
-177.2301
 20
-1.0560455
  9
$PLIMMAX
 10
1.2182922
 20
274.528
  9
$PLIMMIN
 10
-177.2301
 20
-1.0560455
  9
$PEXTMAX
 10
1.2182922
 20
274.528
 30
0
  9
$PEXTMIN
 10
-177.2301
 20
-1.0560455
 30
0
  9
$TEXTSIZE
 40
3.2
  9
$DIMSHO
 70
     0
  9
$DIMASZ
 40
1.0
  9
$DIMTAD
 70
     1
  9
$DIMTIH
 70
     0
  9
$DIMTOH
 70
     0
  9
$DIMEXE
 40
2.54
  9
$DIMEXO
 40
2.54
  9
$DIMTVP
 40
1.0
  9
$DIMSAH
 70
     1
  9
$DIMDLE
 40
0.0
  9
$DIMTXT
 40
3.2
  9
$DIMGAP
 40
1.6
  0
ENDSEC
  0
SECTION
  2
TABLES
  0
TABLE
  2
LTYPE
 70
     39
  0
LTYPE
  2
CONTINUOUS
 70
    64
  3
Solid line
 72
    65
 73
     0
 40
0.0
  0
LTYPE
  2
ACAD_ISO02W100
 70
     0
  3
ISO dash __ __ __ __ __ __ __ __ __ __ __ __ __
 72
    65
 73
     2
 40
15.0
 49
12.0
 49
-3.0
  0
LTYPE
  2
ACAD_ISO03W100
 70
     0
  3
ISO dash space __    __    __    __    __    __
 72
    65
 73
     2
 40
30.0
 49
12.0
 49
-18.0
  0
LTYPE
  2
ACAD_ISO04W100
 70
     0
  3
ISO long-dash dot ____ . ____ . ____ . ____ . _
 72
    65
 73
     4
 40
30.0
 49
24.0
 49
-3.0
 49
0.0
 49
-3.0
  0
LTYPE
  2
ACAD_ISO05W100
 70
     0
  3
ISO long-dash double-dot ____ .. ____ .. ____ .
 72
    65
 73
     6
 40
33.0
 49
24.0
 49
-3.0
 49
0.0
 49
-3.0
 49
0.0
 49
-3.0
  0
LTYPE
  2
ACAD_ISO06W100
 70
     0
  3
ISO long-dash triple-dot ____ ... ____ ... ____
 72
    65
 73
     8
 40
36.0
 49
24.0
 49
-3.0
 49
0.0
 49
-3.0
 49
0.0
 49
-3.0
 49
0.0
 49
-3.0
  0
LTYPE
  2
ACAD_ISO07W100
 70
     0
  3
ISO dot . . . . . . . . . . . . . . . . . . . .
 72
    65
 73
     2
 40
3.0
 49
0.0
 49
-3.0
  0
LTYPE
  2
ACAD_ISO08W100
 70
     0
  3
ISO long-dash short-dash ____ __ ____ __ ____ _
 72
    65
 73
     4
 40
36.0
 49
24.0
 49
-3.0
 49
6.0
 49
-3.0
  0
LTYPE
  2
ACAD_ISO09W100
 70
     0
  3
ISO long-dash double-short-dash ____ __ __ ____
 72
    65
 73
     6
 40
45.0
 49
24.0
 49
-3.0
 49
6.0
 49
-3.0
 49
6.0
 49
-3.0
  0
LTYPE
  2
ACAD_ISO10W100
 70
     0
  3
ISO dash dot __ . __ . __ . __ . __ . __ . __ .
 72
    65
 73
     4
 40
18.0
 49
12.0
 49
-3.0
 49
0.0
 49
-3.0
  0
LTYPE
  2
ACAD_ISO11W100
 70
     0
  3
ISO double-dash dot __ __ . __ __ . __ __ . __ 
 72
    65
 73
     6
 40
33.0
 49
12.0
 49
-3.0
 49
12.0
 49
-3.0
 49
0.0
 49
-3.0
  0
LTYPE
  2
ACAD_ISO12W100
 70
     0
  3
ISO dash double-dot __ . . __ . . __ . . __ . .
 72
    65
 73
     6
 40
21.0
 49
12.0
 49
-3.0
 49
0.0
 49
-3.0
 49
0.0
 49
-3.0
  0
LTYPE
  2
ACAD_ISO13W100
 70
     0
  3
ISO double-dash double-dot __ __ . . __ __ . . 
 72
    65
 73
     8
 40
36.0
 49
12.0
 49
-3.0
 49
12.0
 49
-3.0
 49
0.0
 49
-3.0
 49
0.0
 49
-3.0
  0
LTYPE
  2
ACAD_ISO14W100
 70
     0
  3
ISO dash triple-dot __ . . . __ . . . __ . . . 
 72
    65
 73
     8
 40
24.0
 49
12.0
 49
-3.0
 49
0.0
 49
-3.0
 49
0.0
 49
-3.0
 49
0.0
 49
-3.0
  0
LTYPE
  2
ACAD_ISO15W100
 70
     0
  3
ISO double-dash triple-dot __ __ . . . __ __ . 
 72
    65
 73
    10
 40
39.0
 49
12.0
 49
-3.0
 49
12.0
 49
-3.0
 49
0.0
 49
-3.0
 49
0.0
 49
-3.0
 49
0.0
 49
-3.0
  0
LTYPE
  2
BORDER
 70
    64
  3
Border __ __ . __ __ . __ __ . __ __ . __ __ .
 72
    65
 73
     6
 40
3.5
 49
1.0
 49
-0.5
 49
1.0
 49
-0.5
 49
0.0
 49
-0.5
  0
LTYPE
  2
BORDER2
 70
    64
  3
Border (.5x) __.__.__.__.__.__.__.__.__.__.__.
 72
    65
 73
     6
 40
1.75
 49
0.5
 49
-0.25
 49
0.5
 49
-0.25
 49
0.0
 49
-0.25
  0
LTYPE
  2
BORDERX2
 70
    64
  3
Border (2x) ____  ____  .  ____  ____  .  ___
 72
    65
 73
     6
 40
7.0
 49
2.0
 49
-1.0
 49
2.0
 49
-1.0
 49
0.0
 49
-1.0
  0
LTYPE
  2
CENTER
 70
    64
  3
Center ____ _ ____ _ ____ _ ____ _ ____ _ ____
 72
    65
 73
     4
 40
12.0
 49
7.5
 49
-1.5
 49
1.5
 49
-1.5
  0
LTYPE
  2
CENTER2
 70
    64
  3
Center (.5x) ___ _ ___ _ ___ _ ___ _ ___ _ ___
 72
    65
 73
     4
 40
6.0
 49
3.75
 49
-0.75
 49
0.75
 49
-0.75
  0
LTYPE
  2
CENTERX2
 70
    64
  3
Center (2x) ________  __  ________  __  _____
 72
    65
 73
     4
 40
24.0
 49
15.0
 49
-3.0
 49
3.0
 49
-3.0
  0
LTYPE
  2
DASHDOT
 70
    64
  3
Dash dot __ . __ . __ . __ . __ . __ . __ . __
 72
    65
 73
     4
 40
6.0
 49
3.0
 49
-1.5
 49
0.0
 49
-1.5
  0
LTYPE
  2
DASHDOT2
 70
    64
  3
Dash dot (.5x) _._._._._._._._._._._._._._._.
 72
    65
 73
     4
 40
3.0
 49
1.5
 49
-0.75
 49
0.0
 49
-0.75
  0
LTYPE
  2
DASHDOTX2
 70
    64
  3
Dash dot (2x) ____  .  ____  .  ____  .  ___
 72
    65
 73
     4
 40
12.0
 49
6.0
 49
-3.0
 49
0.0
 49
-3.0
  0
LTYPE
  2
DASHED
 70
    64
  3
Dashed __ __ __ __ __ __ __ __ __ __ __ __ __ _
 72
    65
 73
     2
 40
4.5
 49
3.0
 49
-1.5
  0
LTYPE
  2
DASHED2
 70
    64
  3
Dashed (.5x) _ _ _ _ _ _ _ _ _ _ _ _ _ _ _ _ _
 72
    65
 73
     2
 40
2.25
 49
1.5
 49
-0.75
  0
LTYPE
  2
DASHEDX2
 70
    64
  3
Dashed (2x) ____  ____  ____  ____  ____  ___
 72
    65
 73
     2
 40
9.0
 49
6.0
 49
-3.0
  0
LTYPE
  2
DIVIDE
 70
    64
  3
Divide ____ . . ____ . . ____ . . ____ . . ____
 72
    65
 73
     6
 40
7.5
 49
3.0
 49
-1.5
 49
0.0
 49
-1.5
 49
0.0
 49
-1.5
  0
LTYPE
  2
DIVIDE2
 70
    64
  3
Divide (.5x) __..__..__..__..__..__..__..__.._
 72
    65
 73
     6
 40
3.75
 49
1.5
 49
-0.75
 49
0.0
 49
-0.75
 49
0.0
 49
-0.75
  0
LTYPE
  2
DIVIDEX2
 70
    64
  3
Divide (2x) ________  .  .  ________  .  .  _
 72
    65
 73
     6
 40
15.0
 49
6.0
 49
-3.0
 49
0.0
 49
-3.0
 49
0.0
 49
-3.0
  0
LTYPE
  2
DOT
 70
    64
  3
Dot . . . . . . . . . . . . . . . . . . . . . .
 72
    65
 73
     2
 40
1.5
 49
0.0
 49
-1.5
  0
LTYPE
  2
DOT2
 70
    64
  3
Dot (.5x) .....................................
 72
    65
 73
     2
 40
0.75
 49
0.0
 49
-0.75
  0
LTYPE
  2
DOTX2
 70
    64
  3
Dot (2x) .  .  .  .  .  .  .  .  .  .  .  .  . 
 72
    65
 73
     2
 40
3.0
 49
0.0
 49
-3.0
  0
LTYPE
  2
HIDDEN
 70
    64
  3
Hidden __ __ __ __ __ __ __ __ __ __ __ __ __ _
 72
    65
 73
     2
 40
4.5
 49
3.0
 49
-1.5
  0
LTYPE
  2
HIDDEN2
 70
    64
  3
Hidden (.5x) _ _ _ _ _ _ _ _ _ _ _ _ _ _ _ _ _
 72
    65
 73
     2
 40
2.25
 49
1.5
 49
-0.75
  0
LTYPE
  2
HIDDENX2
 70
    64
  3
Hidden (2x) ____ ____ ____ ____ ____ ____ ____
 72
    65
 73
     2
 40
9.0
 49
6.0
 49
-3.0
  0
LTYPE
  2
PHANTOM
 70
    64
  3
Phantom ______  __  __  ______  __  __  ______
 72
    65
 73
     6
 40
15.0
 49
7.5
 49
-1.5
 49
1.5
 49
-1.5
 49
1.5
 49
-1.5
  0
LTYPE
  2
PHANTOM2
 70
    64
  3
Phantom (.5x) ___ _ _ ___ _ _ ___ _ _ ___ _ _
 72
    65
 73
     6
 40
7.5
 49
3.75
 49
-0.75
 49
0.75
 49
-0.75
 49
0.75
 49
-0.75
  0
LTYPE
  2
PHANTOMX2
 70
    64
  3
Phantom (2x) ____________    ____    ____   _
 72
    65
 73
     6
 40
30.0
 49
15.0
 49
-3.0
 49
3.0
 49
-3.0
 49
3.0
 49
-3.0
  0
ENDTAB
  0
TABLE
  2
LAYER
 70
     1
  0
LAYER
  2
0
 70
     0
 62
     7
  6
CONTINUOUS
  0
ENDTAB
  0
TABLE
  2
STYLE
 70
     1
  0
STYLE
  2
STANDARD
 70
     0
 40
0.0
 41
1.0
 50
0.0
 71
     0
 42
0.2
  3
txt
  4
BIGFONT
  0
ENDTAB
  0
TABLE
  2
DIMSTYLE
 70
     0
  0
ENDTAB
  0
ENDSEC
  0
SECTION
  2
BLOCKS
  0
BLOCK
  8
0
  2
KOZU0001
 70
    64
 10
0
 20
0
  0
LINE
  8
0
  6
CONTINUOUS
 62
     7
 10
0
 20
0
 11
7.9723327
 21
13.817451
  0
LINE
  8
0
  6
CONTINUOUS
 62
     7
 10
0
 20
0
 11
0.63310393
 21
3.0982542
  0
LINE
  8
0
  6
CONTINUOUS
 62
     7
 10
0
 20
0
 11
2.3654357
 21
2.098741
  0
TEXT
  8
0
  6
CONTINUOUS
 62
     7
 10
10.978345
 20
14.617442
 40
3.2
 41
0.85127004
  1
%%C５．２
  0
LINE
  8
0
  6
CONTINUOUS
 62
     7
 10
0
 20
0
 11
7.9723327
 21
13.817451
  0
LINE
  8
0
  6
CONTINUOUS
 62
     7
 10
7.9723271
 20
13.817442
 11
24.692344
 21
13.817442
  0
ENDBLK
  8
0
  0
BLOCK
  8
0
  2
KOZU0002
 70
    64
 10
0
 20
0
  0
LINE
  8
0
  6
CONTINUOUS
 62
     7
 10
0
 20
0
 11
-6.3327361
 21
11.735628
  0
LINE
  8
0
  6
CONTINUOUS
 62
     7
 10
0
 20
0
 11
-2.3047089
 21
2.1652521
  0
LINE
  8
0
  6
CONTINUOUS
 62
     7
 10
0
 20
0
 11
-0.54461582
 21
3.115027
  0
TEXT
  8
0
  6
CONTINUOUS
 62
     7
 10
-14.924718
 20
12.535626
 40
3.2
 41
0.86439074
  1
Ｍ５
  0
LINE
  8
0
  6
CONTINUOUS
 62
     7
 10
0
 20
0
 11
-6.3327361
 21
11.735628
  0
LINE
  8
0
  6
CONTINUOUS
 62
     7
 10
-6.3327316
 20
11.735626
 11
-16.752714
 21
11.735626
  0
ENDBLK
  8
0
  0
BLOCK
  8
0
  2
KOZU0003
 70
    64
 10
0
 20
0
  0
LINE
  8
0
  6
CONTINUOUS
 62
     7
 10
0
 20
0
 11
-6.416583
 21
-22.661308
  0
LINE
  8
0
  6
CONTINUOUS
 62
     7
 10
0
 20
0
 11
0.14485078
 21
-3.1589584
  0
LINE
  8
0
  6
CONTINUOUS
 62
     7
 10
0
 20
0
 11
-1.7794944
 21
-2.6140772
  0
TEXT
  8
0
  6
CONTINUOUS
 62
     7
 10
-29.395785
 20
-21.861311
 40
3.2
 41
0.84741101
  1
２Ｘ２－Ｍ５
  0
TEXT
  8
0
  6
CONTINUOUS
 62
     7
 10
-29.395785
 20
-27.477311
 40
3.2
 41
0.85127004
  1
（両側）
  0
LINE
  8
0
  6
CONTINUOUS
 62
     7
 10
0
 20
0
 11
-6.416583
 21
-22.661308
  0
LINE
  8
0
  6
CONTINUOUS
 62
     7
 10
-6.4165834
 20
-22.661311
 11
-31.223785
 21
-22.661311
  0
ENDBLK
  8
0
  0
ENDSEC
  0
SECTION
  2
ENTITIES
  0
POINT
  8
0
  6
CONTINUOUS
 62
     7
 10
-176.8
 20
274
  0
POINT
  8
0
  6
CONTINUOUS
 62
     7
 10
-176.8
 20
0
  0
POINT
  8
0
  6
CONTINUOUS
 62
     7
 10
-176.8
 20
274
  0
POINT
  8
0
  6
CONTINUOUS
 62
     7
 10
-176.8
 20
0
  0
POINT
  8
0
  6
CONTINUOUS
 62
     7
 10
0
 20
0
  0
POINT
  8
0
  6
CONTINUOUS
 62
     7
 10
0
 20
274
  0
LINE
  8
0
  6
DASHED
 62
     7
 10
-124.305
 20
209.27414
 11
-114.305
 21
209.27414
  0
LINE
  8
0
  6
DASHED
 62
     7
 10
-112.305
 20
209.87415
 11
-102.305
 21
209.87415
  0
LINE
  8
0
  6
DASHED
 62
     7
 10
-112.305
 20
204.67415
 11
-102.305
 21
204.67415
  0
LINE
  8
0
  6
CONTINUOUS
 62
     7
 10
-143.30499
 20
84.850006
 11
-83.305
 21
84.850006
  0
LINE
  8
0
  6
CENTER
 62
     7
 10
-113.305
 20
162.34935
 11
-113.305
 21
77.114891
  0
LINE
  8
0
  6
CONTINUOUS
 62
     7
 10
-124.305
 20
159.85001
 11
-114.305
 21
159.85001
  0
LINE
  8
0
  6
CONTINUOUS
 62
     7
 10
-143.30499
 20
144.85001
 11
-143.30499
 21
84.850006
  0
LINE
  8
0
  6
CONTINUOUS
 62
     7
 10
-83.305
 20
144.85001
 11
-83.305
 21
84.850006
  0
LINE
  8
0
  6
CONTINUOUS
 62
     7
 10
-143.30499
 20
144.85001
 11
-124.305
 21
144.85001
  0
LINE
  8
0
  6
CONTINUOUS
 62
     7
 10
-102.305
 20
159.85001
 11
-102.305
 21
144.85001
  0
LINE
  8
0
  6
CONTINUOUS
 62
     7
 10
-124.305
 20
159.85001
 11
-124.305
 21
144.85001
  0
LINE
  8
0
  6
CONTINUOUS
 62
     7
 10
-112.305
 20
159.85001
 11
-112.305
 21
137.32777
  0
LINE
  8
0
  6
CONTINUOUS
 62
     7
 10
-114.305
 20
159.85001
 11
-114.305
 21
137.32777
  0
LINE
  8
0
  6
CONTINUOUS
 62
     7
 10
-102.305
 20
144.85001
 11
-83.305
 21
144.85001
  0
LINE
  8
0
  6
CONTINUOUS
 62
     7
 10
-112.305
 20
159.85001
 11
-102.305
 21
159.85001
  0
LINE
  8
0
  6
CENTER
 62
     7
 10
-148.89505
 20
114.85001
 11
-79.585793
 21
114.85001
  0
LINE
  8
0
  6
CENTER
 62
     7
 10
-145.30499
 20
94.850006
 11
-128.25487
 21
94.850006
  0
LINE
  8
0
  6
CENTER
 62
     7
 10
-128.02582
 20
151.85001
 11
-98.69178
 21
151.85001
  0
LINE
  8
0
  6
DASHED
 62
     7
 10
-124.305
 20
204.77414
 11
-114.305
 21
204.77414
  0
LINE
  8
0
  6
DASHED
 62
     7
 10
-124.305
 20
209.77414
 11
-114.305
 21
209.77414
  0
LINE
  8
0
  6
DASHED
 62
     7
 10
-124.305
 20
205.27414
 11
-114.305
 21
205.27414
  0
LINE
  8
0
  6
DASHED
 62
     7
 10
-133.30499
 20
97.350006
 11
-133.30499
 21
92.350006
  0
LINE
  8
0
  6
DASHED
 62
     7
 10
-131.30499
 20
96.850006
 11
-131.30499
 21
92.850006
  0
LINE
  8
0
  6
DASHED
 62
     7
 10
-143.30499
 20
97.350006
 11
-133.30499
 21
97.350006
  0
LINE
  8
0
  6
DASHED
 62
     7
 10
-143.30499
 20
92.350006
 11
-133.30499
 21
92.350006
  0
LINE
  8
0
  6
DASHED
 62
     7
 10
-143.30499
 20
92.850006
 11
-131.30499
 21
92.850006
  0
LINE
  8
0
  6
DASHED
 62
     7
 10
-143.30499
 20
96.850006
 11
-131.30499
 21
96.850006
  0
LINE
  8
0
  6
DASHED
 62
     7
 10
-131.30501
 20
92.850011
 11
-130.15031
 21
94.85001
  0
LINE
  8
0
  6
DASHED
 62
     7
 10
-131.305
 20
96.850009
 11
-130.1503
 21
94.850007
  0
LINE
  8
0
  6
CENTER
 62
     7
 10
-145.30499
 20
134.85001
 11
-128.25487
 21
134.85001
  0
LINE
  8
0
  6
DASHED
 62
     7
 10
-133.30499
 20
204.77414
 11
-133.30499
 21
209.77414
  0
LINE
  8
0
  6
DASHED
 62
     7
 10
-131.30499
 20
205.27414
 11
-131.30499
 21
209.27414
  0
LINE
  8
0
  6
DASHED
 62
     7
 10
-143.30499
 20
204.77414
 11
-133.30499
 21
204.77414
  0
LINE
  8
0
  6
DASHED
 62
     7
 10
-143.30499
 20
209.77414
 11
-133.30499
 21
209.77414
  0
LINE
  8
0
  6
DASHED
 62
     7
 10
-143.30499
 20
209.27414
 11
-131.30499
 21
209.27414
  0
LINE
  8
0
  6
DASHED
 62
     7
 10
-143.30499
 20
205.27414
 11
-131.30499
 21
205.27414
  0
LINE
  8
0
  6
DASHED
 62
     7
 10
-131.305
 20
209.27414
 11
-130.1503
 21
207.27414
  0
LINE
  8
0
  6
DASHED
 62
     7
 10
-131.30501
 20
205.27415
 11
-130.15031
 21
207.27415
  0
LINE
  8
0
  6
CENTER
 62
     7
 10
-81.305
 20
94.850006
 11
-98.355125
 21
94.850006
  0
LINE
  8
0
  6
DASHED
 62
     7
 10
-93.305
 20
97.350006
 11
-93.305
 21
92.350006
  0
LINE
  8
0
  6
DASHED
 62
     7
 10
-95.305
 20
96.850006
 11
-95.305
 21
92.850006
  0
LINE
  8
0
  6
DASHED
 62
     7
 10
-83.305
 20
97.350006
 11
-93.305
 21
97.350006
  0
LINE
  8
0
  6
DASHED
 62
     7
 10
-83.305
 20
92.350006
 11
-93.305
 21
92.350006
  0
LINE
  8
0
  6
DASHED
 62
     7
 10
-83.305
 20
92.850006
 11
-95.305
 21
92.850006
  0
LINE
  8
0
  6
DASHED
 62
     7
 10
-83.305
 20
96.850006
 11
-95.305
 21
96.850006
  0
LINE
  8
0
  6
DASHED
 62
     7
 10
-95.304999
 20
92.850002
 11
-96.459701
 21
94.850003
  0
LINE
  8
0
  6
DASHED
 62
     7
 10
-95.304996
 20
96.850004
 11
-96.459697
 21
94.850003
  0
LINE
  8
0
  6
CENTER
 62
     7
 10
-81.305
 20
134.85001
 11
-98.355125
 21
134.85001
  0
LINE
  8
0
  6
DASHED
 62
     7
 10
-93.305
 20
204.77414
 11
-93.305
 21
209.77414
  0
LINE
  8
0
  6
DASHED
 62
     7
 10
-95.305
 20
205.27414
 11
-95.305
 21
209.27414
  0
LINE
  8
0
  6
DASHED
 62
     7
 10
-83.305
 20
204.77414
 11
-93.305
 21
204.77414
  0
LINE
  8
0
  6
DASHED
 62
     7
 10
-83.305
 20
209.77414
 11
-93.305
 21
209.77414
  0
LINE
  8
0
  6
DASHED
 62
     7
 10
-83.305
 20
209.27414
 11
-95.305
 21
209.27414
  0
LINE
  8
0
  6
DASHED
 62
     7
 10
-83.305
 20
205.27414
 11
-95.305
 21
205.27414
  0
LINE
  8
0
  6
DASHED
 62
     7
 10
-95.305011
 20
209.27415
 11
-96.459713
 21
207.27415
  0
LINE
  8
0
  6
DASHED
 62
     7
 10
-95.305005
 20
205.27415
 11
-96.459707
 21
207.27415
  0
LINE
  8
0
  6
CENTER
 62
     7
 10
-31.325001
 20
162.10268
 11
-31.325001
 21
81.731079
  0
LINE
  8
0
  6
CONTINUOUS
 62
     7
 10
-38.825001
 20
84.850006
 11
-23.825001
 21
84.850006
  0
LINE
  8
0
  6
CONTINUOUS
 62
     7
 10
-38.825001
 20
159.85001
 11
-23.825001
 21
159.85001
  0
LINE
  8
0
  6
CONTINUOUS
 62
     7
 10
-23.825001
 20
159.85001
 11
-23.825001
 21
84.850006
  0
LINE
  8
0
  6
CONTINUOUS
 62
     7
 10
-38.825001
 20
159.85001
 11
-38.825001
 21
84.850006
  0
LINE
  8
0
  6
CONTINUOUS
 62
     7
 10
-38.825001
 20
144.85001
 11
-23.825001
 21
144.85001
  0
LINE
  8
0
  6
CENTER
 62
     7
 10
-36.365002
 20
134.85001
 11
-26.285
 21
134.85001
  0
LINE
  8
0
  6
CENTER
 62
     7
 10
-36.365002
 20
94.850006
 11
-26.285
 21
94.850006
  0
LINE
  8
0
  6
CENTER
 62
     7
 10
-36.465
 20
151.85001
 11
-26.185001
 21
151.85001
  0
LINE
  8
0
  6
CENTER
 62
     7
 10
-43.825001
 20
114.85001
 11
-18.825001
 21
114.85001
  0
LINE
  8
0
  6
CONTINUOUS
 62
     7
 10
-143.30499
 20
214.77414
 11
-114.305
 21
214.77414
  0
LINE
  8
0
  6
CONTINUOUS
 62
     7
 10
-143.30499
 20
199.77414
 11
-114.305
 21
199.77414
  0
LINE
  8
0
  6
CENTER
 62
     7
 10
-113.305
 20
217.77414
 11
-113.305
 21
196.77414
  0
LINE
  8
0
  6
CONTINUOUS
 62
     7
 10
-124.305
 20
214.77414
 11
-124.305
 21
199.77414
  0
LINE
  8
0
  6
CONTINUOUS
 62
     7
 10
-114.305
 20
214.77414
 11
-114.305
 21
199.77414
  0
LINE
  8
0
  6
CONTINUOUS
 62
     7
 10
-112.305
 20
214.77414
 11
-112.305
 21
199.77414
  0
LINE
  8
0
  6
CONTINUOUS
 62
     7
 10
-102.305
 20
214.77414
 11
-102.305
 21
199.77414
  0
LINE
  8
0
  6
CONTINUOUS
 62
     7
 10
-83.305
 20
214.77414
 11
-83.305
 21
199.77414
  0
LINE
  8
0
  6
CONTINUOUS
 62
     7
 10
-143.30499
 20
214.77414
 11
-143.30499
 21
199.77414
  0
LINE
  8
0
  6
CENTER
 62
     7
 10
-148.30499
 20
207.27414
 11
-78.305
 21
207.27414
  0
LINE
  8
0
  6
DASHED
 62
     7
 10
-124.305
 20
153.85001
 11
-114.305
 21
153.85001
  0
LINE
  8
0
  6
DASHED
 62
     7
 10
-112.305
 20
154.45001
 11
-102.305
 21
154.45001
  0
LINE
  8
0
  6
DASHED
 62
     7
 10
-112.305
 20
149.25
 11
-102.305
 21
149.25
  0
LINE
  8
0
  6
DASHED
 62
     7
 10
-124.305
 20
149.35001
 11
-114.305
 21
149.35001
  0
LINE
  8
0
  6
DASHED
 62
     7
 10
-124.305
 20
149.85001
 11
-114.305
 21
149.85001
  0
LINE
  8
0
  6
DASHED
 62
     7
 10
-124.305
 20
154.35001
 11
-114.305
 21
154.35001
  0
LINE
  8
0
  6
DASHED
 62
     7
 10
-95.304996
 20
136.85
 11
-96.459698
 21
134.85
  0
LINE
  8
0
  6
DASHED
 62
     7
 10
-83.305
 20
132.85001
 11
-95.305
 21
132.85001
  0
LINE
  8
0
  6
DASHED
 62
     7
 10
-95.305
 20
132.85
 11
-96.459702
 21
134.85
  0
LINE
  8
0
  6
DASHED
 62
     7
 10
-83.305
 20
137.35001
 11
-93.305
 21
137.35001
  0
LINE
  8
0
  6
DASHED
 62
     7
 10
-133.30499
 20
132.35001
 11
-133.30499
 21
137.35001
  0
LINE
  8
0
  6
DASHED
 62
     7
 10
-131.30499
 20
132.85001
 11
-131.30499
 21
136.85001
  0
LINE
  8
0
  6
DASHED
 62
     7
 10
-143.30499
 20
132.35001
 11
-133.30499
 21
132.35001
  0
LINE
  8
0
  6
DASHED
 62
     7
 10
-143.30499
 20
137.35001
 11
-133.30499
 21
137.35001
  0
LINE
  8
0
  6
DASHED
 62
     7
 10
-143.30499
 20
136.85001
 11
-131.30499
 21
136.85001
  0
LINE
  8
0
  6
DASHED
 62
     7
 10
-143.30499
 20
132.85001
 11
-131.30499
 21
132.85001
  0
LINE
  8
0
  6
DASHED
 62
     7
 10
-131.305
 20
136.85
 11
-130.15031
 21
134.85001
  0
LINE
  8
0
  6
DASHED
 62
     7
 10
-131.305
 20
132.85001
 11
-130.1503
 21
134.85001
  0
LINE
  8
0
  6
DASHED
 62
     7
 10
-83.305
 20
136.85001
 11
-95.305
 21
136.85001
  0
LINE
  8
0
  6
DASHED
 62
     7
 10
-93.305
 20
132.35001
 11
-93.305
 21
137.35001
  0
LINE
  8
0
  6
DASHED
 62
     7
 10
-95.305
 20
132.85001
 11
-95.305
 21
136.85001
  0
LINE
  8
0
  6
DASHED
 62
     7
 10
-83.305
 20
132.35001
 11
-93.305
 21
132.35001
  0
LINE
  8
0
  6
CONTINUOUS
 62
     7
 10
-114.305
 20
214.77414
 11
-112.305
 21
214.77414
  0
LINE
  8
0
  6
CONTINUOUS
 62
     7
 10
-112.305
 20
214.77414
 11
-83.305
 21
214.77414
  0
LINE
  8
0
  6
CONTINUOUS
 62
     7
 10
-112.305
 20
199.77414
 11
-83.305
 21
199.77414
  0
LINE
  8
0
  6
CONTINUOUS
 62
     7
 10
-114.305
 20
199.77414
 11
-112.305
 21
199.77414
  0
LINE
  8
0
  6
CONTINUOUS
 62
     7
 10
-176.8
 20
0
 11
0
 21
0
  0
LINE
  8
0
  6
CONTINUOUS
 62
     7
 10
0
 20
274
 11
0
 21
0
  0
LINE
  8
0
  6
CONTINUOUS
 62
     7
 10
-176.8
 20
274
 11
-176.8
 21
0
  0
LINE
  8
0
  6
CONTINUOUS
 62
     7
 10
-176.8
 20
274
 11
0
 21
274
  0
LINE
  8
0
  6
CONTINUOUS
 62
     7
 10
-61.599998
 20
38.5
 11
-61.599998
 21
0
  0
LINE
  8
0
  6
CONTINUOUS
 62
     7
 10
-61.599998
 20
12.5
 11
0
 21
12.5
  0
LINE
  8
0
  6
CONTINUOUS
 62
     7
 10
-61.599998
 20
25
 11
0
 21
25
  0
LINE
  8
0
  6
CONTINUOUS
 62
     7
 10
-61.599998
 20
38.5
 11
0
 21
38.5
  0
ARC
  8
0
  6
CONTINUOUS
 62
     7
 10
-113.305
 20
114.85001
 40
22.5
 50
92.547322
 51
87.452687
  0
CIRCLE
  8
0
  6
CONTINUOUS
 62
     7
 10
-31.325001
 20
134.85001
 40
2.5
  0
CIRCLE
  8
0
  6
CONTINUOUS
 62
     7
 10
-31.325001
 20
134.85001
 40
2
  0
CIRCLE
  8
0
  6
CONTINUOUS
 62
     7
 10
-31.325001
 20
94.850006
 40
2.5
  0
CIRCLE
  8
0
  6
CONTINUOUS
 62
     7
 10
-31.325001
 20
94.850006
 40
2
  0
CIRCLE
  8
0
  6
CONTINUOUS
 62
     7
 10
-31.325001
 20
151.85001
 40
2.5999999
  0
TEXT
  8
0
  6
CONTINUOUS
 62
     7
 10
-55.283347
 20
29.522415
 40
4.8000002
 41
0.84448336
  1
ニッパー固定ホルダー
  0
TEXT
  8
0
  6
CONTINUOUS
 62
     7
 10
-49.561604
 20
16.387573
 40
4.8000002
 41
0.84556527
  1
ＧＴ－ＮＲ２０用
  0
TEXT
  8
0
  6
CONTINUOUS
 62
     7
 10
-44.070297
 20
3.944036
 40
4.8000002
 41
0.8474109
  1
３７０３３７
  0
INSERT
  8
0
  6
CONTINUOUS
 62
     7
  2
KOZU0001
 10
-102.305
 20
151.85001
  0
INSERT
  8
0
  6
CONTINUOUS
 62
     7
  2
KOZU0002
 10
-124.30499
 20
151.85001
  0
INSERT
  8
0
  6
CONTINUOUS
 62
     7
  2
KOZU0003
 10
-32.006104
 20
92.444575
  0
ENDSEC
  0
EOF
