  0
SECTION
  2
HEADER
  9
$EXTMAX
 10
1.2182922
 20
274.528
 30
0
  9
$EXTMIN
 10
-177.2301
 20
-1.0560455
 30
0
  9
$LIMMAX
 10
1.2182922
 20
274.528
  9
$LIMMIN
 10
-177.2301
 20
-1.0560455
  9
$PLIMMAX
 10
1.2182922
 20
274.528
  9
$PLIMMIN
 10
-177.2301
 20
-1.0560455
  9
$PEXTMAX
 10
1.2182922
 20
274.528
 30
0
  9
$PEXTMIN
 10
-177.2301
 20
-1.0560455
 30
0
  9
$TEXTSIZE
 40
3.2
  9
$DIMSHO
 70
     0
  9
$DIMASZ
 40
1.0
  9
$DIMTAD
 70
     1
  9
$DIMTIH
 70
     0
  9
$DIMTOH
 70
     0
  9
$DIMEXE
 40
2.54
  9
$DIMEXO
 40
2.54
  9
$DIMTVP
 40
1.0
  9
$DIMSAH
 70
     1
  9
$DIMDLE
 40
0.0
  9
$DIMTXT
 40
3.2
  9
$DIMGAP
 40
1.6
  0
ENDSEC
  0
SECTION
  2
TABLES
  0
TABLE
  2
LTYPE
 70
     39
  0
LTYPE
  2
CONTINUOUS
 70
    64
  3
Solid line
 72
    65
 73
     0
 40
0.0
  0
LTYPE
  2
ACAD_ISO02W100
 70
     0
  3
ISO dash __ __ __ __ __ __ __ __ __ __ __ __ __
 72
    65
 73
     2
 40
15.0
 49
12.0
 49
-3.0
  0
LTYPE
  2
ACAD_ISO03W100
 70
     0
  3
ISO dash space __    __    __    __    __    __
 72
    65
 73
     2
 40
30.0
 49
12.0
 49
-18.0
  0
LTYPE
  2
ACAD_ISO04W100
 70
     0
  3
ISO long-dash dot ____ . ____ . ____ . ____ . _
 72
    65
 73
     4
 40
30.0
 49
24.0
 49
-3.0
 49
0.0
 49
-3.0
  0
LTYPE
  2
ACAD_ISO05W100
 70
     0
  3
ISO long-dash double-dot ____ .. ____ .. ____ .
 72
    65
 73
     6
 40
33.0
 49
24.0
 49
-3.0
 49
0.0
 49
-3.0
 49
0.0
 49
-3.0
  0
LTYPE
  2
ACAD_ISO06W100
 70
     0
  3
ISO long-dash triple-dot ____ ... ____ ... ____
 72
    65
 73
     8
 40
36.0
 49
24.0
 49
-3.0
 49
0.0
 49
-3.0
 49
0.0
 49
-3.0
 49
0.0
 49
-3.0
  0
LTYPE
  2
ACAD_ISO07W100
 70
     0
  3
ISO dot . . . . . . . . . . . . . . . . . . . .
 72
    65
 73
     2
 40
3.0
 49
0.0
 49
-3.0
  0
LTYPE
  2
ACAD_ISO08W100
 70
     0
  3
ISO long-dash short-dash ____ __ ____ __ ____ _
 72
    65
 73
     4
 40
36.0
 49
24.0
 49
-3.0
 49
6.0
 49
-3.0
  0
LTYPE
  2
ACAD_ISO09W100
 70
     0
  3
ISO long-dash double-short-dash ____ __ __ ____
 72
    65
 73
     6
 40
45.0
 49
24.0
 49
-3.0
 49
6.0
 49
-3.0
 49
6.0
 49
-3.0
  0
LTYPE
  2
ACAD_ISO10W100
 70
     0
  3
ISO dash dot __ . __ . __ . __ . __ . __ . __ .
 72
    65
 73
     4
 40
18.0
 49
12.0
 49
-3.0
 49
0.0
 49
-3.0
  0
LTYPE
  2
ACAD_ISO11W100
 70
     0
  3
ISO double-dash dot __ __ . __ __ . __ __ . __ 
 72
    65
 73
     6
 40
33.0
 49
12.0
 49
-3.0
 49
12.0
 49
-3.0
 49
0.0
 49
-3.0
  0
LTYPE
  2
ACAD_ISO12W100
 70
     0
  3
ISO dash double-dot __ . . __ . . __ . . __ . .
 72
    65
 73
     6
 40
21.0
 49
12.0
 49
-3.0
 49
0.0
 49
-3.0
 49
0.0
 49
-3.0
  0
LTYPE
  2
ACAD_ISO13W100
 70
     0
  3
ISO double-dash double-dot __ __ . . __ __ . . 
 72
    65
 73
     8
 40
36.0
 49
12.0
 49
-3.0
 49
12.0
 49
-3.0
 49
0.0
 49
-3.0
 49
0.0
 49
-3.0
  0
LTYPE
  2
ACAD_ISO14W100
 70
     0
  3
ISO dash triple-dot __ . . . __ . . . __ . . . 
 72
    65
 73
     8
 40
24.0
 49
12.0
 49
-3.0
 49
0.0
 49
-3.0
 49
0.0
 49
-3.0
 49
0.0
 49
-3.0
  0
LTYPE
  2
ACAD_ISO15W100
 70
     0
  3
ISO double-dash triple-dot __ __ . . . __ __ . 
 72
    65
 73
    10
 40
39.0
 49
12.0
 49
-3.0
 49
12.0
 49
-3.0
 49
0.0
 49
-3.0
 49
0.0
 49
-3.0
 49
0.0
 49
-3.0
  0
LTYPE
  2
BORDER
 70
    64
  3
Border __ __ . __ __ . __ __ . __ __ . __ __ .
 72
    65
 73
     6
 40
3.5
 49
1.0
 49
-0.5
 49
1.0
 49
-0.5
 49
0.0
 49
-0.5
  0
LTYPE
  2
BORDER2
 70
    64
  3
Border (.5x) __.__.__.__.__.__.__.__.__.__.__.
 72
    65
 73
     6
 40
1.75
 49
0.5
 49
-0.25
 49
0.5
 49
-0.25
 49
0.0
 49
-0.25
  0
LTYPE
  2
BORDERX2
 70
    64
  3
Border (2x) ____  ____  .  ____  ____  .  ___
 72
    65
 73
     6
 40
7.0
 49
2.0
 49
-1.0
 49
2.0
 49
-1.0
 49
0.0
 49
-1.0
  0
LTYPE
  2
CENTER
 70
    64
  3
Center ____ _ ____ _ ____ _ ____ _ ____ _ ____
 72
    65
 73
     4
 40
12.0
 49
7.5
 49
-1.5
 49
1.5
 49
-1.5
  0
LTYPE
  2
CENTER2
 70
    64
  3
Center (.5x) ___ _ ___ _ ___ _ ___ _ ___ _ ___
 72
    65
 73
     4
 40
6.0
 49
3.75
 49
-0.75
 49
0.75
 49
-0.75
  0
LTYPE
  2
CENTERX2
 70
    64
  3
Center (2x) ________  __  ________  __  _____
 72
    65
 73
     4
 40
24.0
 49
15.0
 49
-3.0
 49
3.0
 49
-3.0
  0
LTYPE
  2
DASHDOT
 70
    64
  3
Dash dot __ . __ . __ . __ . __ . __ . __ . __
 72
    65
 73
     4
 40
6.0
 49
3.0
 49
-1.5
 49
0.0
 49
-1.5
  0
LTYPE
  2
DASHDOT2
 70
    64
  3
Dash dot (.5x) _._._._._._._._._._._._._._._.
 72
    65
 73
     4
 40
3.0
 49
1.5
 49
-0.75
 49
0.0
 49
-0.75
  0
LTYPE
  2
DASHDOTX2
 70
    64
  3
Dash dot (2x) ____  .  ____  .  ____  .  ___
 72
    65
 73
     4
 40
12.0
 49
6.0
 49
-3.0
 49
0.0
 49
-3.0
  0
LTYPE
  2
DASHED
 70
    64
  3
Dashed __ __ __ __ __ __ __ __ __ __ __ __ __ _
 72
    65
 73
     2
 40
4.5
 49
3.0
 49
-1.5
  0
LTYPE
  2
DASHED2
 70
    64
  3
Dashed (.5x) _ _ _ _ _ _ _ _ _ _ _ _ _ _ _ _ _
 72
    65
 73
     2
 40
2.25
 49
1.5
 49
-0.75
  0
LTYPE
  2
DASHEDX2
 70
    64
  3
Dashed (2x) ____  ____  ____  ____  ____  ___
 72
    65
 73
     2
 40
9.0
 49
6.0
 49
-3.0
  0
LTYPE
  2
DIVIDE
 70
    64
  3
Divide ____ . . ____ . . ____ . . ____ . . ____
 72
    65
 73
     6
 40
7.5
 49
3.0
 49
-1.5
 49
0.0
 49
-1.5
 49
0.0
 49
-1.5
  0
LTYPE
  2
DIVIDE2
 70
    64
  3
Divide (.5x) __..__..__..__..__..__..__..__.._
 72
    65
 73
     6
 40
3.75
 49
1.5
 49
-0.75
 49
0.0
 49
-0.75
 49
0.0
 49
-0.75
  0
LTYPE
  2
DIVIDEX2
 70
    64
  3
Divide (2x) ________  .  .  ________  .  .  _
 72
    65
 73
     6
 40
15.0
 49
6.0
 49
-3.0
 49
0.0
 49
-3.0
 49
0.0
 49
-3.0
  0
LTYPE
  2
DOT
 70
    64
  3
Dot . . . . . . . . . . . . . . . . . . . . . .
 72
    65
 73
     2
 40
1.5
 49
0.0
 49
-1.5
  0
LTYPE
  2
DOT2
 70
    64
  3
Dot (.5x) .....................................
 72
    65
 73
     2
 40
0.75
 49
0.0
 49
-0.75
  0
LTYPE
  2
DOTX2
 70
    64
  3
Dot (2x) .  .  .  .  .  .  .  .  .  .  .  .  . 
 72
    65
 73
     2
 40
3.0
 49
0.0
 49
-3.0
  0
LTYPE
  2
HIDDEN
 70
    64
  3
Hidden __ __ __ __ __ __ __ __ __ __ __ __ __ _
 72
    65
 73
     2
 40
4.5
 49
3.0
 49
-1.5
  0
LTYPE
  2
HIDDEN2
 70
    64
  3
Hidden (.5x) _ _ _ _ _ _ _ _ _ _ _ _ _ _ _ _ _
 72
    65
 73
     2
 40
2.25
 49
1.5
 49
-0.75
  0
LTYPE
  2
HIDDENX2
 70
    64
  3
Hidden (2x) ____ ____ ____ ____ ____ ____ ____
 72
    65
 73
     2
 40
9.0
 49
6.0
 49
-3.0
  0
LTYPE
  2
PHANTOM
 70
    64
  3
Phantom ______  __  __  ______  __  __  ______
 72
    65
 73
     6
 40
15.0
 49
7.5
 49
-1.5
 49
1.5
 49
-1.5
 49
1.5
 49
-1.5
  0
LTYPE
  2
PHANTOM2
 70
    64
  3
Phantom (.5x) ___ _ _ ___ _ _ ___ _ _ ___ _ _
 72
    65
 73
     6
 40
7.5
 49
3.75
 49
-0.75
 49
0.75
 49
-0.75
 49
0.75
 49
-0.75
  0
LTYPE
  2
PHANTOMX2
 70
    64
  3
Phantom (2x) ____________    ____    ____   _
 72
    65
 73
     6
 40
30.0
 49
15.0
 49
-3.0
 49
3.0
 49
-3.0
 49
3.0
 49
-3.0
  0
ENDTAB
  0
TABLE
  2
LAYER
 70
     1
  0
LAYER
  2
0
 70
     0
 62
     7
  6
CONTINUOUS
  0
ENDTAB
  0
TABLE
  2
STYLE
 70
     1
  0
STYLE
  2
STANDARD
 70
     0
 40
0.0
 41
1.0
 50
0.0
 71
     0
 42
0.2
  3
txt
  4
BIGFONT
  0
ENDTAB
  0
TABLE
  2
DIMSTYLE
 70
     0
  0
ENDTAB
  0
ENDSEC
  0
SECTION
  2
BLOCKS
  0
BLOCK
  8
0
  2
KOZU0001
 70
    64
 10
0
 20
0
  0
LINE
  8
0
  6
CONTINUOUS
 62
     7
 10
0
 20
0
 11
10.187055
 21
15.102862
  0
LINE
  8
0
  6
CONTINUOUS
 62
     7
 10
0
 20
0
 11
0.84854744
 21
3.0463038
  0
LINE
  8
0
  6
CONTINUOUS
 62
     7
 10
0
 20
0
 11
2.5066202
 21
1.9279146
  0
TEXT
  8
0
  6
CONTINUOUS
 62
     7
 10
12.554015
 20
15.902865
 40
3.2
 41
0.85127004
  1
%%C５．２
  0
LINE
  8
0
  6
CONTINUOUS
 62
     7
 10
0
 20
0
 11
10.187055
 21
15.102862
  0
LINE
  8
0
  6
CONTINUOUS
 62
     7
 10
10.187058
 20
15.102865
 11
26.268013
 21
15.102865
  0
ENDBLK
  8
0
  0
BLOCK
  8
0
  2
KOZU0002
 70
    64
 10
0
 20
0
  0
LINE
  8
0
  6
CONTINUOUS
 62
     7
 10
0
 20
0
 11
-8.3343462
 21
14.457101
  0
LINE
  8
0
  6
CONTINUOUS
 62
     7
 10
0
 20
0
 11
-2.3646677
 21
2.0996063
  0
LINE
  8
0
  6
CONTINUOUS
 62
     7
 10
0
 20
0
 11
-0.63197035
 21
3.0984856
  0
TEXT
  8
0
  6
CONTINUOUS
 62
     7
 10
-17.317381
 20
15.257101
 40
3.2
 41
0.86439074
  1
Ｍ５
  0
LINE
  8
0
  6
CONTINUOUS
 62
     7
 10
0
 20
0
 11
-8.3343462
 21
14.457101
  0
LINE
  8
0
  6
CONTINUOUS
 62
     7
 10
-8.3343432
 20
14.457101
 11
-19.145378
 21
14.457101
  0
ENDBLK
  8
0
  0
BLOCK
  8
0
  2
KOZU0003
 70
    64
 10
0
 20
0
  0
LINE
  8
0
  6
CONTINUOUS
 62
     7
 10
0
 20
0
 11
-5.8796462
 21
-19.469436
  0
LINE
  8
0
  6
CONTINUOUS
 62
     7
 10
0
 20
0
 11
0.090004352
 21
-3.1609965
  0
LINE
  8
0
  6
CONTINUOUS
 62
     7
 10
0
 20
0
 11
-1.8245944
 21
-2.5827998
  0
TEXT
  8
0
  6
CONTINUOUS
 62
     7
 10
-38.584085
 20
-18.669432
 40
3.2
 41
0.84496201
  1
２ｘ２－Ｍ５深１０
  0
TEXT
  8
0
  6
CONTINUOUS
 62
     7
 10
-38.584085
 20
-24.285432
 40
3.2
 41
0.85127004
  1
（両側）
  0
LINE
  8
0
  6
CONTINUOUS
 62
     7
 10
0
 20
0
 11
-5.8796462
 21
-19.469436
  0
LINE
  8
0
  6
CONTINUOUS
 62
     7
 10
-5.8796473
 20
-19.469432
 11
-40.41208
 21
-19.469432
  0
ENDBLK
  8
0
  0
ENDSEC
  0
SECTION
  2
ENTITIES
  0
LINE
  8
0
  6
DASHED
 62
     7
 10
-124.305
 20
226.57661
 11
-114.305
 21
226.57661
  0
LINE
  8
0
  6
DASHED
 62
     7
 10
-112.305
 20
227.17662
 11
-102.305
 21
227.17662
  0
LINE
  8
0
  6
DASHED
 62
     7
 10
-112.305
 20
221.97662
 11
-102.305
 21
221.97662
  0
LINE
  8
0
  6
CONTINUOUS
 62
     7
 10
-148.30499
 20
84.850006
 11
-78.305
 21
84.850006
  0
LINE
  8
0
  6
CENTER
 62
     7
 10
-113.305
 20
172.34935
 11
-113.305
 21
80.807526
  0
LINE
  8
0
  6
CONTINUOUS
 62
     7
 10
-124.305
 20
169.85001
 11
-114.305
 21
169.85001
  0
LINE
  8
0
  6
CONTINUOUS
 62
     7
 10
-148.30499
 20
154.85001
 11
-148.30499
 21
84.850006
  0
LINE
  8
0
  6
CONTINUOUS
 62
     7
 10
-78.305
 20
154.85001
 11
-78.305
 21
84.850006
  0
LINE
  8
0
  6
CONTINUOUS
 62
     7
 10
-148.30499
 20
154.85001
 11
-124.305
 21
154.85001
  0
LINE
  8
0
  6
CONTINUOUS
 62
     7
 10
-102.305
 20
169.85001
 11
-102.305
 21
154.85001
  0
LINE
  8
0
  6
CONTINUOUS
 62
     7
 10
-124.305
 20
169.85001
 11
-124.305
 21
154.85001
  0
LINE
  8
0
  6
CONTINUOUS
 62
     7
 10
-112.305
 20
169.85001
 11
-112.305
 21
147.83214
  0
LINE
  8
0
  6
CONTINUOUS
 62
     7
 10
-114.305
 20
169.85001
 11
-114.305
 21
147.83214
  0
LINE
  8
0
  6
CONTINUOUS
 62
     7
 10
-102.305
 20
154.85001
 11
-78.305
 21
154.85001
  0
LINE
  8
0
  6
CONTINUOUS
 62
     7
 10
-112.305
 20
169.85001
 11
-102.305
 21
169.85001
  0
LINE
  8
0
  6
CENTER
 62
     7
 10
-150.30499
 20
94.850006
 11
-133.25488
 21
94.850006
  0
LINE
  8
0
  6
CENTER
 62
     7
 10
-128.02582
 20
161.85001
 11
-98.69178
 21
161.85001
  0
LINE
  8
0
  6
DASHED
 62
     7
 10
-124.305
 20
222.07661
 11
-114.305
 21
222.07661
  0
LINE
  8
0
  6
DASHED
 62
     7
 10
-124.305
 20
227.07661
 11
-114.305
 21
227.07661
  0
LINE
  8
0
  6
DASHED
 62
     7
 10
-124.305
 20
222.57661
 11
-114.305
 21
222.57661
  0
LINE
  8
0
  6
DASHED
 62
     7
 10
-138.30499
 20
97.350006
 11
-138.30499
 21
92.350006
  0
LINE
  8
0
  6
DASHED
 62
     7
 10
-136.30499
 20
96.850006
 11
-136.30499
 21
92.850006
  0
LINE
  8
0
  6
DASHED
 62
     7
 10
-148.30499
 20
97.350006
 11
-138.30499
 21
97.350006
  0
LINE
  8
0
  6
DASHED
 62
     7
 10
-148.30499
 20
92.350006
 11
-138.30499
 21
92.350006
  0
LINE
  8
0
  6
DASHED
 62
     7
 10
-148.30499
 20
92.850006
 11
-136.30499
 21
92.850006
  0
LINE
  8
0
  6
DASHED
 62
     7
 10
-148.30499
 20
96.850006
 11
-136.30499
 21
96.850006
  0
LINE
  8
0
  6
DASHED
 62
     7
 10
-136.305
 20
92.850008
 11
-135.1503
 21
94.850008
  0
LINE
  8
0
  6
DASHED
 62
     7
 10
-136.305
 20
96.850009
 11
-135.1503
 21
94.850007
  0
LINE
  8
0
  6
CENTER
 62
     7
 10
-150.30499
 20
134.85001
 11
-133.25488
 21
134.85001
  0
LINE
  8
0
  6
DASHED
 62
     7
 10
-138.30499
 20
222.07661
 11
-138.30499
 21
227.07661
  0
LINE
  8
0
  6
DASHED
 62
     7
 10
-136.30499
 20
222.57661
 11
-136.30499
 21
226.57661
  0
LINE
  8
0
  6
DASHED
 62
     7
 10
-148.30499
 20
222.07661
 11
-138.30499
 21
222.07661
  0
LINE
  8
0
  6
DASHED
 62
     7
 10
-148.30499
 20
227.07661
 11
-138.30499
 21
227.07661
  0
LINE
  8
0
  6
DASHED
 62
     7
 10
-148.30499
 20
226.57661
 11
-136.30499
 21
226.57661
  0
LINE
  8
0
  6
DASHED
 62
     7
 10
-148.30499
 20
222.57661
 11
-136.30499
 21
222.57661
  0
LINE
  8
0
  6
DASHED
 62
     7
 10
-136.305
 20
226.57662
 11
-135.15031
 21
224.57663
  0
LINE
  8
0
  6
DASHED
 62
     7
 10
-136.305
 20
222.57662
 11
-135.1503
 21
224.57663
  0
LINE
  8
0
  6
CENTER
 62
     7
 10
-76.305
 20
94.850006
 11
-93.355125
 21
94.850006
  0
LINE
  8
0
  6
DASHED
 62
     7
 10
-88.305
 20
97.350006
 11
-88.305
 21
92.350006
  0
LINE
  8
0
  6
DASHED
 62
     7
 10
-90.305
 20
96.850006
 11
-90.305
 21
92.850006
  0
LINE
  8
0
  6
DASHED
 62
     7
 10
-78.305
 20
97.350006
 11
-88.305
 21
97.350006
  0
LINE
  8
0
  6
DASHED
 62
     7
 10
-78.305
 20
92.350006
 11
-88.305
 21
92.350006
  0
LINE
  8
0
  6
DASHED
 62
     7
 10
-78.305
 20
92.850006
 11
-90.305
 21
92.850006
  0
LINE
  8
0
  6
DASHED
 62
     7
 10
-78.305
 20
96.850006
 11
-90.305
 21
96.850006
  0
LINE
  8
0
  6
DASHED
 62
     7
 10
-90.305002
 20
92.850002
 11
-91.459704
 21
94.850003
  0
LINE
  8
0
  6
DASHED
 62
     7
 10
-90.304999
 20
96.850007
 11
-91.4597
 21
94.850005
  0
LINE
  8
0
  6
CENTER
 62
     7
 10
-76.305
 20
134.85001
 11
-93.355125
 21
134.85001
  0
LINE
  8
0
  6
DASHED
 62
     7
 10
-88.305
 20
222.07661
 11
-88.305
 21
227.07661
  0
LINE
  8
0
  6
DASHED
 62
     7
 10
-90.305
 20
222.57661
 11
-90.305
 21
226.57661
  0
LINE
  8
0
  6
DASHED
 62
     7
 10
-78.305
 20
222.07661
 11
-88.305
 21
222.07661
  0
LINE
  8
0
  6
DASHED
 62
     7
 10
-78.305
 20
227.07661
 11
-88.305
 21
227.07661
  0
LINE
  8
0
  6
DASHED
 62
     7
 10
-78.305
 20
226.57661
 11
-90.305
 21
226.57661
  0
LINE
  8
0
  6
DASHED
 62
     7
 10
-78.305
 20
222.57661
 11
-90.305
 21
222.57661
  0
LINE
  8
0
  6
DASHED
 62
     7
 10
-90.305001
 20
226.57661
 11
-91.459704
 21
224.57661
  0
LINE
  8
0
  6
DASHED
 62
     7
 10
-90.304999
 20
222.57662
 11
-91.459701
 21
224.57662
  0
LINE
  8
0
  6
CENTER
 62
     7
 10
-31.325001
 20
172.10268
 11
-31.325001
 21
78.829239
  0
LINE
  8
0
  6
CONTINUOUS
 62
     7
 10
-38.825001
 20
84.850006
 11
-23.825001
 21
84.850006
  0
LINE
  8
0
  6
CONTINUOUS
 62
     7
 10
-38.825001
 20
169.85001
 11
-23.825001
 21
169.85001
  0
LINE
  8
0
  6
CONTINUOUS
 62
     7
 10
-23.825001
 20
169.85001
 11
-23.825001
 21
84.850006
  0
LINE
  8
0
  6
CONTINUOUS
 62
     7
 10
-38.825001
 20
169.85001
 11
-38.825001
 21
84.850006
  0
LINE
  8
0
  6
CONTINUOUS
 62
     7
 10
-38.825001
 20
154.85001
 11
-23.825001
 21
154.85001
  0
LINE
  8
0
  6
CENTER
 62
     7
 10
-36.365002
 20
134.85001
 11
-26.285
 21
134.85001
  0
LINE
  8
0
  6
CENTER
 62
     7
 10
-36.365002
 20
94.850006
 11
-26.285
 21
94.850006
  0
LINE
  8
0
  6
CENTER
 62
     7
 10
-36.465
 20
161.85001
 11
-26.185001
 21
161.85001
  0
LINE
  8
0
  6
CONTINUOUS
 62
     7
 10
-148.30499
 20
232.07661
 11
-78.305
 21
232.07661
  0
LINE
  8
0
  6
CONTINUOUS
 62
     7
 10
-148.30499
 20
217.07661
 11
-78.305
 21
217.07661
  0
LINE
  8
0
  6
CONTINUOUS
 62
     7
 10
-148.30499
 20
232.07661
 11
-148.30499
 21
217.07661
  0
LINE
  8
0
  6
CONTINUOUS
 62
     7
 10
-124.305
 20
232.07661
 11
-124.305
 21
217.07661
  0
LINE
  8
0
  6
CONTINUOUS
 62
     7
 10
-114.305
 20
232.07661
 11
-114.305
 21
217.07661
  0
LINE
  8
0
  6
CENTER
 62
     7
 10
-113.305
 20
235.07661
 11
-113.305
 21
214.07661
  0
LINE
  8
0
  6
CONTINUOUS
 62
     7
 10
-112.305
 20
232.07661
 11
-112.305
 21
217.07661
  0
LINE
  8
0
  6
CONTINUOUS
 62
     7
 10
-102.305
 20
232.07661
 11
-102.305
 21
217.07661
  0
LINE
  8
0
  6
CONTINUOUS
 62
     7
 10
-78.305
 20
232.07661
 11
-78.305
 21
217.07661
  0
LINE
  8
0
  6
CENTER
 62
     7
 10
-153.30499
 20
224.57661
 11
-73.305
 21
224.57661
  0
LINE
  8
0
  6
DASHED
 62
     7
 10
-78.305
 20
132.85001
 11
-88.505806
 21
132.85001
  0
LINE
  8
0
  6
DASHED
 62
     7
 10
-138.30499
 20
132.35001
 11
-138.30499
 21
137.35001
  0
LINE
  8
0
  6
DASHED
 62
     7
 10
-136.30499
 20
135.81874
 11
-136.30499
 21
136.85001
  0
LINE
  8
0
  6
DASHED
 62
     7
 10
-148.30499
 20
132.35001
 11
-138.30499
 21
132.35001
  0
LINE
  8
0
  6
DASHED
 62
     7
 10
-148.30499
 20
137.35001
 11
-138.30499
 21
137.35001
  0
LINE
  8
0
  6
DASHED
 62
     7
 10
-148.30499
 20
136.85001
 11
-136.30499
 21
136.85001
  0
LINE
  8
0
  6
DASHED
 62
     7
 10
-148.30499
 20
132.85001
 11
-138.10419
 21
132.85001
  0
LINE
  8
0
  6
DASHED
 62
     7
 10
-136.305
 20
136.84999
 11
-135.97674
 21
136.28144
  0
LINE
  8
0
  6
DASHED
 62
     7
 10
-90.304995
 20
136.85001
 11
-90.633256
 21
136.28144
  0
LINE
  8
0
  6
DASHED
 62
     7
 10
-88.305
 20
132.35001
 11
-88.305
 21
137.35001
  0
LINE
  8
0
  6
DASHED
 62
     7
 10
-90.305
 20
135.81873
 11
-90.305
 21
136.85001
  0
LINE
  8
0
  6
DASHED
 62
     7
 10
-78.305
 20
132.35001
 11
-88.305
 21
132.35001
  0
LINE
  8
0
  6
DASHED
 62
     7
 10
-78.305
 20
137.35001
 11
-88.305
 21
137.35001
  0
LINE
  8
0
  6
DASHED
 62
     7
 10
-78.305
 20
136.85001
 11
-90.305
 21
136.85001
  0
LINE
  8
0
  6
DASHED
 62
     7
 10
-124.305
 20
163.85001
 11
-114.305
 21
163.85001
  0
LINE
  8
0
  6
DASHED
 62
     7
 10
-112.305
 20
164.45001
 11
-102.305
 21
164.45001
  0
LINE
  8
0
  6
DASHED
 62
     7
 10
-112.305
 20
159.25
 11
-102.305
 21
159.25
  0
LINE
  8
0
  6
DASHED
 62
     7
 10
-124.305
 20
164.35001
 11
-114.305
 21
164.35001
  0
LINE
  8
0
  6
DASHED
 62
     7
 10
-124.305
 20
159.35001
 11
-114.305
 21
159.35001
  0
LINE
  8
0
  6
DASHED
 62
     7
 10
-124.305
 20
159.85001
 11
-114.305
 21
159.85001
  0
LINE
  8
0
  6
CENTER
 62
     7
 10
-143.845
 20
119.85001
 11
-82.764999
 21
119.85001
  0
LINE
  8
0
  6
DASHED
 62
     7
 10
-38.825001
 20
91.850006
 11
-23.825001
 21
91.850006
  0
LINE
  8
0
  6
DASHED
 62
     7
 10
-38.825001
 20
147.85001
 11
-23.825001
 21
147.85001
  0
LINE
  8
0
  6
CONTINUOUS
 62
     7
 10
0
 20
274
 11
0
 21
0
  0
LINE
  8
0
  6
CONTINUOUS
 62
     7
 10
-176.5
 20
0
 11
0
 21
0
  0
LINE
  8
0
  6
CONTINUOUS
 62
     7
 10
-176.5
 20
274
 11
-176.5
 21
0
  0
LINE
  8
0
  6
CONTINUOUS
 62
     7
 10
-176.5
 20
274
 11
0
 21
274
  0
LINE
  8
0
  6
CONTINUOUS
 62
     7
 10
-61.599998
 20
38.5
 11
-61.599998
 21
0
  0
LINE
  8
0
  6
CONTINUOUS
 62
     7
 10
-61.599998
 20
12.5
 11
0
 21
12.5
  0
LINE
  8
0
  6
CONTINUOUS
 62
     7
 10
-61.599998
 20
25
 11
0
 21
25
  0
LINE
  8
0
  6
CONTINUOUS
 62
     7
 10
-61.599998
 20
38.5
 11
0
 21
38.5
  0
LINE
  8
0
  6
CONTINUOUS
 62
     7
 10
-176.7
 20
-0.2
 11
0.2
 21
-0.2
  0
LINE
  8
0
  6
CONTINUOUS
 62
     7
 10
-176.7
 20
274.20001
 11
-176.7
 21
-0.2
  0
LINE
  8
0
  6
CONTINUOUS
 62
     7
 10
-176.7
 20
274.20001
 11
0.2
 21
274.20001
  0
LINE
  8
0
  6
CONTINUOUS
 62
     7
 10
0.2
 20
274.20001
 11
0.2
 21
-0.2
  0
ARC
  8
0
  6
CONTINUOUS
 62
     7
 10
-113.305
 20
119.85001
 40
28
 50
92.046717
 51
87.953285
  0
CIRCLE
  8
0
  6
CONTINUOUS
 62
     7
 10
-31.325001
 20
134.85001
 40
2.5
  0
CIRCLE
  8
0
  6
CONTINUOUS
 62
     7
 10
-31.325001
 20
134.85001
 40
2
  0
CIRCLE
  8
0
  6
CONTINUOUS
 62
     7
 10
-31.325001
 20
94.850006
 40
2.5
  0
CIRCLE
  8
0
  6
CONTINUOUS
 62
     7
 10
-31.325001
 20
94.850006
 40
2
  0
CIRCLE
  8
0
  6
CONTINUOUS
 62
     7
 10
-31.325001
 20
161.85001
 40
2.5999999
  0
TEXT
  8
0
  6
CONTINUOUS
 62
     7
 10
-54.611464
 20
28.595497
 40
4.8000002
 41
0.84448336
  1
ニッパー固定ホルダー
  0
TEXT
  8
0
  6
CONTINUOUS
 62
     7
 10
-48.825547
 20
16.148269
 40
4.8000002
 41
0.84556527
  1
ＧＴ－ＮＲ３０用
  0
TEXT
  8
0
  6
CONTINUOUS
 62
     7
 10
-44.888226
 20
3.7010436
 40
4.8000002
 41
0.8474109
  1
３７０３３８
  0
INSERT
  8
0
  6
CONTINUOUS
 62
     7
  2
KOZU0001
 10
-102.305
 20
161.85
  0
INSERT
  8
0
  6
CONTINUOUS
 62
     7
  2
KOZU0002
 10
-124.305
 20
161.85001
  0
INSERT
  8
0
  6
CONTINUOUS
 62
     7
  2
KOZU0003
 10
-32.047744
 20
92.456759
  0
ENDSEC
  0
EOF
