  0
SECTION
  2
HEADER
  9
$EXTMAX
 10
1.2182922
 20
274.528
 30
0
  9
$EXTMIN
 10
-177.2301
 20
-1.0560455
 30
0
  9
$LIMMAX
 10
1.2182922
 20
274.528
  9
$LIMMIN
 10
-177.2301
 20
-1.0560455
  9
$PLIMMAX
 10
1.2182922
 20
274.528
  9
$PLIMMIN
 10
-177.2301
 20
-1.0560455
  9
$PEXTMAX
 10
1.2182922
 20
274.528
 30
0
  9
$PEXTMIN
 10
-177.2301
 20
-1.0560455
 30
0
  9
$TEXTSIZE
 40
3.2
  9
$DIMSHO
 70
     0
  9
$DIMASZ
 40
1.0
  9
$DIMTAD
 70
     1
  9
$DIMTIH
 70
     0
  9
$DIMTOH
 70
     0
  9
$DIMEXE
 40
2.54
  9
$DIMEXO
 40
2.54
  9
$DIMTVP
 40
1.0
  9
$DIMSAH
 70
     1
  9
$DIMDLE
 40
0.0
  9
$DIMTXT
 40
3.2
  9
$DIMGAP
 40
1.6
  0
ENDSEC
  0
SECTION
  2
TABLES
  0
TABLE
  2
LTYPE
 70
     39
  0
LTYPE
  2
CONTINUOUS
 70
    64
  3
Solid line
 72
    65
 73
     0
 40
0.0
  0
LTYPE
  2
ACAD_ISO02W100
 70
     0
  3
ISO dash __ __ __ __ __ __ __ __ __ __ __ __ __
 72
    65
 73
     2
 40
15.0
 49
12.0
 49
-3.0
  0
LTYPE
  2
ACAD_ISO03W100
 70
     0
  3
ISO dash space __    __    __    __    __    __
 72
    65
 73
     2
 40
30.0
 49
12.0
 49
-18.0
  0
LTYPE
  2
ACAD_ISO04W100
 70
     0
  3
ISO long-dash dot ____ . ____ . ____ . ____ . _
 72
    65
 73
     4
 40
30.0
 49
24.0
 49
-3.0
 49
0.0
 49
-3.0
  0
LTYPE
  2
ACAD_ISO05W100
 70
     0
  3
ISO long-dash double-dot ____ .. ____ .. ____ .
 72
    65
 73
     6
 40
33.0
 49
24.0
 49
-3.0
 49
0.0
 49
-3.0
 49
0.0
 49
-3.0
  0
LTYPE
  2
ACAD_ISO06W100
 70
     0
  3
ISO long-dash triple-dot ____ ... ____ ... ____
 72
    65
 73
     8
 40
36.0
 49
24.0
 49
-3.0
 49
0.0
 49
-3.0
 49
0.0
 49
-3.0
 49
0.0
 49
-3.0
  0
LTYPE
  2
ACAD_ISO07W100
 70
     0
  3
ISO dot . . . . . . . . . . . . . . . . . . . .
 72
    65
 73
     2
 40
3.0
 49
0.0
 49
-3.0
  0
LTYPE
  2
ACAD_ISO08W100
 70
     0
  3
ISO long-dash short-dash ____ __ ____ __ ____ _
 72
    65
 73
     4
 40
36.0
 49
24.0
 49
-3.0
 49
6.0
 49
-3.0
  0
LTYPE
  2
ACAD_ISO09W100
 70
     0
  3
ISO long-dash double-short-dash ____ __ __ ____
 72
    65
 73
     6
 40
45.0
 49
24.0
 49
-3.0
 49
6.0
 49
-3.0
 49
6.0
 49
-3.0
  0
LTYPE
  2
ACAD_ISO10W100
 70
     0
  3
ISO dash dot __ . __ . __ . __ . __ . __ . __ .
 72
    65
 73
     4
 40
18.0
 49
12.0
 49
-3.0
 49
0.0
 49
-3.0
  0
LTYPE
  2
ACAD_ISO11W100
 70
     0
  3
ISO double-dash dot __ __ . __ __ . __ __ . __ 
 72
    65
 73
     6
 40
33.0
 49
12.0
 49
-3.0
 49
12.0
 49
-3.0
 49
0.0
 49
-3.0
  0
LTYPE
  2
ACAD_ISO12W100
 70
     0
  3
ISO dash double-dot __ . . __ . . __ . . __ . .
 72
    65
 73
     6
 40
21.0
 49
12.0
 49
-3.0
 49
0.0
 49
-3.0
 49
0.0
 49
-3.0
  0
LTYPE
  2
ACAD_ISO13W100
 70
     0
  3
ISO double-dash double-dot __ __ . . __ __ . . 
 72
    65
 73
     8
 40
36.0
 49
12.0
 49
-3.0
 49
12.0
 49
-3.0
 49
0.0
 49
-3.0
 49
0.0
 49
-3.0
  0
LTYPE
  2
ACAD_ISO14W100
 70
     0
  3
ISO dash triple-dot __ . . . __ . . . __ . . . 
 72
    65
 73
     8
 40
24.0
 49
12.0
 49
-3.0
 49
0.0
 49
-3.0
 49
0.0
 49
-3.0
 49
0.0
 49
-3.0
  0
LTYPE
  2
ACAD_ISO15W100
 70
     0
  3
ISO double-dash triple-dot __ __ . . . __ __ . 
 72
    65
 73
    10
 40
39.0
 49
12.0
 49
-3.0
 49
12.0
 49
-3.0
 49
0.0
 49
-3.0
 49
0.0
 49
-3.0
 49
0.0
 49
-3.0
  0
LTYPE
  2
BORDER
 70
    64
  3
Border __ __ . __ __ . __ __ . __ __ . __ __ .
 72
    65
 73
     6
 40
3.5
 49
1.0
 49
-0.5
 49
1.0
 49
-0.5
 49
0.0
 49
-0.5
  0
LTYPE
  2
BORDER2
 70
    64
  3
Border (.5x) __.__.__.__.__.__.__.__.__.__.__.
 72
    65
 73
     6
 40
1.75
 49
0.5
 49
-0.25
 49
0.5
 49
-0.25
 49
0.0
 49
-0.25
  0
LTYPE
  2
BORDERX2
 70
    64
  3
Border (2x) ____  ____  .  ____  ____  .  ___
 72
    65
 73
     6
 40
7.0
 49
2.0
 49
-1.0
 49
2.0
 49
-1.0
 49
0.0
 49
-1.0
  0
LTYPE
  2
CENTER
 70
    64
  3
Center ____ _ ____ _ ____ _ ____ _ ____ _ ____
 72
    65
 73
     4
 40
12.0
 49
7.5
 49
-1.5
 49
1.5
 49
-1.5
  0
LTYPE
  2
CENTER2
 70
    64
  3
Center (.5x) ___ _ ___ _ ___ _ ___ _ ___ _ ___
 72
    65
 73
     4
 40
6.0
 49
3.75
 49
-0.75
 49
0.75
 49
-0.75
  0
LTYPE
  2
CENTERX2
 70
    64
  3
Center (2x) ________  __  ________  __  _____
 72
    65
 73
     4
 40
24.0
 49
15.0
 49
-3.0
 49
3.0
 49
-3.0
  0
LTYPE
  2
DASHDOT
 70
    64
  3
Dash dot __ . __ . __ . __ . __ . __ . __ . __
 72
    65
 73
     4
 40
6.0
 49
3.0
 49
-1.5
 49
0.0
 49
-1.5
  0
LTYPE
  2
DASHDOT2
 70
    64
  3
Dash dot (.5x) _._._._._._._._._._._._._._._.
 72
    65
 73
     4
 40
3.0
 49
1.5
 49
-0.75
 49
0.0
 49
-0.75
  0
LTYPE
  2
DASHDOTX2
 70
    64
  3
Dash dot (2x) ____  .  ____  .  ____  .  ___
 72
    65
 73
     4
 40
12.0
 49
6.0
 49
-3.0
 49
0.0
 49
-3.0
  0
LTYPE
  2
DASHED
 70
    64
  3
Dashed __ __ __ __ __ __ __ __ __ __ __ __ __ _
 72
    65
 73
     2
 40
4.5
 49
3.0
 49
-1.5
  0
LTYPE
  2
DASHED2
 70
    64
  3
Dashed (.5x) _ _ _ _ _ _ _ _ _ _ _ _ _ _ _ _ _
 72
    65
 73
     2
 40
2.25
 49
1.5
 49
-0.75
  0
LTYPE
  2
DASHEDX2
 70
    64
  3
Dashed (2x) ____  ____  ____  ____  ____  ___
 72
    65
 73
     2
 40
9.0
 49
6.0
 49
-3.0
  0
LTYPE
  2
DIVIDE
 70
    64
  3
Divide ____ . . ____ . . ____ . . ____ . . ____
 72
    65
 73
     6
 40
7.5
 49
3.0
 49
-1.5
 49
0.0
 49
-1.5
 49
0.0
 49
-1.5
  0
LTYPE
  2
DIVIDE2
 70
    64
  3
Divide (.5x) __..__..__..__..__..__..__..__.._
 72
    65
 73
     6
 40
3.75
 49
1.5
 49
-0.75
 49
0.0
 49
-0.75
 49
0.0
 49
-0.75
  0
LTYPE
  2
DIVIDEX2
 70
    64
  3
Divide (2x) ________  .  .  ________  .  .  _
 72
    65
 73
     6
 40
15.0
 49
6.0
 49
-3.0
 49
0.0
 49
-3.0
 49
0.0
 49
-3.0
  0
LTYPE
  2
DOT
 70
    64
  3
Dot . . . . . . . . . . . . . . . . . . . . . .
 72
    65
 73
     2
 40
1.5
 49
0.0
 49
-1.5
  0
LTYPE
  2
DOT2
 70
    64
  3
Dot (.5x) .....................................
 72
    65
 73
     2
 40
0.75
 49
0.0
 49
-0.75
  0
LTYPE
  2
DOTX2
 70
    64
  3
Dot (2x) .  .  .  .  .  .  .  .  .  .  .  .  . 
 72
    65
 73
     2
 40
3.0
 49
0.0
 49
-3.0
  0
LTYPE
  2
HIDDEN
 70
    64
  3
Hidden __ __ __ __ __ __ __ __ __ __ __ __ __ _
 72
    65
 73
     2
 40
4.5
 49
3.0
 49
-1.5
  0
LTYPE
  2
HIDDEN2
 70
    64
  3
Hidden (.5x) _ _ _ _ _ _ _ _ _ _ _ _ _ _ _ _ _
 72
    65
 73
     2
 40
2.25
 49
1.5
 49
-0.75
  0
LTYPE
  2
HIDDENX2
 70
    64
  3
Hidden (2x) ____ ____ ____ ____ ____ ____ ____
 72
    65
 73
     2
 40
9.0
 49
6.0
 49
-3.0
  0
LTYPE
  2
PHANTOM
 70
    64
  3
Phantom ______  __  __  ______  __  __  ______
 72
    65
 73
     6
 40
15.0
 49
7.5
 49
-1.5
 49
1.5
 49
-1.5
 49
1.5
 49
-1.5
  0
LTYPE
  2
PHANTOM2
 70
    64
  3
Phantom (.5x) ___ _ _ ___ _ _ ___ _ _ ___ _ _
 72
    65
 73
     6
 40
7.5
 49
3.75
 49
-0.75
 49
0.75
 49
-0.75
 49
0.75
 49
-0.75
  0
LTYPE
  2
PHANTOMX2
 70
    64
  3
Phantom (2x) ____________    ____    ____   _
 72
    65
 73
     6
 40
30.0
 49
15.0
 49
-3.0
 49
3.0
 49
-3.0
 49
3.0
 49
-3.0
  0
ENDTAB
  0
TABLE
  2
LAYER
 70
     1
  0
LAYER
  2
0
 70
     0
 62
     7
  6
CONTINUOUS
  0
ENDTAB
  0
TABLE
  2
STYLE
 70
     1
  0
STYLE
  2
STANDARD
 70
     0
 40
0.0
 41
1.0
 50
0.0
 71
     0
 42
0.2
  3
txt
  4
BIGFONT
  0
ENDTAB
  0
TABLE
  2
DIMSTYLE
 70
     0
  0
ENDTAB
  0
ENDSEC
  0
SECTION
  2
BLOCKS
  0
BLOCK
  8
0
  2
KOZU0001
 70
    64
 10
0
 20
0
  0
LINE
  8
0
  6
CONTINUOUS
 62
     7
 10
0
 20
0
 11
8.1912356
 21
13.453059
  0
LINE
  8
0
  6
CONTINUOUS
 62
     7
 10
0
 20
0
 11
0.70604639
 21
3.08245
  0
LINE
  8
0
  6
CONTINUOUS
 62
     7
 10
0
 20
0
 11
2.4143071
 21
2.0423322
  0
TEXT
  8
0
  6
CONTINUOUS
 62
     7
 10
11.406251
 20
14.253068
 40
3.2
 41
0.85127004
  1
２－Ｍ５
  0
LINE
  8
0
  6
CONTINUOUS
 62
     7
 10
0
 20
0
 11
8.1912356
 21
13.453059
  0
LINE
  8
0
  6
CONTINUOUS
 62
     7
 10
8.1912411
 20
13.453068
 11
25.120257
 21
13.453068
  0
ENDBLK
  8
0
  0
ENDSEC
  0
SECTION
  2
ENTITIES
  0
POINT
  8
0
  6
CONTINUOUS
 62
     7
 10
-176.8
 20
274.5
  0
POINT
  8
0
  6
CONTINUOUS
 62
     7
 10
-176.8
 20
0
  0
POINT
  8
0
  6
CONTINUOUS
 62
     7
 10
0
 20
0
  0
POINT
  8
0
  6
CONTINUOUS
 62
     7
 10
0
 20
274.5
  0
LINE
  8
0
  6
CONTINUOUS
 62
     7
 10
-34.302502
 20
137.48
 11
-34.302502
 21
110.68
  0
LINE
  8
0
  6
CONTINUOUS
 62
     7
 10
-64.302505
 20
107.48
 11
-37.502502
 21
107.48
  0
LINE
  8
0
  6
CONTINUOUS
 62
     7
 10
-64.302505
 20
110.68
 11
-37.502502
 21
110.68
  0
LINE
  8
0
  6
CONTINUOUS
 62
     7
 10
-37.502502
 20
137.48
 11
-37.502502
 21
110.68
  0
LINE
  8
0
  6
CONTINUOUS
 62
     7
 10
-37.502502
 20
137.48
 11
-34.302502
 21
137.48
  0
LINE
  8
0
  6
CONTINUOUS
 62
     7
 10
-64.302505
 20
110.68
 11
-64.302505
 21
107.48
  0
LINE
  8
0
  6
CENTER
 62
     7
 10
-54.302502
 20
113.68
 11
-54.302502
 21
104.48
  0
LINE
  8
0
  6
CENTER
 62
     7
 10
-40.502502
 20
127.48
 11
-31.302502
 21
127.48
  0
LINE
  8
0
  6
DASHED
 62
     7
 10
-34.302502
 20
129.98
 11
-37.502502
 21
129.98
  0
LINE
  8
0
  6
DASHED
 62
     7
 10
-34.302502
 20
124.98
 11
-37.502502
 21
124.98
  0
LINE
  8
0
  6
DASHED
 62
     7
 10
-34.302502
 20
125.48
 11
-37.502502
 21
125.48
  0
LINE
  8
0
  6
DASHED
 62
     7
 10
-34.302502
 20
129.48
 11
-37.502502
 21
129.48
  0
LINE
  8
0
  6
DASHED
 62
     7
 10
-60.302502
 20
110.68
 11
-60.302502
 21
107.48
  0
LINE
  8
0
  6
DASHED
 62
     7
 10
-48.302502
 20
110.68
 11
-48.302502
 21
107.48
  0
LINE
  8
0
  6
CONTINUOUS
 62
     7
 10
-141.80251
 20
107.48
 11
-101.80251
 21
107.48
  0
LINE
  8
0
  6
CONTINUOUS
 62
     7
 10
-131.80251
 20
137.48
 11
-111.80251
 21
137.48
  0
LINE
  8
0
  6
CONTINUOUS
 62
     7
 10
-141.80251
 20
127.48
 11
-141.80251
 21
107.48
  0
LINE
  8
0
  6
CONTINUOUS
 62
     7
 10
-101.80251
 20
127.48
 11
-101.80251
 21
107.48
  0
LINE
  8
0
  6
CENTER
 62
     7
 10
-121.80251
 20
140.90996
 11
-121.80251
 21
104.68344
  0
LINE
  8
0
  6
CONTINUOUS
 62
     7
 10
-141.8025
 20
127.48
 11
-131.8025
 21
137.48
  0
LINE
  8
0
  6
CONTINUOUS
 62
     7
 10
-111.8025
 20
137.48
 11
-101.8025
 21
127.48
  0
LINE
  8
0
  6
CONTINUOUS
 62
     7
 10
-141.80251
 20
110.68
 11
-101.80251
 21
110.68
  0
LINE
  8
0
  6
CENTER
 62
     7
 10
-129.30251
 20
132.02
 11
-129.30251
 21
122.94
  0
LINE
  8
0
  6
CENTER
 62
     7
 10
-133.8425
 20
127.48
 11
-124.7625
 21
127.48
  0
LINE
  8
0
  6
CENTER
 62
     7
 10
-114.30251
 20
132.02
 11
-114.30251
 21
122.94
  0
LINE
  8
0
  6
CENTER
 62
     7
 10
-109.7625
 20
127.48
 11
-118.8425
 21
127.48
  0
LINE
  8
0
  6
DASHED
 62
     7
 10
-115.80251
 20
110.68
 11
-115.80251
 21
107.48
  0
LINE
  8
0
  6
DASHED
 62
     7
 10
-127.80251
 20
110.68
 11
-127.80251
 21
107.48
  0
LINE
  8
0
  6
CONTINUOUS
 62
     7
 10
-141.80251
 20
215.5
 11
-141.80251
 21
185.5
  0
LINE
  8
0
  6
CONTINUOUS
 62
     7
 10
-101.80251
 20
215.5
 11
-101.80251
 21
185.5
  0
LINE
  8
0
  6
CONTINUOUS
 62
     7
 10
-141.80251
 20
185.5
 11
-101.80251
 21
185.5
  0
LINE
  8
0
  6
CONTINUOUS
 62
     7
 10
-141.80251
 20
215.5
 11
-101.80251
 21
215.5
  0
LINE
  8
0
  6
CENTER
 62
     7
 10
-121.80251
 20
218.18047
 11
-121.80251
 21
182.80167
  0
LINE
  8
0
  6
CONTINUOUS
 62
     7
 10
-141.80251
 20
212.3
 11
-101.80251
 21
212.3
  0
LINE
  8
0
  6
CENTER
 62
     7
 10
-131.80251
 20
198.5
 11
-111.80251
 21
198.5
  0
LINE
  8
0
  6
CENTER
 62
     7
 10
-129.30251
 20
217.5
 11
-129.30251
 21
210.3
  0
LINE
  8
0
  6
CENTER
 62
     7
 10
-114.30251
 20
217.5
 11
-114.30251
 21
210.3
  0
LINE
  8
0
  6
CONTINUOUS
 62
     7
 10
-131.80251
 20
215.5
 11
-131.80251
 21
212.3
  0
LINE
  8
0
  6
CONTINUOUS
 62
     7
 10
-111.80251
 20
215.5
 11
-111.80251
 21
212.3
  0
LINE
  8
0
  6
CONTINUOUS
 62
     7
 10
-176.8
 20
0
 11
0
 21
0
  0
LINE
  8
0
  6
CONTINUOUS
 62
     7
 10
0
 20
274.5
 11
0
 21
0
  0
LINE
  8
0
  6
CONTINUOUS
 62
     7
 10
-176.8
 20
274.5
 11
-176.8
 21
0
  0
LINE
  8
0
  6
CONTINUOUS
 62
     7
 10
-176.8
 20
274.5
 11
0
 21
274.5
  0
LINE
  8
0
  6
CONTINUOUS
 62
     7
 10
-176.60001
 20
0.2
 11
0
 21
0.2
  0
LINE
  8
0
  6
CONTINUOUS
 62
     7
 10
-176.60001
 20
274.5
 11
-176.60001
 21
0.2
  0
LINE
  8
0
  6
CONTINUOUS
 62
     7
 10
-0.2
 20
274.29999
 11
-0.2
 21
0
  0
LINE
  8
0
  6
CONTINUOUS
 62
     7
 10
-176.8
 20
274.29999
 11
-0.2
 21
274.29999
  0
LINE
  8
0
  6
CONTINUOUS
 62
     7
 10
-61.799999
 20
38.700001
 11
-61.799999
 21
0
  0
LINE
  8
0
  6
CONTINUOUS
 62
     7
 10
-61.799999
 20
12.7
 11
0
 21
12.7
  0
LINE
  8
0
  6
CONTINUOUS
 62
     7
 10
-61.799999
 20
25.200001
 11
0
 21
25.200001
  0
LINE
  8
0
  6
CONTINUOUS
 62
     7
 10
-61.799999
 20
38.700001
 11
0
 21
38.700001
  0
ARC
  8
0
  6
CONTINUOUS
 62
     7
 10
-37.502502
 20
110.68
 40
3.2
 50
270
 51
360
  0
CIRCLE
  8
0
  6
CONTINUOUS
 62
     7
 10
-129.30251
 20
127.48
 40
2.5
  0
CIRCLE
  8
0
  6
CONTINUOUS
 62
     7
 10
-129.30251
 20
127.48
 40
2
  0
CIRCLE
  8
0
  6
CONTINUOUS
 62
     7
 10
-114.30251
 20
127.48
 40
2.5
  0
CIRCLE
  8
0
  6
CONTINUOUS
 62
     7
 10
-114.30251
 20
127.48
 40
2
  0
CIRCLE
  8
0
  6
CONTINUOUS
 62
     7
 10
-121.80251
 20
198.5
 40
6
  0
TEXT
  8
0
  6
CONTINUOUS
 62
     7
 10
-49.660438
 20
31.840032
 40
4.8000002
 41
0.84556534
  1
吸着角度調整金具
  0
TEXT
  8
0
  6
CONTINUOUS
 62
     7
 10
-43.953795
 20
26.596878
 40
3.2
 41
0.84556531
  1
（スモール）上側
  0
TEXT
  8
0
  6
CONTINUOUS
 62
     7
 10
-44.782962
 20
16.422243
 40
4.8000002
 41
0.84741096
  1
ＣＰ－０１９
  0
TEXT
  8
0
  6
CONTINUOUS
 62
     7
 10
-44.550532
 20
3.4836946
 40
4.8000002
 41
0.84741096
  1
３７０６９８
  0
INSERT
  8
0
  6
CONTINUOUS
 62
     7
  2
KOZU0001
 10
-113.00237
 20
129.61532
  0
ENDSEC
  0
EOF
