  0
SECTION
  2
HEADER
  9
$EXTMAX
 10
1.2182922
 20
274.528
 30
0
  9
$EXTMIN
 10
-177.2301
 20
-1.0560455
 30
0
  9
$LIMMAX
 10
1.2182922
 20
274.528
  9
$LIMMIN
 10
-177.2301
 20
-1.0560455
  9
$PLIMMAX
 10
1.2182922
 20
274.528
  9
$PLIMMIN
 10
-177.2301
 20
-1.0560455
  9
$PEXTMAX
 10
1.2182922
 20
274.528
 30
0
  9
$PEXTMIN
 10
-177.2301
 20
-1.0560455
 30
0
  9
$TEXTSIZE
 40
3.2
  9
$DIMSHO
 70
     0
  9
$DIMASZ
 40
1.0
  9
$DIMTAD
 70
     1
  9
$DIMTIH
 70
     0
  9
$DIMTOH
 70
     0
  9
$DIMEXE
 40
2.54
  9
$DIMEXO
 40
2.54
  9
$DIMTVP
 40
1.0
  9
$DIMSAH
 70
     1
  9
$DIMDLE
 40
0.0
  9
$DIMTXT
 40
3.2
  9
$DIMGAP
 40
1.6
  0
ENDSEC
  0
SECTION
  2
TABLES
  0
TABLE
  2
LTYPE
 70
     39
  0
LTYPE
  2
CONTINUOUS
 70
    64
  3
Solid line
 72
    65
 73
     0
 40
0.0
  0
LTYPE
  2
ACAD_ISO02W100
 70
     0
  3
ISO dash __ __ __ __ __ __ __ __ __ __ __ __ __
 72
    65
 73
     2
 40
15.0
 49
12.0
 49
-3.0
  0
LTYPE
  2
ACAD_ISO03W100
 70
     0
  3
ISO dash space __    __    __    __    __    __
 72
    65
 73
     2
 40
30.0
 49
12.0
 49
-18.0
  0
LTYPE
  2
ACAD_ISO04W100
 70
     0
  3
ISO long-dash dot ____ . ____ . ____ . ____ . _
 72
    65
 73
     4
 40
30.0
 49
24.0
 49
-3.0
 49
0.0
 49
-3.0
  0
LTYPE
  2
ACAD_ISO05W100
 70
     0
  3
ISO long-dash double-dot ____ .. ____ .. ____ .
 72
    65
 73
     6
 40
33.0
 49
24.0
 49
-3.0
 49
0.0
 49
-3.0
 49
0.0
 49
-3.0
  0
LTYPE
  2
ACAD_ISO06W100
 70
     0
  3
ISO long-dash triple-dot ____ ... ____ ... ____
 72
    65
 73
     8
 40
36.0
 49
24.0
 49
-3.0
 49
0.0
 49
-3.0
 49
0.0
 49
-3.0
 49
0.0
 49
-3.0
  0
LTYPE
  2
ACAD_ISO07W100
 70
     0
  3
ISO dot . . . . . . . . . . . . . . . . . . . .
 72
    65
 73
     2
 40
3.0
 49
0.0
 49
-3.0
  0
LTYPE
  2
ACAD_ISO08W100
 70
     0
  3
ISO long-dash short-dash ____ __ ____ __ ____ _
 72
    65
 73
     4
 40
36.0
 49
24.0
 49
-3.0
 49
6.0
 49
-3.0
  0
LTYPE
  2
ACAD_ISO09W100
 70
     0
  3
ISO long-dash double-short-dash ____ __ __ ____
 72
    65
 73
     6
 40
45.0
 49
24.0
 49
-3.0
 49
6.0
 49
-3.0
 49
6.0
 49
-3.0
  0
LTYPE
  2
ACAD_ISO10W100
 70
     0
  3
ISO dash dot __ . __ . __ . __ . __ . __ . __ .
 72
    65
 73
     4
 40
18.0
 49
12.0
 49
-3.0
 49
0.0
 49
-3.0
  0
LTYPE
  2
ACAD_ISO11W100
 70
     0
  3
ISO double-dash dot __ __ . __ __ . __ __ . __ 
 72
    65
 73
     6
 40
33.0
 49
12.0
 49
-3.0
 49
12.0
 49
-3.0
 49
0.0
 49
-3.0
  0
LTYPE
  2
ACAD_ISO12W100
 70
     0
  3
ISO dash double-dot __ . . __ . . __ . . __ . .
 72
    65
 73
     6
 40
21.0
 49
12.0
 49
-3.0
 49
0.0
 49
-3.0
 49
0.0
 49
-3.0
  0
LTYPE
  2
ACAD_ISO13W100
 70
     0
  3
ISO double-dash double-dot __ __ . . __ __ . . 
 72
    65
 73
     8
 40
36.0
 49
12.0
 49
-3.0
 49
12.0
 49
-3.0
 49
0.0
 49
-3.0
 49
0.0
 49
-3.0
  0
LTYPE
  2
ACAD_ISO14W100
 70
     0
  3
ISO dash triple-dot __ . . . __ . . . __ . . . 
 72
    65
 73
     8
 40
24.0
 49
12.0
 49
-3.0
 49
0.0
 49
-3.0
 49
0.0
 49
-3.0
 49
0.0
 49
-3.0
  0
LTYPE
  2
ACAD_ISO15W100
 70
     0
  3
ISO double-dash triple-dot __ __ . . . __ __ . 
 72
    65
 73
    10
 40
39.0
 49
12.0
 49
-3.0
 49
12.0
 49
-3.0
 49
0.0
 49
-3.0
 49
0.0
 49
-3.0
 49
0.0
 49
-3.0
  0
LTYPE
  2
BORDER
 70
    64
  3
Border __ __ . __ __ . __ __ . __ __ . __ __ .
 72
    65
 73
     6
 40
3.5
 49
1.0
 49
-0.5
 49
1.0
 49
-0.5
 49
0.0
 49
-0.5
  0
LTYPE
  2
BORDER2
 70
    64
  3
Border (.5x) __.__.__.__.__.__.__.__.__.__.__.
 72
    65
 73
     6
 40
1.75
 49
0.5
 49
-0.25
 49
0.5
 49
-0.25
 49
0.0
 49
-0.25
  0
LTYPE
  2
BORDERX2
 70
    64
  3
Border (2x) ____  ____  .  ____  ____  .  ___
 72
    65
 73
     6
 40
7.0
 49
2.0
 49
-1.0
 49
2.0
 49
-1.0
 49
0.0
 49
-1.0
  0
LTYPE
  2
CENTER
 70
    64
  3
Center ____ _ ____ _ ____ _ ____ _ ____ _ ____
 72
    65
 73
     4
 40
12.0
 49
7.5
 49
-1.5
 49
1.5
 49
-1.5
  0
LTYPE
  2
CENTER2
 70
    64
  3
Center (.5x) ___ _ ___ _ ___ _ ___ _ ___ _ ___
 72
    65
 73
     4
 40
6.0
 49
3.75
 49
-0.75
 49
0.75
 49
-0.75
  0
LTYPE
  2
CENTERX2
 70
    64
  3
Center (2x) ________  __  ________  __  _____
 72
    65
 73
     4
 40
24.0
 49
15.0
 49
-3.0
 49
3.0
 49
-3.0
  0
LTYPE
  2
DASHDOT
 70
    64
  3
Dash dot __ . __ . __ . __ . __ . __ . __ . __
 72
    65
 73
     4
 40
6.0
 49
3.0
 49
-1.5
 49
0.0
 49
-1.5
  0
LTYPE
  2
DASHDOT2
 70
    64
  3
Dash dot (.5x) _._._._._._._._._._._._._._._.
 72
    65
 73
     4
 40
3.0
 49
1.5
 49
-0.75
 49
0.0
 49
-0.75
  0
LTYPE
  2
DASHDOTX2
 70
    64
  3
Dash dot (2x) ____  .  ____  .  ____  .  ___
 72
    65
 73
     4
 40
12.0
 49
6.0
 49
-3.0
 49
0.0
 49
-3.0
  0
LTYPE
  2
DASHED
 70
    64
  3
Dashed __ __ __ __ __ __ __ __ __ __ __ __ __ _
 72
    65
 73
     2
 40
4.5
 49
3.0
 49
-1.5
  0
LTYPE
  2
DASHED2
 70
    64
  3
Dashed (.5x) _ _ _ _ _ _ _ _ _ _ _ _ _ _ _ _ _
 72
    65
 73
     2
 40
2.25
 49
1.5
 49
-0.75
  0
LTYPE
  2
DASHEDX2
 70
    64
  3
Dashed (2x) ____  ____  ____  ____  ____  ___
 72
    65
 73
     2
 40
9.0
 49
6.0
 49
-3.0
  0
LTYPE
  2
DIVIDE
 70
    64
  3
Divide ____ . . ____ . . ____ . . ____ . . ____
 72
    65
 73
     6
 40
7.5
 49
3.0
 49
-1.5
 49
0.0
 49
-1.5
 49
0.0
 49
-1.5
  0
LTYPE
  2
DIVIDE2
 70
    64
  3
Divide (.5x) __..__..__..__..__..__..__..__.._
 72
    65
 73
     6
 40
3.75
 49
1.5
 49
-0.75
 49
0.0
 49
-0.75
 49
0.0
 49
-0.75
  0
LTYPE
  2
DIVIDEX2
 70
    64
  3
Divide (2x) ________  .  .  ________  .  .  _
 72
    65
 73
     6
 40
15.0
 49
6.0
 49
-3.0
 49
0.0
 49
-3.0
 49
0.0
 49
-3.0
  0
LTYPE
  2
DOT
 70
    64
  3
Dot . . . . . . . . . . . . . . . . . . . . . .
 72
    65
 73
     2
 40
1.5
 49
0.0
 49
-1.5
  0
LTYPE
  2
DOT2
 70
    64
  3
Dot (.5x) .....................................
 72
    65
 73
     2
 40
0.75
 49
0.0
 49
-0.75
  0
LTYPE
  2
DOTX2
 70
    64
  3
Dot (2x) .  .  .  .  .  .  .  .  .  .  .  .  . 
 72
    65
 73
     2
 40
3.0
 49
0.0
 49
-3.0
  0
LTYPE
  2
HIDDEN
 70
    64
  3
Hidden __ __ __ __ __ __ __ __ __ __ __ __ __ _
 72
    65
 73
     2
 40
4.5
 49
3.0
 49
-1.5
  0
LTYPE
  2
HIDDEN2
 70
    64
  3
Hidden (.5x) _ _ _ _ _ _ _ _ _ _ _ _ _ _ _ _ _
 72
    65
 73
     2
 40
2.25
 49
1.5
 49
-0.75
  0
LTYPE
  2
HIDDENX2
 70
    64
  3
Hidden (2x) ____ ____ ____ ____ ____ ____ ____
 72
    65
 73
     2
 40
9.0
 49
6.0
 49
-3.0
  0
LTYPE
  2
PHANTOM
 70
    64
  3
Phantom ______  __  __  ______  __  __  ______
 72
    65
 73
     6
 40
15.0
 49
7.5
 49
-1.5
 49
1.5
 49
-1.5
 49
1.5
 49
-1.5
  0
LTYPE
  2
PHANTOM2
 70
    64
  3
Phantom (.5x) ___ _ _ ___ _ _ ___ _ _ ___ _ _
 72
    65
 73
     6
 40
7.5
 49
3.75
 49
-0.75
 49
0.75
 49
-0.75
 49
0.75
 49
-0.75
  0
LTYPE
  2
PHANTOMX2
 70
    64
  3
Phantom (2x) ____________    ____    ____   _
 72
    65
 73
     6
 40
30.0
 49
15.0
 49
-3.0
 49
3.0
 49
-3.0
 49
3.0
 49
-3.0
  0
ENDTAB
  0
TABLE
  2
LAYER
 70
     1
  0
LAYER
  2
0
 70
     0
 62
     7
  6
CONTINUOUS
  0
ENDTAB
  0
TABLE
  2
STYLE
 70
     1
  0
STYLE
  2
STANDARD
 70
     0
 40
0.0
 41
1.0
 50
0.0
 71
     0
 42
0.2
  3
txt
  4
BIGFONT
  0
ENDTAB
  0
TABLE
  2
DIMSTYLE
 70
     0
  0
ENDTAB
  0
ENDSEC
  0
SECTION
  2
BLOCKS
  0
BLOCK
  8
0
  2
KOZU0001
 70
    64
 10
0
 20
0
  0
LINE
  8
0
  6
CONTINUOUS
 62
     7
 10
0
 20
0
 11
8.2733054
 21
11.865193
  0
LINE
  8
0
  6
CONTINUOUS
 62
     7
 10
0
 20
0
 11
0.89560348
 21
3.032803
  0
LINE
  8
0
  6
CONTINUOUS
 62
     7
 10
0
 20
0
 11
2.5361646
 21
1.8888803
  0
TEXT
  8
0
  6
CONTINUOUS
 62
     7
 10
10.467689
 20
12.665188
 40
3.2
 41
0.84892706
  1
Ｍ４深１２
  0
LINE
  8
0
  6
CONTINUOUS
 62
     7
 10
0
 20
0
 11
8.2733054
 21
11.865193
  0
LINE
  8
0
  6
CONTINUOUS
 62
     7
 10
8.2733016
 20
11.865188
 11
27.381692
 21
11.865188
  0
ENDBLK
  8
0
  0
BLOCK
  8
0
  2
KOZU0002
 70
    64
 10
0
 20
0
  0
LINE
  8
0
  6
CONTINUOUS
 62
     7
 10
0
 20
0
 11
6.4019607
 21
10.289323
  0
LINE
  8
0
  6
CONTINUOUS
 62
     7
 10
0
 20
0
 11
0.73578773
 21
3.0754863
  0
LINE
  8
0
  6
CONTINUOUS
 62
     7
 10
0
 20
0
 11
2.433922
 21
2.0189164
  0
TEXT
  8
0
  6
CONTINUOUS
 62
     7
 10
9.7782551
 20
11.08932
 40
3.2
 41
0.86439074
  1
Ｍ４
  0
LINE
  8
0
  6
CONTINUOUS
 62
     7
 10
0
 20
0
 11
6.4019607
 21
10.289323
  0
LINE
  8
0
  6
CONTINUOUS
 62
     7
 10
6.4019596
 20
10.28932
 11
17.09226
 21
10.28932
  0
ENDBLK
  8
0
  0
ENDSEC
  0
SECTION
  2
ENTITIES
  0
LINE
  8
0
  6
DASHED
 62
     7
 10
-125.66514
 20
152.38185
 11
-126.66515
 21
150.88185
  0
LINE
  8
0
  6
CENTER
 62
     7
 10
-78.799316
 20
152.38185
 11
-144.08508
 21
152.38185
  0
LINE
  8
0
  6
CONTINUOUS
 62
     7
 10
-138.66515
 20
156.38185
 11
-138.66515
 21
148.38185
  0
LINE
  8
0
  6
CONTINUOUS
 62
     7
 10
-83.665146
 20
153.88185
 11
-83.665146
 21
150.88185
  0
LINE
  8
0
  6
CONTINUOUS
 62
     7
 10
-93.665146
 20
156.38185
 11
-93.665146
 21
148.38185
  0
LINE
  8
0
  6
CONTINUOUS
 62
     7
 10
-93.665146
 20
148.38185
 11
-138.66515
 21
148.38185
  0
LINE
  8
0
  6
CONTINUOUS
 62
     7
 10
-93.665146
 20
156.38185
 11
-138.66515
 21
156.38185
  0
LINE
  8
0
  6
CONTINUOUS
 62
     7
 10
-84.165146
 20
150.38185
 11
-92.665146
 21
150.38185
  0
LINE
  8
0
  6
CONTINUOUS
 62
     7
 10
-84.165146
 20
154.38185
 11
-92.665146
 21
154.38185
  0
LINE
  8
0
  6
CONTINUOUS
 62
     7
 10
-84.165155
 20
154.38185
 11
-83.665155
 21
153.88185
  0
LINE
  8
0
  6
CONTINUOUS
 62
     7
 10
-83.665148
 20
150.88185
 11
-84.165149
 21
150.38185
  0
LINE
  8
0
  6
CONTINUOUS
 62
     7
 10
-84.165146
 20
154.38185
 11
-84.165146
 21
150.38185
  0
LINE
  8
0
  6
CONTINUOUS
 62
     7
 10
-83.665146
 20
153.88185
 11
-92.665146
 21
153.88185
  0
LINE
  8
0
  6
CONTINUOUS
 62
     7
 10
-83.665146
 20
150.88185
 11
-92.665146
 21
150.88185
  0
LINE
  8
0
  6
DASHED
 62
     7
 10
-126.66515
 20
153.88185
 11
-126.66515
 21
150.88185
  0
LINE
  8
0
  6
DASHED
 62
     7
 10
-128.66515
 20
154.38185
 11
-138.66515
 21
154.38185
  0
LINE
  8
0
  6
DASHED
 62
     7
 10
-128.66515
 20
150.38185
 11
-138.66515
 21
150.38185
  0
LINE
  8
0
  6
DASHED
 62
     7
 10
-128.66515
 20
154.38185
 11
-128.66515
 21
150.38185
  0
LINE
  8
0
  6
DASHED
 62
     7
 10
-126.66515
 20
150.88185
 11
-138.66515
 21
150.88185
  0
LINE
  8
0
  6
DASHED
 62
     7
 10
-126.66515
 20
153.88185
 11
-138.66515
 21
153.88185
  0
LINE
  8
0
  6
DASHED
 62
     7
 10
-125.66516
 20
152.38185
 11
-126.66514
 21
153.88184
  0
LINE
  8
0
  6
CONTINUOUS
 62
     7
 10
-92.665146
 20
154.38185
 11
-92.665146
 21
150.38185
  0
LINE
  8
0
  6
CONTINUOUS
 62
     7
 10
-92.665146
 20
150.88185
 11
-93.665146
 21
150.88185
  0
LINE
  8
0
  6
CONTINUOUS
 62
     7
 10
-92.665146
 20
153.88185
 11
-93.665146
 21
153.88185
  0
LINE
  8
0
  6
CENTER
 62
     7
 10
-44.72514
 20
152.38185
 11
-57.805141
 21
152.38185
  0
LINE
  8
0
  6
CENTER
 62
     7
 10
-51.265141
 20
158.92184
 11
-51.265141
 21
145.84186
  0
LINE
  8
0
  6
CONTINUOUS
 62
     7
 10
-177
 20
-0.19999981
 11
0
 21
-0.19999981
  0
LINE
  8
0
  6
CONTINUOUS
 62
     7
 10
-177
 20
274.29999
 11
-177
 21
-0.19999981
  0
LINE
  8
0
  6
CONTINUOUS
 62
     7
 10
-177
 20
-0.39999962
 11
-1.6000032
 21
-0.39999962
  0
LINE
  8
0
  6
CONTINUOUS
 62
     7
 10
-177.2
 20
274.29999
 11
-177.2
 21
-0.19999981
  0
LINE
  8
0
  6
CONTINUOUS
 62
     7
 10
0
 20
274.29999
 11
0
 21
0
  0
LINE
  8
0
  6
CONTINUOUS
 62
     7
 10
-0.20000005
 20
274.29999
 11
-0.20000005
 21
0
  0
LINE
  8
0
  6
CONTINUOUS
 62
     7
 10
-177
 20
274.29999
 11
0
 21
274.29999
  0
LINE
  8
0
  6
CONTINUOUS
 62
     7
 10
-177
 20
274.5
 11
0
 21
274.5
  0
LINE
  8
0
  6
CONTINUOUS
 62
     7
 10
-61.799999
 20
38.299999
 11
-61.799999
 21
0
  0
LINE
  8
0
  6
CONTINUOUS
 62
     7
 10
-61.799999
 20
12.3
 11
0
 21
12.3
  0
LINE
  8
0
  6
CONTINUOUS
 62
     7
 10
-61.799999
 20
24.799999
 11
0
 21
24.799999
  0
LINE
  8
0
  6
CONTINUOUS
 62
     7
 10
-61.799999
 20
38.299999
 11
0
 21
38.299999
  0
CIRCLE
  8
0
  6
CONTINUOUS
 62
     7
 10
-51.265141
 20
152.38185
 40
1.5
  0
CIRCLE
  8
0
  6
CONTINUOUS
 62
     7
 10
-51.265141
 20
152.38185
 40
4
  0
CIRCLE
  8
0
  6
CONTINUOUS
 62
     7
 10
-51.265141
 20
152.38185
 40
2
  0
TEXT
  8
0
  6
CONTINUOUS
 62
     7
 10
-55.67297
 20
32.055082
 40
4.8000002
 41
0.84448342
  1
ミニシリンダー延長軸
  0
TEXT
  8
0
  6
CONTINUOUS
 62
     7
 10
-42.29556
 20
26.678824
 40
3.2
 41
0.84741093
  1
（４５ｍｍ）
  0
TEXT
  8
0
  6
CONTINUOUS
 62
     7
 10
-44.92595
 20
15.290954
 40
4.8000002
 41
0.84741096
  1
ＣＰ－０３４
  0
TEXT
  8
0
  6
CONTINUOUS
 62
     7
 10
-45.631808
 20
2.7619743
 40
4.8000002
 41
0.84741096
  1
３７０７１１
  0
INSERT
  8
0
  6
CONTINUOUS
 62
     7
  2
KOZU0001
 10
-133.33615
 20
154.38185
  0
INSERT
  8
0
  6
CONTINUOUS
 62
     7
  2
KOZU0002
 10
-89.211866
 20
154.38185
  0
ENDSEC
  0
EOF
