  0
SECTION
  2
HEADER
  9
$EXTMAX
 10
1.2182922
 20
274.528
 30
0
  9
$EXTMIN
 10
-177.2301
 20
-1.0560455
 30
0
  9
$LIMMAX
 10
1.2182922
 20
274.528
  9
$LIMMIN
 10
-177.2301
 20
-1.0560455
  9
$PLIMMAX
 10
1.2182922
 20
274.528
  9
$PLIMMIN
 10
-177.2301
 20
-1.0560455
  9
$PEXTMAX
 10
1.2182922
 20
274.528
 30
0
  9
$PEXTMIN
 10
-177.2301
 20
-1.0560455
 30
0
  9
$TEXTSIZE
 40
3.2
  9
$DIMSHO
 70
     0
  9
$DIMASZ
 40
1.0
  9
$DIMTAD
 70
     1
  9
$DIMTIH
 70
     0
  9
$DIMTOH
 70
     0
  9
$DIMEXE
 40
2.54
  9
$DIMEXO
 40
2.54
  9
$DIMTVP
 40
1.0
  9
$DIMSAH
 70
     1
  9
$DIMDLE
 40
0.0
  9
$DIMTXT
 40
3.2
  9
$DIMGAP
 40
1.6
  0
ENDSEC
  0
SECTION
  2
TABLES
  0
TABLE
  2
LTYPE
 70
     39
  0
LTYPE
  2
CONTINUOUS
 70
    64
  3
Solid line
 72
    65
 73
     0
 40
0.0
  0
LTYPE
  2
ACAD_ISO02W100
 70
     0
  3
ISO dash __ __ __ __ __ __ __ __ __ __ __ __ __
 72
    65
 73
     2
 40
15.0
 49
12.0
 49
-3.0
  0
LTYPE
  2
ACAD_ISO03W100
 70
     0
  3
ISO dash space __    __    __    __    __    __
 72
    65
 73
     2
 40
30.0
 49
12.0
 49
-18.0
  0
LTYPE
  2
ACAD_ISO04W100
 70
     0
  3
ISO long-dash dot ____ . ____ . ____ . ____ . _
 72
    65
 73
     4
 40
30.0
 49
24.0
 49
-3.0
 49
0.0
 49
-3.0
  0
LTYPE
  2
ACAD_ISO05W100
 70
     0
  3
ISO long-dash double-dot ____ .. ____ .. ____ .
 72
    65
 73
     6
 40
33.0
 49
24.0
 49
-3.0
 49
0.0
 49
-3.0
 49
0.0
 49
-3.0
  0
LTYPE
  2
ACAD_ISO06W100
 70
     0
  3
ISO long-dash triple-dot ____ ... ____ ... ____
 72
    65
 73
     8
 40
36.0
 49
24.0
 49
-3.0
 49
0.0
 49
-3.0
 49
0.0
 49
-3.0
 49
0.0
 49
-3.0
  0
LTYPE
  2
ACAD_ISO07W100
 70
     0
  3
ISO dot . . . . . . . . . . . . . . . . . . . .
 72
    65
 73
     2
 40
3.0
 49
0.0
 49
-3.0
  0
LTYPE
  2
ACAD_ISO08W100
 70
     0
  3
ISO long-dash short-dash ____ __ ____ __ ____ _
 72
    65
 73
     4
 40
36.0
 49
24.0
 49
-3.0
 49
6.0
 49
-3.0
  0
LTYPE
  2
ACAD_ISO09W100
 70
     0
  3
ISO long-dash double-short-dash ____ __ __ ____
 72
    65
 73
     6
 40
45.0
 49
24.0
 49
-3.0
 49
6.0
 49
-3.0
 49
6.0
 49
-3.0
  0
LTYPE
  2
ACAD_ISO10W100
 70
     0
  3
ISO dash dot __ . __ . __ . __ . __ . __ . __ .
 72
    65
 73
     4
 40
18.0
 49
12.0
 49
-3.0
 49
0.0
 49
-3.0
  0
LTYPE
  2
ACAD_ISO11W100
 70
     0
  3
ISO double-dash dot __ __ . __ __ . __ __ . __ 
 72
    65
 73
     6
 40
33.0
 49
12.0
 49
-3.0
 49
12.0
 49
-3.0
 49
0.0
 49
-3.0
  0
LTYPE
  2
ACAD_ISO12W100
 70
     0
  3
ISO dash double-dot __ . . __ . . __ . . __ . .
 72
    65
 73
     6
 40
21.0
 49
12.0
 49
-3.0
 49
0.0
 49
-3.0
 49
0.0
 49
-3.0
  0
LTYPE
  2
ACAD_ISO13W100
 70
     0
  3
ISO double-dash double-dot __ __ . . __ __ . . 
 72
    65
 73
     8
 40
36.0
 49
12.0
 49
-3.0
 49
12.0
 49
-3.0
 49
0.0
 49
-3.0
 49
0.0
 49
-3.0
  0
LTYPE
  2
ACAD_ISO14W100
 70
     0
  3
ISO dash triple-dot __ . . . __ . . . __ . . . 
 72
    65
 73
     8
 40
24.0
 49
12.0
 49
-3.0
 49
0.0
 49
-3.0
 49
0.0
 49
-3.0
 49
0.0
 49
-3.0
  0
LTYPE
  2
ACAD_ISO15W100
 70
     0
  3
ISO double-dash triple-dot __ __ . . . __ __ . 
 72
    65
 73
    10
 40
39.0
 49
12.0
 49
-3.0
 49
12.0
 49
-3.0
 49
0.0
 49
-3.0
 49
0.0
 49
-3.0
 49
0.0
 49
-3.0
  0
LTYPE
  2
BORDER
 70
    64
  3
Border __ __ . __ __ . __ __ . __ __ . __ __ .
 72
    65
 73
     6
 40
3.5
 49
1.0
 49
-0.5
 49
1.0
 49
-0.5
 49
0.0
 49
-0.5
  0
LTYPE
  2
BORDER2
 70
    64
  3
Border (.5x) __.__.__.__.__.__.__.__.__.__.__.
 72
    65
 73
     6
 40
1.75
 49
0.5
 49
-0.25
 49
0.5
 49
-0.25
 49
0.0
 49
-0.25
  0
LTYPE
  2
BORDERX2
 70
    64
  3
Border (2x) ____  ____  .  ____  ____  .  ___
 72
    65
 73
     6
 40
7.0
 49
2.0
 49
-1.0
 49
2.0
 49
-1.0
 49
0.0
 49
-1.0
  0
LTYPE
  2
CENTER
 70
    64
  3
Center ____ _ ____ _ ____ _ ____ _ ____ _ ____
 72
    65
 73
     4
 40
12.0
 49
7.5
 49
-1.5
 49
1.5
 49
-1.5
  0
LTYPE
  2
CENTER2
 70
    64
  3
Center (.5x) ___ _ ___ _ ___ _ ___ _ ___ _ ___
 72
    65
 73
     4
 40
6.0
 49
3.75
 49
-0.75
 49
0.75
 49
-0.75
  0
LTYPE
  2
CENTERX2
 70
    64
  3
Center (2x) ________  __  ________  __  _____
 72
    65
 73
     4
 40
24.0
 49
15.0
 49
-3.0
 49
3.0
 49
-3.0
  0
LTYPE
  2
DASHDOT
 70
    64
  3
Dash dot __ . __ . __ . __ . __ . __ . __ . __
 72
    65
 73
     4
 40
6.0
 49
3.0
 49
-1.5
 49
0.0
 49
-1.5
  0
LTYPE
  2
DASHDOT2
 70
    64
  3
Dash dot (.5x) _._._._._._._._._._._._._._._.
 72
    65
 73
     4
 40
3.0
 49
1.5
 49
-0.75
 49
0.0
 49
-0.75
  0
LTYPE
  2
DASHDOTX2
 70
    64
  3
Dash dot (2x) ____  .  ____  .  ____  .  ___
 72
    65
 73
     4
 40
12.0
 49
6.0
 49
-3.0
 49
0.0
 49
-3.0
  0
LTYPE
  2
DASHED
 70
    64
  3
Dashed __ __ __ __ __ __ __ __ __ __ __ __ __ _
 72
    65
 73
     2
 40
4.5
 49
3.0
 49
-1.5
  0
LTYPE
  2
DASHED2
 70
    64
  3
Dashed (.5x) _ _ _ _ _ _ _ _ _ _ _ _ _ _ _ _ _
 72
    65
 73
     2
 40
2.25
 49
1.5
 49
-0.75
  0
LTYPE
  2
DASHEDX2
 70
    64
  3
Dashed (2x) ____  ____  ____  ____  ____  ___
 72
    65
 73
     2
 40
9.0
 49
6.0
 49
-3.0
  0
LTYPE
  2
DIVIDE
 70
    64
  3
Divide ____ . . ____ . . ____ . . ____ . . ____
 72
    65
 73
     6
 40
7.5
 49
3.0
 49
-1.5
 49
0.0
 49
-1.5
 49
0.0
 49
-1.5
  0
LTYPE
  2
DIVIDE2
 70
    64
  3
Divide (.5x) __..__..__..__..__..__..__..__.._
 72
    65
 73
     6
 40
3.75
 49
1.5
 49
-0.75
 49
0.0
 49
-0.75
 49
0.0
 49
-0.75
  0
LTYPE
  2
DIVIDEX2
 70
    64
  3
Divide (2x) ________  .  .  ________  .  .  _
 72
    65
 73
     6
 40
15.0
 49
6.0
 49
-3.0
 49
0.0
 49
-3.0
 49
0.0
 49
-3.0
  0
LTYPE
  2
DOT
 70
    64
  3
Dot . . . . . . . . . . . . . . . . . . . . . .
 72
    65
 73
     2
 40
1.5
 49
0.0
 49
-1.5
  0
LTYPE
  2
DOT2
 70
    64
  3
Dot (.5x) .....................................
 72
    65
 73
     2
 40
0.75
 49
0.0
 49
-0.75
  0
LTYPE
  2
DOTX2
 70
    64
  3
Dot (2x) .  .  .  .  .  .  .  .  .  .  .  .  . 
 72
    65
 73
     2
 40
3.0
 49
0.0
 49
-3.0
  0
LTYPE
  2
HIDDEN
 70
    64
  3
Hidden __ __ __ __ __ __ __ __ __ __ __ __ __ _
 72
    65
 73
     2
 40
4.5
 49
3.0
 49
-1.5
  0
LTYPE
  2
HIDDEN2
 70
    64
  3
Hidden (.5x) _ _ _ _ _ _ _ _ _ _ _ _ _ _ _ _ _
 72
    65
 73
     2
 40
2.25
 49
1.5
 49
-0.75
  0
LTYPE
  2
HIDDENX2
 70
    64
  3
Hidden (2x) ____ ____ ____ ____ ____ ____ ____
 72
    65
 73
     2
 40
9.0
 49
6.0
 49
-3.0
  0
LTYPE
  2
PHANTOM
 70
    64
  3
Phantom ______  __  __  ______  __  __  ______
 72
    65
 73
     6
 40
15.0
 49
7.5
 49
-1.5
 49
1.5
 49
-1.5
 49
1.5
 49
-1.5
  0
LTYPE
  2
PHANTOM2
 70
    64
  3
Phantom (.5x) ___ _ _ ___ _ _ ___ _ _ ___ _ _
 72
    65
 73
     6
 40
7.5
 49
3.75
 49
-0.75
 49
0.75
 49
-0.75
 49
0.75
 49
-0.75
  0
LTYPE
  2
PHANTOMX2
 70
    64
  3
Phantom (2x) ____________    ____    ____   _
 72
    65
 73
     6
 40
30.0
 49
15.0
 49
-3.0
 49
3.0
 49
-3.0
 49
3.0
 49
-3.0
  0
ENDTAB
  0
TABLE
  2
LAYER
 70
     1
  0
LAYER
  2
0
 70
     0
 62
     7
  6
CONTINUOUS
  0
ENDTAB
  0
TABLE
  2
STYLE
 70
     1
  0
STYLE
  2
STANDARD
 70
     0
 40
0.0
 41
1.0
 50
0.0
 71
     0
 42
0.2
  3
txt
  4
BIGFONT
  0
ENDTAB
  0
TABLE
  2
DIMSTYLE
 70
     0
  0
ENDTAB
  0
ENDSEC
  0
SECTION
  2
BLOCKS
  0
BLOCK
  8
0
  2
KOZU0001
 70
    64
 10
0
 20
0
  0
LINE
  8
0
  6
CONTINUOUS
 62
     7
 10
0
 20
0
 11
-4.0159385
 21
8.3646345
  0
LINE
  8
0
  6
CONTINUOUS
 62
     7
 10
0
 20
0
 11
-2.199918
 21
2.2716427
  0
LINE
  8
0
  6
CONTINUOUS
 62
     7
 10
0
 20
0
 11
-0.39694873
 21
3.137265
  0
TEXT
  8
0
  6
CONTINUOUS
 62
     7
 10
-12.758564
 20
9.1646383
 40
3.2
 41
0.86439074
  1
Ｍ６
  0
LINE
  8
0
  6
CONTINUOUS
 62
     7
 10
0
 20
0
 11
-4.0159385
 21
8.3646345
  0
LINE
  8
0
  6
CONTINUOUS
 62
     7
 10
-4.0159353
 20
8.3646383
 11
-14.586568
 21
8.3646383
  0
ENDBLK
  8
0
  0
ENDSEC
  0
SECTION
  2
ENTITIES
  0
LINE
  8
0
  6
CONTINUOUS
 62
     7
 10
-102.19147
 20
120.70513
 11
-102.19147
 21
135.70512
  0
LINE
  8
0
  6
CONTINUOUS
 62
     7
 10
-104.69147
 20
135.70512
 11
-104.69147
 21
120.70513
  0
LINE
  8
0
  6
CONTINUOUS
 62
     7
 10
-104.69147
 20
131.20512
 11
-122.69147
 21
131.20512
  0
LINE
  8
0
  6
CONTINUOUS
 62
     7
 10
-123.19147
 20
130.70512
 11
-123.19147
 21
125.70513
  0
LINE
  8
0
  6
CONTINUOUS
 62
     7
 10
-122.69147
 20
125.20513
 11
-104.69147
 21
125.20513
  0
LINE
  8
0
  6
CENTER
 62
     7
 10
-124.36453
 20
128.20512
 11
-97.479721
 21
128.20512
  0
LINE
  8
0
  6
CONTINUOUS
 62
     7
 10
-112.19147
 20
131.20512
 11
-112.19147
 21
125.20513
  0
LINE
  8
0
  6
CONTINUOUS
 62
     7
 10
-112.19147
 20
130.70512
 11
-123.19147
 21
130.70512
  0
LINE
  8
0
  6
CONTINUOUS
 62
     7
 10
-123.19147
 20
125.70513
 11
-112.19147
 21
125.70513
  0
LINE
  8
0
  6
CONTINUOUS
 62
     7
 10
-112.19147
 20
130.70514
 11
-111.32545
 21
131.20514
  0
LINE
  8
0
  6
CONTINUOUS
 62
     7
 10
-112.19149
 20
125.70513
 11
-111.32545
 21
125.20513
  0
LINE
  8
0
  6
CONTINUOUS
 62
     7
 10
-122.69148
 20
131.20513
 11
-123.19148
 21
130.70513
  0
LINE
  8
0
  6
CONTINUOUS
 62
     7
 10
-123.19147
 20
125.70513
 11
-122.69147
 21
125.20513
  0
LINE
  8
0
  6
CONTINUOUS
 62
     7
 10
-122.69147
 20
125.20513
 11
-122.69147
 21
131.20512
  0
LINE
  8
0
  6
CONTINUOUS
 62
     7
 10
-104.69147
 20
159.20512
 11
-102.19147
 21
159.20512
  0
LINE
  8
0
  6
CONTINUOUS
 62
     7
 10
-102.19147
 20
159.20512
 11
-102.19147
 21
177.20512
  0
LINE
  8
0
  6
CONTINUOUS
 62
     7
 10
-102.19147
 20
177.20512
 11
-104.69147
 21
177.20512
  0
LINE
  8
0
  6
CONTINUOUS
 62
     7
 10
-104.69147
 20
177.20512
 11
-104.69147
 21
159.20512
  0
LINE
  8
0
  6
CONTINUOUS
 62
     7
 10
-104.69147
 20
171.20512
 11
-122.69147
 21
171.20512
  0
LINE
  8
0
  6
CONTINUOUS
 62
     7
 10
-123.19147
 20
170.70512
 11
-123.19147
 21
165.70512
  0
LINE
  8
0
  6
CONTINUOUS
 62
     7
 10
-122.69147
 20
165.20512
 11
-104.69147
 21
165.20512
  0
LINE
  8
0
  6
CENTER
 62
     7
 10
-124.36453
 20
168.20512
 11
-97.479721
 21
168.20512
  0
LINE
  8
0
  6
CONTINUOUS
 62
     7
 10
-104.69147
 20
173.18005
 11
-102.19147
 21
173.18005
  0
LINE
  8
0
  6
CONTINUOUS
 62
     7
 10
-102.19147
 20
163.23019
 11
-104.69147
 21
163.23019
  0
LINE
  8
0
  6
CONTINUOUS
 62
     7
 10
-104.69145
 20
163.23018
 11
-102.19147
 21
173.18002
  0
LINE
  8
0
  6
CONTINUOUS
 62
     7
 10
-104.6915
 20
173.18009
 11
-102.19148
 21
163.23019
  0
LINE
  8
0
  6
CONTINUOUS
 62
     7
 10
-112.19147
 20
171.20512
 11
-112.19147
 21
165.20512
  0
LINE
  8
0
  6
CONTINUOUS
 62
     7
 10
-112.19147
 20
170.70512
 11
-123.19147
 21
170.70512
  0
LINE
  8
0
  6
CONTINUOUS
 62
     7
 10
-123.19147
 20
165.70512
 11
-112.19147
 21
165.70512
  0
LINE
  8
0
  6
CONTINUOUS
 62
     7
 10
-112.19148
 20
170.70514
 11
-111.32545
 21
171.20514
  0
LINE
  8
0
  6
CONTINUOUS
 62
     7
 10
-112.19148
 20
165.70513
 11
-111.32545
 21
165.20513
  0
LINE
  8
0
  6
CONTINUOUS
 62
     7
 10
-122.69147
 20
171.20513
 11
-123.19147
 21
170.70512
  0
LINE
  8
0
  6
CONTINUOUS
 62
     7
 10
-123.19146
 20
165.70512
 11
-122.69146
 21
165.20512
  0
LINE
  8
0
  6
CONTINUOUS
 62
     7
 10
-122.69147
 20
165.20512
 11
-122.69147
 21
171.20512
  0
LINE
  8
0
  6
CONTINUOUS
 62
     7
 10
-52.211464
 20
163.23019
 11
-52.211464
 21
173.18005
  0
LINE
  8
0
  6
CONTINUOUS
 62
     7
 10
-67.211472
 20
163.23019
 11
-67.211472
 21
173.18005
  0
LINE
  8
0
  6
CENTER
 62
     7
 10
-71.19458
 20
168.20512
 11
-48.010246
 21
168.20512
  0
LINE
  8
0
  6
CENTER
 62
     7
 10
-59.711464
 20
157.05801
 11
-59.711464
 21
179.60542
  0
LINE
  8
0
  6
CONTINUOUS
 62
     7
 10
-104.69147
 20
120.70513
 11
-102.19147
 21
120.70513
  0
LINE
  8
0
  6
CONTINUOUS
 62
     7
 10
-104.69147
 20
135.70512
 11
-102.19147
 21
135.70512
  0
LINE
  8
0
  6
CONTINUOUS
 62
     7
 10
-61.800003
 20
38.5
 11
0
 21
38.5
  0
LINE
  8
0
  6
CONTINUOUS
 62
     7
 10
-61.800003
 20
12.5
 11
0
 21
12.5
  0
LINE
  8
0
  6
CONTINUOUS
 62
     7
 10
-61.800003
 20
25
 11
0
 21
25
  0
LINE
  8
0
  6
CONTINUOUS
 62
     7
 10
-61.800003
 20
38.5
 11
-61.800003
 21
0
  0
LINE
  8
0
  6
CONTINUOUS
 62
     7
 10
-177
 20
-0.19999981
 11
0
 21
-0.19999981
  0
LINE
  8
0
  6
CONTINUOUS
 62
     7
 10
-177
 20
274.29999
 11
-177
 21
-0.19999981
  0
LINE
  8
0
  6
CONTINUOUS
 62
     7
 10
-177
 20
-0.39999962
 11
-1.6000032
 21
-0.39999962
  0
LINE
  8
0
  6
CONTINUOUS
 62
     7
 10
-177.2
 20
274.29999
 11
-177.2
 21
-0.19999981
  0
LINE
  8
0
  6
CONTINUOUS
 62
     7
 10
0
 20
274.29999
 11
0
 21
0
  0
LINE
  8
0
  6
CONTINUOUS
 62
     7
 10
-0.20000005
 20
274.29999
 11
-0.20000005
 21
0
  0
LINE
  8
0
  6
CONTINUOUS
 62
     7
 10
-177
 20
274.29999
 11
0
 21
274.29999
  0
LINE
  8
0
  6
CONTINUOUS
 62
     7
 10
-177
 20
274.5
 11
0
 21
274.5
  0
LINE
  8
0
  6
CONTINUOUS
 62
     7
 10
-177.2
 20
274.29999
 11
-177.2
 21
-0.19999981
  0
CIRCLE
  8
0
  6
DASHED
 62
     7
 10
-59.711464
 20
168.20512
 40
4
  0
ARC
  8
0
  6
CONTINUOUS
 62
     7
 10
-59.711464
 20
168.20512
 40
9
 50
33.557269
 51
146.44275
  0
ARC
  8
0
  6
CONTINUOUS
 62
     7
 10
-59.711464
 20
168.20512
 40
9
 50
213.55725
 51
326.44273
  0
TEXT
  8
0
  6
CONTINUOUS
 62
     7
 10
-47.055406
 20
3.5250001
 40
5.25
 41
0.84770299
  1
３７０７３６
  0
TEXT
  8
0
  6
CONTINUOUS
 62
     7
 10
-49.600005
 20
16.125
 40
5.25
 41
0.73281501
  1
ＦＣＫ－１００５
  0
TEXT
  8
0
  6
CONTINUOUS
 62
     7
 10
-40.353059
 20
34.183112
 40
3.2
 41
0.84741093
  1
自在チャック
  0
TEXT
  8
0
  6
CONTINUOUS
 62
     7
 10
-52.475077
 20
26.512971
 40
4.8000002
 41
0.84496196
  1
締付ボルト（ミニ）
  0
INSERT
  8
0
  6
CONTINUOUS
 62
     7
  2
KOZU0001
 10
-116.4324
 20
171.20512
  0
ENDSEC
  0
EOF
