  0
SECTION
  2
HEADER
  9
$EXTMAX
 10
1.2182922
 20
274.528
 30
0
  9
$EXTMIN
 10
-177.2301
 20
-1.0560455
 30
0
  9
$LIMMAX
 10
1.2182922
 20
274.528
  9
$LIMMIN
 10
-177.2301
 20
-1.0560455
  9
$PLIMMAX
 10
1.2182922
 20
274.528
  9
$PLIMMIN
 10
-177.2301
 20
-1.0560455
  9
$PEXTMAX
 10
1.2182922
 20
274.528
 30
0
  9
$PEXTMIN
 10
-177.2301
 20
-1.0560455
 30
0
  9
$TEXTSIZE
 40
3.2
  9
$DIMSHO
 70
     0
  9
$DIMASZ
 40
1.0
  9
$DIMTAD
 70
     1
  9
$DIMTIH
 70
     0
  9
$DIMTOH
 70
     0
  9
$DIMEXE
 40
2.54
  9
$DIMEXO
 40
2.54
  9
$DIMTVP
 40
1.0
  9
$DIMSAH
 70
     1
  9
$DIMDLE
 40
0.0
  9
$DIMTXT
 40
3.2
  9
$DIMGAP
 40
1.6
  0
ENDSEC
  0
SECTION
  2
TABLES
  0
TABLE
  2
LTYPE
 70
     39
  0
LTYPE
  2
CONTINUOUS
 70
    64
  3
Solid line
 72
    65
 73
     0
 40
0.0
  0
LTYPE
  2
ACAD_ISO02W100
 70
     0
  3
ISO dash __ __ __ __ __ __ __ __ __ __ __ __ __
 72
    65
 73
     2
 40
15.0
 49
12.0
 49
-3.0
  0
LTYPE
  2
ACAD_ISO03W100
 70
     0
  3
ISO dash space __    __    __    __    __    __
 72
    65
 73
     2
 40
30.0
 49
12.0
 49
-18.0
  0
LTYPE
  2
ACAD_ISO04W100
 70
     0
  3
ISO long-dash dot ____ . ____ . ____ . ____ . _
 72
    65
 73
     4
 40
30.0
 49
24.0
 49
-3.0
 49
0.0
 49
-3.0
  0
LTYPE
  2
ACAD_ISO05W100
 70
     0
  3
ISO long-dash double-dot ____ .. ____ .. ____ .
 72
    65
 73
     6
 40
33.0
 49
24.0
 49
-3.0
 49
0.0
 49
-3.0
 49
0.0
 49
-3.0
  0
LTYPE
  2
ACAD_ISO06W100
 70
     0
  3
ISO long-dash triple-dot ____ ... ____ ... ____
 72
    65
 73
     8
 40
36.0
 49
24.0
 49
-3.0
 49
0.0
 49
-3.0
 49
0.0
 49
-3.0
 49
0.0
 49
-3.0
  0
LTYPE
  2
ACAD_ISO07W100
 70
     0
  3
ISO dot . . . . . . . . . . . . . . . . . . . .
 72
    65
 73
     2
 40
3.0
 49
0.0
 49
-3.0
  0
LTYPE
  2
ACAD_ISO08W100
 70
     0
  3
ISO long-dash short-dash ____ __ ____ __ ____ _
 72
    65
 73
     4
 40
36.0
 49
24.0
 49
-3.0
 49
6.0
 49
-3.0
  0
LTYPE
  2
ACAD_ISO09W100
 70
     0
  3
ISO long-dash double-short-dash ____ __ __ ____
 72
    65
 73
     6
 40
45.0
 49
24.0
 49
-3.0
 49
6.0
 49
-3.0
 49
6.0
 49
-3.0
  0
LTYPE
  2
ACAD_ISO10W100
 70
     0
  3
ISO dash dot __ . __ . __ . __ . __ . __ . __ .
 72
    65
 73
     4
 40
18.0
 49
12.0
 49
-3.0
 49
0.0
 49
-3.0
  0
LTYPE
  2
ACAD_ISO11W100
 70
     0
  3
ISO double-dash dot __ __ . __ __ . __ __ . __ 
 72
    65
 73
     6
 40
33.0
 49
12.0
 49
-3.0
 49
12.0
 49
-3.0
 49
0.0
 49
-3.0
  0
LTYPE
  2
ACAD_ISO12W100
 70
     0
  3
ISO dash double-dot __ . . __ . . __ . . __ . .
 72
    65
 73
     6
 40
21.0
 49
12.0
 49
-3.0
 49
0.0
 49
-3.0
 49
0.0
 49
-3.0
  0
LTYPE
  2
ACAD_ISO13W100
 70
     0
  3
ISO double-dash double-dot __ __ . . __ __ . . 
 72
    65
 73
     8
 40
36.0
 49
12.0
 49
-3.0
 49
12.0
 49
-3.0
 49
0.0
 49
-3.0
 49
0.0
 49
-3.0
  0
LTYPE
  2
ACAD_ISO14W100
 70
     0
  3
ISO dash triple-dot __ . . . __ . . . __ . . . 
 72
    65
 73
     8
 40
24.0
 49
12.0
 49
-3.0
 49
0.0
 49
-3.0
 49
0.0
 49
-3.0
 49
0.0
 49
-3.0
  0
LTYPE
  2
ACAD_ISO15W100
 70
     0
  3
ISO double-dash triple-dot __ __ . . . __ __ . 
 72
    65
 73
    10
 40
39.0
 49
12.0
 49
-3.0
 49
12.0
 49
-3.0
 49
0.0
 49
-3.0
 49
0.0
 49
-3.0
 49
0.0
 49
-3.0
  0
LTYPE
  2
BORDER
 70
    64
  3
Border __ __ . __ __ . __ __ . __ __ . __ __ .
 72
    65
 73
     6
 40
3.5
 49
1.0
 49
-0.5
 49
1.0
 49
-0.5
 49
0.0
 49
-0.5
  0
LTYPE
  2
BORDER2
 70
    64
  3
Border (.5x) __.__.__.__.__.__.__.__.__.__.__.
 72
    65
 73
     6
 40
1.75
 49
0.5
 49
-0.25
 49
0.5
 49
-0.25
 49
0.0
 49
-0.25
  0
LTYPE
  2
BORDERX2
 70
    64
  3
Border (2x) ____  ____  .  ____  ____  .  ___
 72
    65
 73
     6
 40
7.0
 49
2.0
 49
-1.0
 49
2.0
 49
-1.0
 49
0.0
 49
-1.0
  0
LTYPE
  2
CENTER
 70
    64
  3
Center ____ _ ____ _ ____ _ ____ _ ____ _ ____
 72
    65
 73
     4
 40
12.0
 49
7.5
 49
-1.5
 49
1.5
 49
-1.5
  0
LTYPE
  2
CENTER2
 70
    64
  3
Center (.5x) ___ _ ___ _ ___ _ ___ _ ___ _ ___
 72
    65
 73
     4
 40
6.0
 49
3.75
 49
-0.75
 49
0.75
 49
-0.75
  0
LTYPE
  2
CENTERX2
 70
    64
  3
Center (2x) ________  __  ________  __  _____
 72
    65
 73
     4
 40
24.0
 49
15.0
 49
-3.0
 49
3.0
 49
-3.0
  0
LTYPE
  2
DASHDOT
 70
    64
  3
Dash dot __ . __ . __ . __ . __ . __ . __ . __
 72
    65
 73
     4
 40
6.0
 49
3.0
 49
-1.5
 49
0.0
 49
-1.5
  0
LTYPE
  2
DASHDOT2
 70
    64
  3
Dash dot (.5x) _._._._._._._._._._._._._._._.
 72
    65
 73
     4
 40
3.0
 49
1.5
 49
-0.75
 49
0.0
 49
-0.75
  0
LTYPE
  2
DASHDOTX2
 70
    64
  3
Dash dot (2x) ____  .  ____  .  ____  .  ___
 72
    65
 73
     4
 40
12.0
 49
6.0
 49
-3.0
 49
0.0
 49
-3.0
  0
LTYPE
  2
DASHED
 70
    64
  3
Dashed __ __ __ __ __ __ __ __ __ __ __ __ __ _
 72
    65
 73
     2
 40
4.5
 49
3.0
 49
-1.5
  0
LTYPE
  2
DASHED2
 70
    64
  3
Dashed (.5x) _ _ _ _ _ _ _ _ _ _ _ _ _ _ _ _ _
 72
    65
 73
     2
 40
2.25
 49
1.5
 49
-0.75
  0
LTYPE
  2
DASHEDX2
 70
    64
  3
Dashed (2x) ____  ____  ____  ____  ____  ___
 72
    65
 73
     2
 40
9.0
 49
6.0
 49
-3.0
  0
LTYPE
  2
DIVIDE
 70
    64
  3
Divide ____ . . ____ . . ____ . . ____ . . ____
 72
    65
 73
     6
 40
7.5
 49
3.0
 49
-1.5
 49
0.0
 49
-1.5
 49
0.0
 49
-1.5
  0
LTYPE
  2
DIVIDE2
 70
    64
  3
Divide (.5x) __..__..__..__..__..__..__..__.._
 72
    65
 73
     6
 40
3.75
 49
1.5
 49
-0.75
 49
0.0
 49
-0.75
 49
0.0
 49
-0.75
  0
LTYPE
  2
DIVIDEX2
 70
    64
  3
Divide (2x) ________  .  .  ________  .  .  _
 72
    65
 73
     6
 40
15.0
 49
6.0
 49
-3.0
 49
0.0
 49
-3.0
 49
0.0
 49
-3.0
  0
LTYPE
  2
DOT
 70
    64
  3
Dot . . . . . . . . . . . . . . . . . . . . . .
 72
    65
 73
     2
 40
1.5
 49
0.0
 49
-1.5
  0
LTYPE
  2
DOT2
 70
    64
  3
Dot (.5x) .....................................
 72
    65
 73
     2
 40
0.75
 49
0.0
 49
-0.75
  0
LTYPE
  2
DOTX2
 70
    64
  3
Dot (2x) .  .  .  .  .  .  .  .  .  .  .  .  . 
 72
    65
 73
     2
 40
3.0
 49
0.0
 49
-3.0
  0
LTYPE
  2
HIDDEN
 70
    64
  3
Hidden __ __ __ __ __ __ __ __ __ __ __ __ __ _
 72
    65
 73
     2
 40
4.5
 49
3.0
 49
-1.5
  0
LTYPE
  2
HIDDEN2
 70
    64
  3
Hidden (.5x) _ _ _ _ _ _ _ _ _ _ _ _ _ _ _ _ _
 72
    65
 73
     2
 40
2.25
 49
1.5
 49
-0.75
  0
LTYPE
  2
HIDDENX2
 70
    64
  3
Hidden (2x) ____ ____ ____ ____ ____ ____ ____
 72
    65
 73
     2
 40
9.0
 49
6.0
 49
-3.0
  0
LTYPE
  2
PHANTOM
 70
    64
  3
Phantom ______  __  __  ______  __  __  ______
 72
    65
 73
     6
 40
15.0
 49
7.5
 49
-1.5
 49
1.5
 49
-1.5
 49
1.5
 49
-1.5
  0
LTYPE
  2
PHANTOM2
 70
    64
  3
Phantom (.5x) ___ _ _ ___ _ _ ___ _ _ ___ _ _
 72
    65
 73
     6
 40
7.5
 49
3.75
 49
-0.75
 49
0.75
 49
-0.75
 49
0.75
 49
-0.75
  0
LTYPE
  2
PHANTOMX2
 70
    64
  3
Phantom (2x) ____________    ____    ____   _
 72
    65
 73
     6
 40
30.0
 49
15.0
 49
-3.0
 49
3.0
 49
-3.0
 49
3.0
 49
-3.0
  0
ENDTAB
  0
TABLE
  2
LAYER
 70
     1
  0
LAYER
  2
0
 70
     0
 62
     7
  6
CONTINUOUS
  0
ENDTAB
  0
TABLE
  2
STYLE
 70
     1
  0
STYLE
  2
STANDARD
 70
     0
 40
0.0
 41
1.0
 50
0.0
 71
     0
 42
0.2
  3
txt
  4
BIGFONT
  0
ENDTAB
  0
TABLE
  2
DIMSTYLE
 70
     0
  0
ENDTAB
  0
ENDSEC
  0
SECTION
  2
BLOCKS
  0
BLOCK
  8
0
  2
KOZU0001
 70
    64
 10
0
 20
0
  0
LINE
  8
0
  6
CONTINUOUS
 62
     7
 10
0
 20
0
 11
6.4702893
 21
-20.790283
  0
LINE
  8
0
  6
CONTINUOUS
 62
     7
 10
0
 20
0
 11
1.8463042
 21
-2.5673255
  0
LINE
  8
0
  6
CONTINUOUS
 62
     7
 10
0
 20
0
 11
-0.063351929
 21
-3.161643
  0
TEXT
  8
0
  6
CONTINUOUS
 62
     7
 10
10.033009
 20
-19.990276
 40
3.2
 41
0.85127004
  1
２－Ｍ５
  0
LINE
  8
0
  6
CONTINUOUS
 62
     7
 10
0
 20
0
 11
6.4702893
 21
-20.790283
  0
LINE
  8
0
  6
CONTINUOUS
 62
     7
 10
6.470282
 20
-20.790276
 11
23.747008
 21
-20.790276
  0
ENDBLK
  8
0
  0
ENDSEC
  0
SECTION
  2
ENTITIES
  0
POINT
  8
0
  6
CONTINUOUS
 62
     7
 10
-176.8
 20
274.5
  0
POINT
  8
0
  6
CONTINUOUS
 62
     7
 10
-176.8
 20
0
  0
POINT
  8
0
  6
CONTINUOUS
 62
     7
 10
0
 20
0
  0
POINT
  8
0
  6
CONTINUOUS
 62
     7
 10
0
 20
274.5
  0
LINE
  8
0
  6
CONTINUOUS
 62
     7
 10
-138.16183
 20
98.502632
 11
-138.16183
 21
128.50262
  0
LINE
  8
0
  6
CONTINUOUS
 62
     7
 10
-128.16183
 20
138.50262
 11
-108.16183
 21
138.50262
  0
LINE
  8
0
  6
CONTINUOUS
 62
     7
 10
-98.161835
 20
128.50262
 11
-98.161835
 21
98.502632
  0
LINE
  8
0
  6
CONTINUOUS
 62
     7
 10
-98.161835
 20
98.502632
 11
-138.16183
 21
98.502632
  0
LINE
  8
0
  6
CONTINUOUS
 62
     7
 10
-98.161835
 20
101.70263
 11
-138.16183
 21
101.70263
  0
LINE
  8
0
  6
CENTER
 62
     7
 10
-108.16183
 20
104.15467
 11
-108.16183
 21
95.725113
  0
LINE
  8
0
  6
CENTER
 62
     7
 10
-128.16183
 20
104.05995
 11
-128.16183
 21
95.86718
  0
LINE
  8
0
  6
CONTINUOUS
 62
     7
 10
-107.41183
 20
128.50262
 11
-107.41183
 21
108.50263
  0
LINE
  8
0
  6
CONTINUOUS
 62
     7
 10
-113.91183
 20
128.50262
 11
-113.91183
 21
108.50263
  0
LINE
  8
0
  6
CONTINUOUS
 62
     7
 10
-108.16183
 20
138.50262
 11
-98.16184
 21
128.50262
  0
LINE
  8
0
  6
CONTINUOUS
 62
     7
 10
-128.16185
 20
138.50265
 11
-138.16185
 21
128.50263
  0
LINE
  8
0
  6
CENTER
 62
     7
 10
-129.91183
 20
118.50263
 11
-121.41183
 21
118.50263
  0
LINE
  8
0
  6
CENTER
 62
     7
 10
-125.66183
 20
122.75263
 11
-125.66183
 21
114.25263
  0
LINE
  8
0
  6
CENTER
 62
     7
 10
-114.91183
 20
128.50262
 11
-106.41183
 21
128.50262
  0
LINE
  8
0
  6
CENTER
 62
     7
 10
-110.66183
 20
132.75262
 11
-110.66183
 21
104.25263
  0
LINE
  8
0
  6
CENTER
 62
     7
 10
-114.91183
 20
108.50263
 11
-106.41183
 21
108.50263
  0
LINE
  8
0
  6
DASHED
 62
     7
 10
-125.66183
 20
101.70263
 11
-125.66183
 21
98.502632
  0
LINE
  8
0
  6
DASHED
 62
     7
 10
-130.66183
 20
101.70263
 11
-130.66183
 21
98.502632
  0
LINE
  8
0
  6
DASHED
 62
     7
 10
-130.16183
 20
101.70263
 11
-130.16183
 21
98.502632
  0
LINE
  8
0
  6
DASHED
 62
     7
 10
-126.16183
 20
101.70263
 11
-126.16183
 21
98.502632
  0
LINE
  8
0
  6
DASHED
 62
     7
 10
-106.16183
 20
101.70263
 11
-106.16183
 21
98.502632
  0
LINE
  8
0
  6
DASHED
 62
     7
 10
-105.66183
 20
101.70263
 11
-105.66183
 21
98.502632
  0
LINE
  8
0
  6
DASHED
 62
     7
 10
-110.16183
 20
101.70263
 11
-110.16183
 21
98.502632
  0
LINE
  8
0
  6
DASHED
 62
     7
 10
-110.66183
 20
101.70263
 11
-110.66183
 21
98.502632
  0
LINE
  8
0
  6
CONTINUOUS
 62
     7
 10
-30.632896
 20
103.70263
 11
-30.632896
 21
138.50262
  0
LINE
  8
0
  6
CONTINUOUS
 62
     7
 10
-60.632896
 20
98.502632
 11
-60.632896
 21
101.70263
  0
LINE
  8
0
  6
CONTINUOUS
 62
     7
 10
-35.832897
 20
98.502632
 11
-60.632896
 21
98.502632
  0
LINE
  8
0
  6
CONTINUOUS
 62
     7
 10
-30.632896
 20
138.50262
 11
-33.832897
 21
138.50262
  0
LINE
  8
0
  6
CONTINUOUS
 62
     7
 10
-33.832897
 20
138.50262
 11
-33.832897
 21
103.70263
  0
LINE
  8
0
  6
CONTINUOUS
 62
     7
 10
-35.832897
 20
101.70263
 11
-60.632896
 21
101.70263
  0
LINE
  8
0
  6
CENTER
 62
     7
 10
-36.832897
 20
128.50262
 11
-27.632896
 21
128.50262
  0
LINE
  8
0
  6
CENTER
 62
     7
 10
-36.832897
 20
118.50263
 11
-27.632896
 21
118.50263
  0
LINE
  8
0
  6
CENTER
 62
     7
 10
-36.832897
 20
108.50263
 11
-27.632896
 21
108.50263
  0
LINE
  8
0
  6
CENTER
 62
     7
 10
-50.632896
 20
94.683167
 11
-50.632896
 21
106.10579
  0
LINE
  8
0
  6
DASHED
 62
     7
 10
-53.132896
 20
98.502632
 11
-53.132896
 21
101.70263
  0
LINE
  8
0
  6
DASHED
 62
     7
 10
-48.132896
 20
98.502632
 11
-48.132896
 21
101.70263
  0
LINE
  8
0
  6
DASHED
 62
     7
 10
-52.632896
 20
98.502632
 11
-52.632896
 21
101.70263
  0
LINE
  8
0
  6
DASHED
 62
     7
 10
-48.632896
 20
98.502632
 11
-48.632896
 21
101.70263
  0
LINE
  8
0
  6
CONTINUOUS
 62
     7
 10
-98.161835
 20
181.79736
 11
-138.16183
 21
181.79736
  0
LINE
  8
0
  6
CONTINUOUS
 62
     7
 10
-98.161835
 20
211.79736
 11
-138.16183
 21
211.79736
  0
LINE
  8
0
  6
CONTINUOUS
 62
     7
 10
-98.161835
 20
208.59737
 11
-138.16183
 21
208.59737
  0
LINE
  8
0
  6
CONTINUOUS
 62
     7
 10
-98.161835
 20
211.79736
 11
-98.161835
 21
208.59737
  0
LINE
  8
0
  6
CONTINUOUS
 62
     7
 10
-98.161835
 20
208.59737
 11
-98.161835
 21
181.79736
  0
LINE
  8
0
  6
CONTINUOUS
 62
     7
 10
-138.16183
 20
211.79736
 11
-138.16183
 21
208.59737
  0
LINE
  8
0
  6
CONTINUOUS
 62
     7
 10
-138.16183
 20
208.59737
 11
-138.16183
 21
181.79736
  0
LINE
  8
0
  6
CENTER
 62
     7
 10
-108.16183
 20
195.29736
 11
-108.16183
 21
188.29736
  0
LINE
  8
0
  6
CENTER
 62
     7
 10
-104.66183
 20
191.79736
 11
-111.66183
 21
191.79736
  0
LINE
  8
0
  6
CENTER
 62
     7
 10
-128.16183
 20
195.29736
 11
-128.16183
 21
188.29736
  0
LINE
  8
0
  6
CENTER
 62
     7
 10
-124.66183
 20
191.79736
 11
-131.66183
 21
191.79736
  0
LINE
  8
0
  6
CONTINUOUS
 62
     7
 10
-128.16183
 20
211.79736
 11
-128.16183
 21
208.59737
  0
LINE
  8
0
  6
CENTER
 62
     7
 10
-125.66183
 20
215.22517
 11
-125.66183
 21
204.08882
  0
LINE
  8
0
  6
CENTER
 62
     7
 10
-110.66183
 20
215.48094
 11
-110.66183
 21
204.12292
  0
LINE
  8
0
  6
CONTINUOUS
 62
     7
 10
-108.16183
 20
211.79736
 11
-108.16183
 21
208.59737
  0
LINE
  8
0
  6
DASHED
 62
     7
 10
-33.832897
 20
105.25263
 11
-30.632896
 21
105.25263
  0
LINE
  8
0
  6
DASHED
 62
     7
 10
-33.832897
 20
131.75262
 11
-30.632896
 21
131.75262
  0
LINE
  8
0
  6
CONTINUOUS
 62
     7
 10
0
 20
274.5
 11
0
 21
0
  0
LINE
  8
0
  6
CONTINUOUS
 62
     7
 10
-176.8
 20
0
 11
0
 21
0
  0
LINE
  8
0
  6
CONTINUOUS
 62
     7
 10
-176.8
 20
274.5
 11
-176.8
 21
0
  0
LINE
  8
0
  6
CONTINUOUS
 62
     7
 10
-176.8
 20
274.5
 11
0
 21
274.5
  0
LINE
  8
0
  6
CONTINUOUS
 62
     7
 10
-61.599998
 20
12.5
 11
0
 21
12.5
  0
LINE
  8
0
  6
CONTINUOUS
 62
     7
 10
-61.599998
 20
25
 11
0
 21
25
  0
LINE
  8
0
  6
CONTINUOUS
 62
     7
 10
-61.599998
 20
38.5
 11
0
 21
38.5
  0
LINE
  8
0
  6
CONTINUOUS
 62
     7
 10
-61.599998
 20
38.5
 11
-61.599998
 21
0
  0
LINE
  8
0
  6
CONTINUOUS
 62
     7
 10
-176.60001
 20
0.2
 11
0
 21
0.2
  0
LINE
  8
0
  6
CONTINUOUS
 62
     7
 10
-176.60001
 20
274.5
 11
-176.60001
 21
0.2
  0
LINE
  8
0
  6
CONTINUOUS
 62
     7
 10
0.2
 20
274.70001
 11
0.2
 21
0
  0
LINE
  8
0
  6
CONTINUOUS
 62
     7
 10
-176.8
 20
274.70001
 11
0.2
 21
274.70001
  0
ARC
  8
0
  6
CONTINUOUS
 62
     7
 10
-110.66183
 20
108.50263
 40
3.25
 50
179.99998
 51
360
  0
CIRCLE
  8
0
  6
CONTINUOUS
 62
     7
 10
-125.66183
 20
118.50263
 40
3.25
  0
ARC
  8
0
  6
CONTINUOUS
 62
     7
 10
-110.66183
 20
128.50262
 40
3.25
 50
359.99997
 51
179.99996
  0
ARC
  8
0
  6
CONTINUOUS
 62
     7
 10
-35.832897
 20
103.70263
 40
2
 50
270
 51
360
  0
ARC
  8
0
  6
CONTINUOUS
 62
     7
 10
-35.832897
 20
103.70263
 40
5.1999998
 50
270
 51
360
  0
CIRCLE
  8
0
  6
CONTINUOUS
 62
     7
 10
-128.16183
 20
191.79736
 40
2
  0
CIRCLE
  8
0
  6
CONTINUOUS
 62
     7
 10
-128.16183
 20
191.79736
 40
2.5
  0
CIRCLE
  8
0
  6
CONTINUOUS
 62
     7
 10
-108.16183
 20
191.79736
 40
2.5
  0
CIRCLE
  8
0
  6
CONTINUOUS
 62
     7
 10
-108.16183
 20
191.79736
 40
2
  0
TEXT
  8
0
  6
CONTINUOUS
 62
     7
 10
-48.847337
 20
31.152212
 40
4.8000002
 41
0.84556534
  1
吸着角度調整金具
  0
TEXT
  8
0
  6
CONTINUOUS
 62
     7
 10
-42.895877
 20
26.492096
 40
3.2
 41
0.8463497
  1
（スモール）左
  0
TEXT
  8
0
  6
CONTINUOUS
 62
     7
 10
-45.047307
 20
15.821889
 40
4.8000002
 41
0.84634973
  1
ＣＰ－０１９Ｌ
  0
TEXT
  8
0
  6
CONTINUOUS
 62
     7
 10
-43.557328
 20
3.1516209
 40
4.8000002
 41
0.84741096
  1
３７０７８９
  0
INSERT
  8
0
  6
CONTINUOUS
 62
     7
  2
KOZU0001
 10
-107.41893
 20
189.41029
  0
ENDSEC
  0
EOF
