  0
SECTION
  2
HEADER
  9
$EXTMAX
 10
1.2182922
 20
274.528
 30
0
  9
$EXTMIN
 10
-177.2301
 20
-1.0560455
 30
0
  9
$LIMMAX
 10
1.2182922
 20
274.528
  9
$LIMMIN
 10
-177.2301
 20
-1.0560455
  9
$PLIMMAX
 10
1.2182922
 20
274.528
  9
$PLIMMIN
 10
-177.2301
 20
-1.0560455
  9
$PEXTMAX
 10
1.2182922
 20
274.528
 30
0
  9
$PEXTMIN
 10
-177.2301
 20
-1.0560455
 30
0
  9
$TEXTSIZE
 40
3.2
  9
$DIMSHO
 70
     0
  9
$DIMASZ
 40
1.0
  9
$DIMTAD
 70
     1
  9
$DIMTIH
 70
     0
  9
$DIMTOH
 70
     0
  9
$DIMEXE
 40
2.54
  9
$DIMEXO
 40
2.54
  9
$DIMTVP
 40
1.0
  9
$DIMSAH
 70
     1
  9
$DIMDLE
 40
0.0
  9
$DIMTXT
 40
3.2
  9
$DIMGAP
 40
1.6
  0
ENDSEC
  0
SECTION
  2
TABLES
  0
TABLE
  2
LTYPE
 70
     39
  0
LTYPE
  2
CONTINUOUS
 70
    64
  3
Solid line
 72
    65
 73
     0
 40
0.0
  0
LTYPE
  2
ACAD_ISO02W100
 70
     0
  3
ISO dash __ __ __ __ __ __ __ __ __ __ __ __ __
 72
    65
 73
     2
 40
15.0
 49
12.0
 49
-3.0
  0
LTYPE
  2
ACAD_ISO03W100
 70
     0
  3
ISO dash space __    __    __    __    __    __
 72
    65
 73
     2
 40
30.0
 49
12.0
 49
-18.0
  0
LTYPE
  2
ACAD_ISO04W100
 70
     0
  3
ISO long-dash dot ____ . ____ . ____ . ____ . _
 72
    65
 73
     4
 40
30.0
 49
24.0
 49
-3.0
 49
0.0
 49
-3.0
  0
LTYPE
  2
ACAD_ISO05W100
 70
     0
  3
ISO long-dash double-dot ____ .. ____ .. ____ .
 72
    65
 73
     6
 40
33.0
 49
24.0
 49
-3.0
 49
0.0
 49
-3.0
 49
0.0
 49
-3.0
  0
LTYPE
  2
ACAD_ISO06W100
 70
     0
  3
ISO long-dash triple-dot ____ ... ____ ... ____
 72
    65
 73
     8
 40
36.0
 49
24.0
 49
-3.0
 49
0.0
 49
-3.0
 49
0.0
 49
-3.0
 49
0.0
 49
-3.0
  0
LTYPE
  2
ACAD_ISO07W100
 70
     0
  3
ISO dot . . . . . . . . . . . . . . . . . . . .
 72
    65
 73
     2
 40
3.0
 49
0.0
 49
-3.0
  0
LTYPE
  2
ACAD_ISO08W100
 70
     0
  3
ISO long-dash short-dash ____ __ ____ __ ____ _
 72
    65
 73
     4
 40
36.0
 49
24.0
 49
-3.0
 49
6.0
 49
-3.0
  0
LTYPE
  2
ACAD_ISO09W100
 70
     0
  3
ISO long-dash double-short-dash ____ __ __ ____
 72
    65
 73
     6
 40
45.0
 49
24.0
 49
-3.0
 49
6.0
 49
-3.0
 49
6.0
 49
-3.0
  0
LTYPE
  2
ACAD_ISO10W100
 70
     0
  3
ISO dash dot __ . __ . __ . __ . __ . __ . __ .
 72
    65
 73
     4
 40
18.0
 49
12.0
 49
-3.0
 49
0.0
 49
-3.0
  0
LTYPE
  2
ACAD_ISO11W100
 70
     0
  3
ISO double-dash dot __ __ . __ __ . __ __ . __ 
 72
    65
 73
     6
 40
33.0
 49
12.0
 49
-3.0
 49
12.0
 49
-3.0
 49
0.0
 49
-3.0
  0
LTYPE
  2
ACAD_ISO12W100
 70
     0
  3
ISO dash double-dot __ . . __ . . __ . . __ . .
 72
    65
 73
     6
 40
21.0
 49
12.0
 49
-3.0
 49
0.0
 49
-3.0
 49
0.0
 49
-3.0
  0
LTYPE
  2
ACAD_ISO13W100
 70
     0
  3
ISO double-dash double-dot __ __ . . __ __ . . 
 72
    65
 73
     8
 40
36.0
 49
12.0
 49
-3.0
 49
12.0
 49
-3.0
 49
0.0
 49
-3.0
 49
0.0
 49
-3.0
  0
LTYPE
  2
ACAD_ISO14W100
 70
     0
  3
ISO dash triple-dot __ . . . __ . . . __ . . . 
 72
    65
 73
     8
 40
24.0
 49
12.0
 49
-3.0
 49
0.0
 49
-3.0
 49
0.0
 49
-3.0
 49
0.0
 49
-3.0
  0
LTYPE
  2
ACAD_ISO15W100
 70
     0
  3
ISO double-dash triple-dot __ __ . . . __ __ . 
 72
    65
 73
    10
 40
39.0
 49
12.0
 49
-3.0
 49
12.0
 49
-3.0
 49
0.0
 49
-3.0
 49
0.0
 49
-3.0
 49
0.0
 49
-3.0
  0
LTYPE
  2
BORDER
 70
    64
  3
Border __ __ . __ __ . __ __ . __ __ . __ __ .
 72
    65
 73
     6
 40
3.5
 49
1.0
 49
-0.5
 49
1.0
 49
-0.5
 49
0.0
 49
-0.5
  0
LTYPE
  2
BORDER2
 70
    64
  3
Border (.5x) __.__.__.__.__.__.__.__.__.__.__.
 72
    65
 73
     6
 40
1.75
 49
0.5
 49
-0.25
 49
0.5
 49
-0.25
 49
0.0
 49
-0.25
  0
LTYPE
  2
BORDERX2
 70
    64
  3
Border (2x) ____  ____  .  ____  ____  .  ___
 72
    65
 73
     6
 40
7.0
 49
2.0
 49
-1.0
 49
2.0
 49
-1.0
 49
0.0
 49
-1.0
  0
LTYPE
  2
CENTER
 70
    64
  3
Center ____ _ ____ _ ____ _ ____ _ ____ _ ____
 72
    65
 73
     4
 40
12.0
 49
7.5
 49
-1.5
 49
1.5
 49
-1.5
  0
LTYPE
  2
CENTER2
 70
    64
  3
Center (.5x) ___ _ ___ _ ___ _ ___ _ ___ _ ___
 72
    65
 73
     4
 40
6.0
 49
3.75
 49
-0.75
 49
0.75
 49
-0.75
  0
LTYPE
  2
CENTERX2
 70
    64
  3
Center (2x) ________  __  ________  __  _____
 72
    65
 73
     4
 40
24.0
 49
15.0
 49
-3.0
 49
3.0
 49
-3.0
  0
LTYPE
  2
DASHDOT
 70
    64
  3
Dash dot __ . __ . __ . __ . __ . __ . __ . __
 72
    65
 73
     4
 40
6.0
 49
3.0
 49
-1.5
 49
0.0
 49
-1.5
  0
LTYPE
  2
DASHDOT2
 70
    64
  3
Dash dot (.5x) _._._._._._._._._._._._._._._.
 72
    65
 73
     4
 40
3.0
 49
1.5
 49
-0.75
 49
0.0
 49
-0.75
  0
LTYPE
  2
DASHDOTX2
 70
    64
  3
Dash dot (2x) ____  .  ____  .  ____  .  ___
 72
    65
 73
     4
 40
12.0
 49
6.0
 49
-3.0
 49
0.0
 49
-3.0
  0
LTYPE
  2
DASHED
 70
    64
  3
Dashed __ __ __ __ __ __ __ __ __ __ __ __ __ _
 72
    65
 73
     2
 40
4.5
 49
3.0
 49
-1.5
  0
LTYPE
  2
DASHED2
 70
    64
  3
Dashed (.5x) _ _ _ _ _ _ _ _ _ _ _ _ _ _ _ _ _
 72
    65
 73
     2
 40
2.25
 49
1.5
 49
-0.75
  0
LTYPE
  2
DASHEDX2
 70
    64
  3
Dashed (2x) ____  ____  ____  ____  ____  ___
 72
    65
 73
     2
 40
9.0
 49
6.0
 49
-3.0
  0
LTYPE
  2
DIVIDE
 70
    64
  3
Divide ____ . . ____ . . ____ . . ____ . . ____
 72
    65
 73
     6
 40
7.5
 49
3.0
 49
-1.5
 49
0.0
 49
-1.5
 49
0.0
 49
-1.5
  0
LTYPE
  2
DIVIDE2
 70
    64
  3
Divide (.5x) __..__..__..__..__..__..__..__.._
 72
    65
 73
     6
 40
3.75
 49
1.5
 49
-0.75
 49
0.0
 49
-0.75
 49
0.0
 49
-0.75
  0
LTYPE
  2
DIVIDEX2
 70
    64
  3
Divide (2x) ________  .  .  ________  .  .  _
 72
    65
 73
     6
 40
15.0
 49
6.0
 49
-3.0
 49
0.0
 49
-3.0
 49
0.0
 49
-3.0
  0
LTYPE
  2
DOT
 70
    64
  3
Dot . . . . . . . . . . . . . . . . . . . . . .
 72
    65
 73
     2
 40
1.5
 49
0.0
 49
-1.5
  0
LTYPE
  2
DOT2
 70
    64
  3
Dot (.5x) .....................................
 72
    65
 73
     2
 40
0.75
 49
0.0
 49
-0.75
  0
LTYPE
  2
DOTX2
 70
    64
  3
Dot (2x) .  .  .  .  .  .  .  .  .  .  .  .  . 
 72
    65
 73
     2
 40
3.0
 49
0.0
 49
-3.0
  0
LTYPE
  2
HIDDEN
 70
    64
  3
Hidden __ __ __ __ __ __ __ __ __ __ __ __ __ _
 72
    65
 73
     2
 40
4.5
 49
3.0
 49
-1.5
  0
LTYPE
  2
HIDDEN2
 70
    64
  3
Hidden (.5x) _ _ _ _ _ _ _ _ _ _ _ _ _ _ _ _ _
 72
    65
 73
     2
 40
2.25
 49
1.5
 49
-0.75
  0
LTYPE
  2
HIDDENX2
 70
    64
  3
Hidden (2x) ____ ____ ____ ____ ____ ____ ____
 72
    65
 73
     2
 40
9.0
 49
6.0
 49
-3.0
  0
LTYPE
  2
PHANTOM
 70
    64
  3
Phantom ______  __  __  ______  __  __  ______
 72
    65
 73
     6
 40
15.0
 49
7.5
 49
-1.5
 49
1.5
 49
-1.5
 49
1.5
 49
-1.5
  0
LTYPE
  2
PHANTOM2
 70
    64
  3
Phantom (.5x) ___ _ _ ___ _ _ ___ _ _ ___ _ _
 72
    65
 73
     6
 40
7.5
 49
3.75
 49
-0.75
 49
0.75
 49
-0.75
 49
0.75
 49
-0.75
  0
LTYPE
  2
PHANTOMX2
 70
    64
  3
Phantom (2x) ____________    ____    ____   _
 72
    65
 73
     6
 40
30.0
 49
15.0
 49
-3.0
 49
3.0
 49
-3.0
 49
3.0
 49
-3.0
  0
ENDTAB
  0
TABLE
  2
LAYER
 70
     1
  0
LAYER
  2
0
 70
     0
 62
     7
  6
CONTINUOUS
  0
ENDTAB
  0
TABLE
  2
STYLE
 70
     1
  0
STYLE
  2
STANDARD
 70
     0
 40
0.0
 41
1.0
 50
0.0
 71
     0
 42
0.2
  3
txt
  4
BIGFONT
  0
ENDTAB
  0
TABLE
  2
DIMSTYLE
 70
     0
  0
ENDTAB
  0
ENDSEC
  0
SECTION
  2
BLOCKS
  0
BLOCK
  8
0
  2
KOZU0001
 70
    64
 10
0
 20
0
  0
LINE
  8
0
  6
CONTINUOUS
 62
     7
 10
0
 20
0
 11
11.227577
 21
-19.274278
  0
LINE
  8
0
  6
CONTINUOUS
 62
     7
 10
0
 20
0
 11
2.3741182
 21
-2.0889142
  0
LINE
  8
0
  6
CONTINUOUS
 62
     7
 10
0
 20
0
 11
0.64594607
 21
-3.0956023
  0
TEXT
  8
0
  6
CONTINUOUS
 62
     7
 10
17.347614
 20
-18.474274
 40
3.2
 41
0.85127004
  1
２－Ｍ５
  0
LINE
  8
0
  6
CONTINUOUS
 62
     7
 10
0
 20
0
 11
11.227577
 21
-19.274278
  0
LINE
  8
0
  6
CONTINUOUS
 62
     7
 10
11.227575
 20
-19.274274
 11
31.061612
 21
-19.274274
  0
ENDBLK
  8
0
  0
ENDSEC
  0
SECTION
  2
ENTITIES
  0
POINT
  8
0
  6
CONTINUOUS
 62
     7
 10
-176.8
 20
274.5
  0
POINT
  8
0
  6
CONTINUOUS
 62
     7
 10
-176.8
 20
0
  0
POINT
  8
0
  6
CONTINUOUS
 62
     7
 10
0
 20
0
  0
POINT
  8
0
  6
CONTINUOUS
 62
     7
 10
0
 20
274.5
  0
LINE
  8
0
  6
CONTINUOUS
 62
     7
 10
-98.694992
 20
99.949997
 11
-98.694992
 21
129.94998
  0
LINE
  8
0
  6
CONTINUOUS
 62
     7
 10
-108.69499
 20
139.95
 11
-128.69499
 21
139.95
  0
LINE
  8
0
  6
CONTINUOUS
 62
     7
 10
-138.69499
 20
129.95
 11
-138.69499
 21
99.949997
  0
LINE
  8
0
  6
CONTINUOUS
 62
     7
 10
-138.69499
 20
99.949997
 11
-98.694992
 21
99.949997
  0
LINE
  8
0
  6
CONTINUOUS
 62
     7
 10
-138.69499
 20
103.14999
 11
-98.694992
 21
103.14999
  0
LINE
  8
0
  6
CENTER
 62
     7
 10
-128.69499
 20
105.46497
 11
-128.69499
 21
96.973824
  0
LINE
  8
0
  6
CENTER
 62
     7
 10
-108.69499
 20
105.02673
 11
-108.69499
 21
96.973824
  0
LINE
  8
0
  6
CONTINUOUS
 62
     7
 10
-129.44499
 20
129.95
 11
-129.44499
 21
109.95
  0
LINE
  8
0
  6
CONTINUOUS
 62
     7
 10
-122.94499
 20
129.95
 11
-122.94499
 21
109.95
  0
LINE
  8
0
  6
CONTINUOUS
 62
     7
 10
-128.69499
 20
139.95
 11
-138.69499
 21
129.95
  0
LINE
  8
0
  6
CONTINUOUS
 62
     7
 10
-108.69499
 20
139.95
 11
-98.694984
 21
129.94998
  0
LINE
  8
0
  6
CENTER
 62
     7
 10
-106.94499
 20
119.95
 11
-115.44499
 21
119.95
  0
LINE
  8
0
  6
CENTER
 62
     7
 10
-111.19499
 20
124.2
 11
-111.19499
 21
115.7
  0
LINE
  8
0
  6
CENTER
 62
     7
 10
-121.94499
 20
129.95
 11
-130.44499
 21
129.95
  0
LINE
  8
0
  6
CENTER
 62
     7
 10
-126.19499
 20
134.2
 11
-126.19499
 21
105.7
  0
LINE
  8
0
  6
CENTER
 62
     7
 10
-121.94499
 20
109.95
 11
-130.44499
 21
109.95
  0
LINE
  8
0
  6
DASHED
 62
     7
 10
-126.19499
 20
99.949997
 11
-126.19499
 21
103.14999
  0
LINE
  8
0
  6
DASHED
 62
     7
 10
-131.19499
 20
99.949997
 11
-131.19499
 21
103.14999
  0
LINE
  8
0
  6
DASHED
 62
     7
 10
-130.69499
 20
99.949997
 11
-130.69499
 21
103.14999
  0
LINE
  8
0
  6
DASHED
 62
     7
 10
-126.69499
 20
99.949997
 11
-126.69499
 21
103.14999
  0
LINE
  8
0
  6
DASHED
 62
     7
 10
-110.69499
 20
99.949997
 11
-110.69499
 21
103.14999
  0
LINE
  8
0
  6
DASHED
 62
     7
 10
-111.19499
 20
99.949997
 11
-111.19499
 21
103.14999
  0
LINE
  8
0
  6
DASHED
 62
     7
 10
-106.69499
 20
99.949997
 11
-106.69499
 21
103.14999
  0
LINE
  8
0
  6
DASHED
 62
     7
 10
-106.19499
 20
99.949997
 11
-106.19499
 21
103.14999
  0
LINE
  8
0
  6
CONTINUOUS
 62
     7
 10
-31.255005
 20
105.14999
 11
-31.255005
 21
139.95
  0
LINE
  8
0
  6
CONTINUOUS
 62
     7
 10
-61.255005
 20
99.949997
 11
-61.255005
 21
103.14999
  0
LINE
  8
0
  6
CONTINUOUS
 62
     7
 10
-36.455006
 20
99.949997
 11
-61.255005
 21
99.949997
  0
LINE
  8
0
  6
CONTINUOUS
 62
     7
 10
-31.255005
 20
139.95
 11
-34.455006
 21
139.95
  0
LINE
  8
0
  6
CONTINUOUS
 62
     7
 10
-34.455006
 20
139.95
 11
-34.455006
 21
105.14999
  0
LINE
  8
0
  6
CONTINUOUS
 62
     7
 10
-36.455006
 20
103.14999
 11
-61.255005
 21
103.14999
  0
LINE
  8
0
  6
CENTER
 62
     7
 10
-37.455006
 20
129.95
 11
-28.255005
 21
129.95
  0
LINE
  8
0
  6
CENTER
 62
     7
 10
-37.455006
 20
119.95
 11
-28.401127
 21
119.95
  0
LINE
  8
0
  6
CENTER
 62
     7
 10
-37.455006
 20
109.95
 11
-28.255005
 21
109.95
  0
LINE
  8
0
  6
CENTER
 62
     7
 10
-51.255005
 20
96.455467
 11
-51.255005
 21
107.07779
  0
LINE
  8
0
  6
DASHED
 62
     7
 10
-53.255005
 20
99.949997
 11
-53.255005
 21
103.14999
  0
LINE
  8
0
  6
DASHED
 62
     7
 10
-53.755005
 20
99.949997
 11
-53.755005
 21
103.14999
  0
LINE
  8
0
  6
DASHED
 62
     7
 10
-49.255005
 20
99.949997
 11
-49.255005
 21
103.14999
  0
LINE
  8
0
  6
DASHED
 62
     7
 10
-48.755005
 20
99.949997
 11
-48.755005
 21
103.14999
  0
LINE
  8
0
  6
CONTINUOUS
 62
     7
 10
-138.69499
 20
181.78
 11
-98.694992
 21
181.78
  0
LINE
  8
0
  6
CONTINUOUS
 62
     7
 10
-138.69499
 20
211.78
 11
-98.694992
 21
211.78
  0
LINE
  8
0
  6
CONTINUOUS
 62
     7
 10
-138.69499
 20
208.58
 11
-98.694992
 21
208.58
  0
LINE
  8
0
  6
CONTINUOUS
 62
     7
 10
-138.69499
 20
211.78
 11
-138.69499
 21
208.58
  0
LINE
  8
0
  6
CONTINUOUS
 62
     7
 10
-138.69499
 20
208.58
 11
-138.69499
 21
181.78
  0
LINE
  8
0
  6
CONTINUOUS
 62
     7
 10
-98.694992
 20
211.78
 11
-98.694992
 21
208.58
  0
LINE
  8
0
  6
CONTINUOUS
 62
     7
 10
-98.694992
 20
208.58
 11
-98.694992
 21
181.78
  0
LINE
  8
0
  6
CENTER
 62
     7
 10
-128.69499
 20
195.28
 11
-128.69499
 21
188.28
  0
LINE
  8
0
  6
CENTER
 62
     7
 10
-132.19499
 20
191.78
 11
-125.19499
 21
191.78
  0
LINE
  8
0
  6
CENTER
 62
     7
 10
-108.69499
 20
195.28
 11
-108.69499
 21
188.28
  0
LINE
  8
0
  6
CENTER
 62
     7
 10
-112.19499
 20
191.78
 11
-105.19499
 21
191.78
  0
LINE
  8
0
  6
CONTINUOUS
 62
     7
 10
-108.69499
 20
211.78
 11
-108.69499
 21
208.58
  0
LINE
  8
0
  6
CENTER
 62
     7
 10
-126.19499
 20
215.58525
 11
-126.19499
 21
205.45335
  0
LINE
  8
0
  6
CENTER
 62
     7
 10
-111.19499
 20
215.58525
 11
-111.19499
 21
205.24658
  0
LINE
  8
0
  6
CONTINUOUS
 62
     7
 10
-128.69499
 20
211.78
 11
-128.69499
 21
208.58
  0
LINE
  8
0
  6
CONTINUOUS
 62
     7
 10
-254000
 20
0
 11
254000
 21
0
  0
LINE
  8
0
  6
CONTINUOUS
 62
     7
 10
-176.8
 20
0
 11
0
 21
0
  0
LINE
  8
0
  6
CONTINUOUS
 62
     7
 10
0
 20
274.5
 11
0
 21
0
  0
LINE
  8
0
  6
CONTINUOUS
 62
     7
 10
-176.8
 20
274.5
 11
-176.8
 21
0
  0
LINE
  8
0
  6
CONTINUOUS
 62
     7
 10
-176.8
 20
274.5
 11
0
 21
274.5
  0
LINE
  8
0
  6
CONTINUOUS
 62
     7
 10
-61.599998
 20
38.5
 11
-61.599998
 21
0
  0
LINE
  8
0
  6
CONTINUOUS
 62
     7
 10
-61.599998
 20
12.5
 11
0
 21
12.5
  0
LINE
  8
0
  6
CONTINUOUS
 62
     7
 10
-61.599998
 20
25
 11
0
 21
25
  0
LINE
  8
0
  6
CONTINUOUS
 62
     7
 10
-61.599998
 20
38.5
 11
0
 21
38.5
  0
ARC
  8
0
  6
CONTINUOUS
 62
     7
 10
-126.19499
 20
109.95
 40
3.25
 50
179.99999
 51
360
  0
CIRCLE
  8
0
  6
CONTINUOUS
 62
     7
 10
-111.19499
 20
119.95
 40
3.25
  0
ARC
  8
0
  6
CONTINUOUS
 62
     7
 10
-126.19499
 20
129.95
 40
3.25
 50
0
 51
179.99999
  0
ARC
  8
0
  6
CONTINUOUS
 62
     7
 10
-36.455006
 20
105.14999
 40
2
 50
270
 51
360
  0
ARC
  8
0
  6
CONTINUOUS
 62
     7
 10
-36.455006
 20
105.14999
 40
5.1999998
 50
270
 51
360
  0
CIRCLE
  8
0
  6
CONTINUOUS
 62
     7
 10
-108.69499
 20
191.78
 40
2
  0
CIRCLE
  8
0
  6
CONTINUOUS
 62
     7
 10
-108.69499
 20
191.78
 40
2.5
  0
CIRCLE
  8
0
  6
CONTINUOUS
 62
     7
 10
-128.69499
 20
191.78
 40
2.5
  0
CIRCLE
  8
0
  6
CONTINUOUS
 62
     7
 10
-128.69499
 20
191.78
 40
2
  0
TEXT
  8
0
  6
CONTINUOUS
 62
     7
 10
-48.276672
 20
32.183076
 40
4.8000002
 41
0.84556534
  1
吸着角度調整金具
  0
TEXT
  8
0
  6
CONTINUOUS
 62
     7
 10
-41.358729
 20
26.794775
 40
3.2
 41
0.8463497
  1
（スモール）右
  0
TEXT
  8
0
  6
CONTINUOUS
 62
     7
 10
-46.090061
 20
16.392244
 40
4.8000002
 41
0.84634973
  1
ＣＰ－０１９Ｒ
  0
TEXT
  8
0
  6
CONTINUOUS
 62
     7
 10
-43.903451
 20
3.3754764
 40
4.8000002
 41
0.84741096
  1
３７０７９０
  0
INSERT
  8
0
  6
CONTINUOUS
 62
     7
  2
KOZU0001
 10
-107.43663
 20
189.61978
  0
ENDSEC
  0
EOF
