  0
SECTION
  2
HEADER
  9
$EXTMAX
 10
1.2182922
 20
274.528
 30
0
  9
$EXTMIN
 10
-177.2301
 20
-1.0560455
 30
0
  9
$LIMMAX
 10
1.2182922
 20
274.528
  9
$LIMMIN
 10
-177.2301
 20
-1.0560455
  9
$PLIMMAX
 10
1.2182922
 20
274.528
  9
$PLIMMIN
 10
-177.2301
 20
-1.0560455
  9
$PEXTMAX
 10
1.2182922
 20
274.528
 30
0
  9
$PEXTMIN
 10
-177.2301
 20
-1.0560455
 30
0
  9
$TEXTSIZE
 40
3.2
  9
$DIMSHO
 70
     0
  9
$DIMASZ
 40
1.0
  9
$DIMTAD
 70
     1
  9
$DIMTIH
 70
     0
  9
$DIMTOH
 70
     0
  9
$DIMEXE
 40
2.54
  9
$DIMEXO
 40
2.54
  9
$DIMTVP
 40
1.0
  9
$DIMSAH
 70
     1
  9
$DIMDLE
 40
0.0
  9
$DIMTXT
 40
3.2
  9
$DIMGAP
 40
1.6
  0
ENDSEC
  0
SECTION
  2
TABLES
  0
TABLE
  2
LTYPE
 70
     39
  0
LTYPE
  2
CONTINUOUS
 70
    64
  3
Solid line
 72
    65
 73
     0
 40
0.0
  0
LTYPE
  2
ACAD_ISO02W100
 70
     0
  3
ISO dash __ __ __ __ __ __ __ __ __ __ __ __ __
 72
    65
 73
     2
 40
15.0
 49
12.0
 49
-3.0
  0
LTYPE
  2
ACAD_ISO03W100
 70
     0
  3
ISO dash space __    __    __    __    __    __
 72
    65
 73
     2
 40
30.0
 49
12.0
 49
-18.0
  0
LTYPE
  2
ACAD_ISO04W100
 70
     0
  3
ISO long-dash dot ____ . ____ . ____ . ____ . _
 72
    65
 73
     4
 40
30.0
 49
24.0
 49
-3.0
 49
0.0
 49
-3.0
  0
LTYPE
  2
ACAD_ISO05W100
 70
     0
  3
ISO long-dash double-dot ____ .. ____ .. ____ .
 72
    65
 73
     6
 40
33.0
 49
24.0
 49
-3.0
 49
0.0
 49
-3.0
 49
0.0
 49
-3.0
  0
LTYPE
  2
ACAD_ISO06W100
 70
     0
  3
ISO long-dash triple-dot ____ ... ____ ... ____
 72
    65
 73
     8
 40
36.0
 49
24.0
 49
-3.0
 49
0.0
 49
-3.0
 49
0.0
 49
-3.0
 49
0.0
 49
-3.0
  0
LTYPE
  2
ACAD_ISO07W100
 70
     0
  3
ISO dot . . . . . . . . . . . . . . . . . . . .
 72
    65
 73
     2
 40
3.0
 49
0.0
 49
-3.0
  0
LTYPE
  2
ACAD_ISO08W100
 70
     0
  3
ISO long-dash short-dash ____ __ ____ __ ____ _
 72
    65
 73
     4
 40
36.0
 49
24.0
 49
-3.0
 49
6.0
 49
-3.0
  0
LTYPE
  2
ACAD_ISO09W100
 70
     0
  3
ISO long-dash double-short-dash ____ __ __ ____
 72
    65
 73
     6
 40
45.0
 49
24.0
 49
-3.0
 49
6.0
 49
-3.0
 49
6.0
 49
-3.0
  0
LTYPE
  2
ACAD_ISO10W100
 70
     0
  3
ISO dash dot __ . __ . __ . __ . __ . __ . __ .
 72
    65
 73
     4
 40
18.0
 49
12.0
 49
-3.0
 49
0.0
 49
-3.0
  0
LTYPE
  2
ACAD_ISO11W100
 70
     0
  3
ISO double-dash dot __ __ . __ __ . __ __ . __ 
 72
    65
 73
     6
 40
33.0
 49
12.0
 49
-3.0
 49
12.0
 49
-3.0
 49
0.0
 49
-3.0
  0
LTYPE
  2
ACAD_ISO12W100
 70
     0
  3
ISO dash double-dot __ . . __ . . __ . . __ . .
 72
    65
 73
     6
 40
21.0
 49
12.0
 49
-3.0
 49
0.0
 49
-3.0
 49
0.0
 49
-3.0
  0
LTYPE
  2
ACAD_ISO13W100
 70
     0
  3
ISO double-dash double-dot __ __ . . __ __ . . 
 72
    65
 73
     8
 40
36.0
 49
12.0
 49
-3.0
 49
12.0
 49
-3.0
 49
0.0
 49
-3.0
 49
0.0
 49
-3.0
  0
LTYPE
  2
ACAD_ISO14W100
 70
     0
  3
ISO dash triple-dot __ . . . __ . . . __ . . . 
 72
    65
 73
     8
 40
24.0
 49
12.0
 49
-3.0
 49
0.0
 49
-3.0
 49
0.0
 49
-3.0
 49
0.0
 49
-3.0
  0
LTYPE
  2
ACAD_ISO15W100
 70
     0
  3
ISO double-dash triple-dot __ __ . . . __ __ . 
 72
    65
 73
    10
 40
39.0
 49
12.0
 49
-3.0
 49
12.0
 49
-3.0
 49
0.0
 49
-3.0
 49
0.0
 49
-3.0
 49
0.0
 49
-3.0
  0
LTYPE
  2
BORDER
 70
    64
  3
Border __ __ . __ __ . __ __ . __ __ . __ __ .
 72
    65
 73
     6
 40
3.5
 49
1.0
 49
-0.5
 49
1.0
 49
-0.5
 49
0.0
 49
-0.5
  0
LTYPE
  2
BORDER2
 70
    64
  3
Border (.5x) __.__.__.__.__.__.__.__.__.__.__.
 72
    65
 73
     6
 40
1.75
 49
0.5
 49
-0.25
 49
0.5
 49
-0.25
 49
0.0
 49
-0.25
  0
LTYPE
  2
BORDERX2
 70
    64
  3
Border (2x) ____  ____  .  ____  ____  .  ___
 72
    65
 73
     6
 40
7.0
 49
2.0
 49
-1.0
 49
2.0
 49
-1.0
 49
0.0
 49
-1.0
  0
LTYPE
  2
CENTER
 70
    64
  3
Center ____ _ ____ _ ____ _ ____ _ ____ _ ____
 72
    65
 73
     4
 40
12.0
 49
7.5
 49
-1.5
 49
1.5
 49
-1.5
  0
LTYPE
  2
CENTER2
 70
    64
  3
Center (.5x) ___ _ ___ _ ___ _ ___ _ ___ _ ___
 72
    65
 73
     4
 40
6.0
 49
3.75
 49
-0.75
 49
0.75
 49
-0.75
  0
LTYPE
  2
CENTERX2
 70
    64
  3
Center (2x) ________  __  ________  __  _____
 72
    65
 73
     4
 40
24.0
 49
15.0
 49
-3.0
 49
3.0
 49
-3.0
  0
LTYPE
  2
DASHDOT
 70
    64
  3
Dash dot __ . __ . __ . __ . __ . __ . __ . __
 72
    65
 73
     4
 40
6.0
 49
3.0
 49
-1.5
 49
0.0
 49
-1.5
  0
LTYPE
  2
DASHDOT2
 70
    64
  3
Dash dot (.5x) _._._._._._._._._._._._._._._.
 72
    65
 73
     4
 40
3.0
 49
1.5
 49
-0.75
 49
0.0
 49
-0.75
  0
LTYPE
  2
DASHDOTX2
 70
    64
  3
Dash dot (2x) ____  .  ____  .  ____  .  ___
 72
    65
 73
     4
 40
12.0
 49
6.0
 49
-3.0
 49
0.0
 49
-3.0
  0
LTYPE
  2
DASHED
 70
    64
  3
Dashed __ __ __ __ __ __ __ __ __ __ __ __ __ _
 72
    65
 73
     2
 40
4.5
 49
3.0
 49
-1.5
  0
LTYPE
  2
DASHED2
 70
    64
  3
Dashed (.5x) _ _ _ _ _ _ _ _ _ _ _ _ _ _ _ _ _
 72
    65
 73
     2
 40
2.25
 49
1.5
 49
-0.75
  0
LTYPE
  2
DASHEDX2
 70
    64
  3
Dashed (2x) ____  ____  ____  ____  ____  ___
 72
    65
 73
     2
 40
9.0
 49
6.0
 49
-3.0
  0
LTYPE
  2
DIVIDE
 70
    64
  3
Divide ____ . . ____ . . ____ . . ____ . . ____
 72
    65
 73
     6
 40
7.5
 49
3.0
 49
-1.5
 49
0.0
 49
-1.5
 49
0.0
 49
-1.5
  0
LTYPE
  2
DIVIDE2
 70
    64
  3
Divide (.5x) __..__..__..__..__..__..__..__.._
 72
    65
 73
     6
 40
3.75
 49
1.5
 49
-0.75
 49
0.0
 49
-0.75
 49
0.0
 49
-0.75
  0
LTYPE
  2
DIVIDEX2
 70
    64
  3
Divide (2x) ________  .  .  ________  .  .  _
 72
    65
 73
     6
 40
15.0
 49
6.0
 49
-3.0
 49
0.0
 49
-3.0
 49
0.0
 49
-3.0
  0
LTYPE
  2
DOT
 70
    64
  3
Dot . . . . . . . . . . . . . . . . . . . . . .
 72
    65
 73
     2
 40
1.5
 49
0.0
 49
-1.5
  0
LTYPE
  2
DOT2
 70
    64
  3
Dot (.5x) .....................................
 72
    65
 73
     2
 40
0.75
 49
0.0
 49
-0.75
  0
LTYPE
  2
DOTX2
 70
    64
  3
Dot (2x) .  .  .  .  .  .  .  .  .  .  .  .  . 
 72
    65
 73
     2
 40
3.0
 49
0.0
 49
-3.0
  0
LTYPE
  2
HIDDEN
 70
    64
  3
Hidden __ __ __ __ __ __ __ __ __ __ __ __ __ _
 72
    65
 73
     2
 40
4.5
 49
3.0
 49
-1.5
  0
LTYPE
  2
HIDDEN2
 70
    64
  3
Hidden (.5x) _ _ _ _ _ _ _ _ _ _ _ _ _ _ _ _ _
 72
    65
 73
     2
 40
2.25
 49
1.5
 49
-0.75
  0
LTYPE
  2
HIDDENX2
 70
    64
  3
Hidden (2x) ____ ____ ____ ____ ____ ____ ____
 72
    65
 73
     2
 40
9.0
 49
6.0
 49
-3.0
  0
LTYPE
  2
PHANTOM
 70
    64
  3
Phantom ______  __  __  ______  __  __  ______
 72
    65
 73
     6
 40
15.0
 49
7.5
 49
-1.5
 49
1.5
 49
-1.5
 49
1.5
 49
-1.5
  0
LTYPE
  2
PHANTOM2
 70
    64
  3
Phantom (.5x) ___ _ _ ___ _ _ ___ _ _ ___ _ _
 72
    65
 73
     6
 40
7.5
 49
3.75
 49
-0.75
 49
0.75
 49
-0.75
 49
0.75
 49
-0.75
  0
LTYPE
  2
PHANTOMX2
 70
    64
  3
Phantom (2x) ____________    ____    ____   _
 72
    65
 73
     6
 40
30.0
 49
15.0
 49
-3.0
 49
3.0
 49
-3.0
 49
3.0
 49
-3.0
  0
ENDTAB
  0
TABLE
  2
LAYER
 70
     1
  0
LAYER
  2
0
 70
     0
 62
     7
  6
CONTINUOUS
  0
ENDTAB
  0
TABLE
  2
STYLE
 70
     1
  0
STYLE
  2
STANDARD
 70
     0
 40
0.0
 41
1.0
 50
0.0
 71
     0
 42
0.2
  3
txt
  4
BIGFONT
  0
ENDTAB
  0
TABLE
  2
DIMSTYLE
 70
     0
  0
ENDTAB
  0
ENDSEC
  0
SECTION
  2
BLOCKS
  0
ENDSEC
  0
SECTION
  2
ENTITIES
  0
LINE
  8
0
  6
CONTINUOUS
 62
     7
 10
-140.86501
 20
215.25
 11
-140.86501
 21
145.25
  0
LINE
  8
0
  6
CONTINUOUS
 62
     7
 10
-90.865005
 20
215.25
 11
-90.865005
 21
145.25
  0
LINE
  8
0
  6
CONTINUOUS
 62
     7
 10
-140.86501
 20
145.25
 11
-90.865005
 21
145.25
  0
LINE
  8
0
  6
CONTINUOUS
 62
     7
 10
-140.86501
 20
215.25
 11
-90.865005
 21
215.25
  0
LINE
  8
0
  6
CONTINUOUS
 62
     7
 10
-140.86501
 20
165.25
 11
-90.865005
 21
165.25
  0
LINE
  8
0
  6
CENTER
 62
     7
 10
-96.865005
 20
211.26224
 11
-96.865005
 21
147.24249
  0
LINE
  8
0
  6
CONTINUOUS
 62
     7
 10
-99.365005
 20
205.25
 11
-99.365005
 21
175.25
  0
LINE
  8
0
  6
CONTINUOUS
 62
     7
 10
-94.365005
 20
205.25
 11
-94.365005
 21
175.25
  0
LINE
  8
0
  6
CENTER
 62
     7
 10
-101.86501
 20
205.25
 11
-91.865005
 21
205.25
  0
LINE
  8
0
  6
CENTER
 62
     7
 10
-101.86501
 20
175.25
 11
-91.865005
 21
175.25
  0
LINE
  8
0
  6
CENTER
 62
     7
 10
-104.36501
 20
155.25
 11
-89.365005
 21
155.25
  0
LINE
  8
0
  6
CENTER
 62
     7
 10
-134.86501
 20
211.26224
 11
-134.86501
 21
147.41986
  0
LINE
  8
0
  6
CONTINUOUS
 62
     7
 10
-132.36501
 20
205.25
 11
-132.36501
 21
175.25
  0
LINE
  8
0
  6
CONTINUOUS
 62
     7
 10
-137.36501
 20
205.25
 11
-137.36501
 21
175.25
  0
LINE
  8
0
  6
CENTER
 62
     7
 10
-129.86501
 20
205.25
 11
-139.86501
 21
205.25
  0
LINE
  8
0
  6
CENTER
 62
     7
 10
-129.86501
 20
175.25
 11
-139.86501
 21
175.25
  0
LINE
  8
0
  6
CENTER
 62
     7
 10
-127.36501
 20
155.25
 11
-142.36501
 21
155.25
  0
LINE
  8
0
  6
CONTINUOUS
 62
     7
 10
-40.875
 20
165.25
 11
-40.875
 21
145.25
  0
LINE
  8
0
  6
CONTINUOUS
 62
     7
 10
-30.875
 20
215.25
 11
-30.875
 21
145.25
  0
LINE
  8
0
  6
CONTINUOUS
 62
     7
 10
-35.875
 20
215.25
 11
-30.875
 21
215.25
  0
LINE
  8
0
  6
CONTINUOUS
 62
     7
 10
-40.875
 20
145.25
 11
-30.875
 21
145.25
  0
LINE
  8
0
  6
CONTINUOUS
 62
     7
 10
-40.875
 20
165.25
 11
-35.875
 21
165.25
  0
LINE
  8
0
  6
CONTINUOUS
 62
     7
 10
-35.875
 20
215.25
 11
-35.875
 21
165.25
  0
LINE
  8
0
  6
DASHED
 62
     7
 10
-35.875
 20
172.75
 11
-30.875
 21
172.75
  0
LINE
  8
0
  6
DASHED
 62
     7
 10
-35.875
 20
207.75
 11
-30.875
 21
207.75
  0
LINE
  8
0
  6
CENTER
 62
     7
 10
-38.875
 20
175.25
 11
-27.875
 21
175.25
  0
LINE
  8
0
  6
CENTER
 62
     7
 10
-38.875
 20
205.25
 11
-27.875
 21
205.25
  0
LINE
  8
0
  6
CENTER
 62
     7
 10
-43.974998
 20
155.25
 11
-27.975
 21
155.25
  0
LINE
  8
0
  6
DASHED
 62
     7
 10
-92.865005
 20
101.14829
 11
-92.865005
 21
96.648293
  0
LINE
  8
0
  6
DASHED
 62
     7
 10
-100.86501
 20
101.14829
 11
-100.86501
 21
96.648293
  0
LINE
  8
0
  6
DASHED
 62
     7
 10
-92.865005
 20
101.14829
 11
-100.86501
 21
101.14829
  0
LINE
  8
0
  6
DASHED
 62
     7
 10
-94.715004
 20
106.64829
 11
-94.715004
 21
101.14829
  0
LINE
  8
0
  6
DASHED
 62
     7
 10
-99.015007
 20
106.64829
 11
-99.015007
 21
101.14829
  0
LINE
  8
0
  6
CONTINUOUS
 62
     7
 10
-140.86501
 20
106.64829
 11
-140.86501
 21
96.648293
  0
LINE
  8
0
  6
CENTER
 62
     7
 10
-134.86501
 20
109.64829
 11
-134.86501
 21
93.648293
  0
LINE
  8
0
  6
CENTER
 62
     7
 10
-96.865005
 20
109.64829
 11
-96.865005
 21
93.648293
  0
LINE
  8
0
  6
CONTINUOUS
 62
     7
 10
-90.865005
 20
106.64829
 11
-90.865005
 21
96.648293
  0
LINE
  8
0
  6
CONTINUOUS
 62
     7
 10
-140.86501
 20
96.648293
 11
-90.865005
 21
96.648293
  0
LINE
  8
0
  6
CONTINUOUS
 62
     7
 10
-140.86501
 20
106.64829
 11
-90.865005
 21
106.64829
  0
LINE
  8
0
  6
DASHED
 62
     7
 10
-140.86501
 20
101.64829
 11
-90.865005
 21
101.64829
  0
LINE
  8
0
  6
DASHED
 62
     7
 10
-40.875
 20
153.10001
 11
-35.375
 21
153.10001
  0
LINE
  8
0
  6
DASHED
 62
     7
 10
-35.375
 20
151.25
 11
-30.875
 21
151.25
  0
LINE
  8
0
  6
DASHED
 62
     7
 10
-35.375
 20
159.25
 11
-35.375
 21
151.25
  0
LINE
  8
0
  6
DASHED
 62
     7
 10
-35.375
 20
159.25
 11
-30.875
 21
159.25
  0
LINE
  8
0
  6
DASHED
 62
     7
 10
-40.875
 20
157.39999
 11
-35.375
 21
157.39999
  0
LINE
  8
0
  6
DASHED
 62
     7
 10
-137.015
 20
106.64829
 11
-137.015
 21
101.14829
  0
LINE
  8
0
  6
DASHED
 62
     7
 10
-138.86501
 20
101.14829
 11
-138.86501
 21
96.648293
  0
LINE
  8
0
  6
DASHED
 62
     7
 10
-130.86501
 20
101.14829
 11
-138.86501
 21
101.14829
  0
LINE
  8
0
  6
DASHED
 62
     7
 10
-130.86501
 20
101.14829
 11
-130.86501
 21
96.648293
  0
LINE
  8
0
  6
DASHED
 62
     7
 10
-132.71501
 20
106.64829
 11
-132.71501
 21
101.14829
  0
LINE
  8
0
  6
CONTINUOUS
 62
     7
 10
-177
 20
-0.19999981
 11
0
 21
-0.19999981
  0
LINE
  8
0
  6
CONTINUOUS
 62
     7
 10
-177
 20
274.29999
 11
-177
 21
-0.19999981
  0
LINE
  8
0
  6
CONTINUOUS
 62
     7
 10
-177
 20
-0.39999962
 11
-1.6000032
 21
-0.39999962
  0
LINE
  8
0
  6
CONTINUOUS
 62
     7
 10
-177.2
 20
274.29999
 11
-177.2
 21
-0.19999981
  0
LINE
  8
0
  6
CONTINUOUS
 62
     7
 10
0
 20
274.29999
 11
0
 21
0
  0
LINE
  8
0
  6
CONTINUOUS
 62
     7
 10
-0.20000005
 20
274.29999
 11
-0.20000005
 21
0
  0
LINE
  8
0
  6
CONTINUOUS
 62
     7
 10
-177
 20
274.29999
 11
0
 21
274.29999
  0
LINE
  8
0
  6
CONTINUOUS
 62
     7
 10
-177
 20
274.5
 11
0
 21
274.5
  0
LINE
  8
0
  6
CONTINUOUS
 62
     7
 10
-61.799999
 20
38.299999
 11
-61.799999
 21
0
  0
LINE
  8
0
  6
CONTINUOUS
 62
     7
 10
-61.799999
 20
12.3
 11
0
 21
12.3
  0
LINE
  8
0
  6
CONTINUOUS
 62
     7
 10
-61.799999
 20
24.799999
 11
0
 21
24.799999
  0
LINE
  8
0
  6
CONTINUOUS
 62
     7
 10
-61.799999
 20
38.299999
 11
0
 21
38.299999
  0
ARC
  8
0
  6
CONTINUOUS
 62
     7
 10
-96.865005
 20
175.25
 40
2.5
 50
179.99999
 51
360
  0
ARC
  8
0
  6
CONTINUOUS
 62
     7
 10
-96.865005
 20
205.25
 40
2.5
 50
0
 51
180.00001
  0
CIRCLE
  8
0
  6
CONTINUOUS
 62
     7
 10
-96.865005
 20
155.25
 40
2.1500001
  0
CIRCLE
  8
0
  6
DASHED
 62
     7
 10
-96.865005
 20
155.25
 40
4
  0
CIRCLE
  8
0
  6
DASHED
 62
     7
 10
-134.86501
 20
155.25
 40
4
  0
ARC
  8
0
  6
CONTINUOUS
 62
     7
 10
-134.86501
 20
175.25
 40
2.5
 50
180.00001
 51
360
  0
ARC
  8
0
  6
CONTINUOUS
 62
     7
 10
-134.86501
 20
205.25
 40
2.5
 50
0
 51
180.00001
  0
CIRCLE
  8
0
  6
CONTINUOUS
 62
     7
 10
-134.86501
 20
155.25
 40
2.1500001
  0
TEXT
  8
0
  6
CONTINUOUS
 62
     7
 10
-49.687732
 20
32.964265
 40
4.8000002
 41
0.84556534
  1
ミニシリンダー用
  0
TEXT
  8
0
  6
CONTINUOUS
 62
     7
 10
-49.687732
 20
25.764265
 40
4.8000002
 41
0.84556534
  1
スライドプレート
  0
TEXT
  8
0
  6
CONTINUOUS
 62
     7
 10
-57.115903
 20
15.445945
 40
4.8000002
 41
0.84409461
  1
ＣＰ－０３０（１０Ｈ）
  0
TEXT
  8
0
  6
CONTINUOUS
 62
     7
 10
-45.57224
 20
2.8966393
 40
4.8000002
 41
0.84741096
  1
３７０７９３
  0
ENDSEC
  0
EOF
