  0
SECTION
  2
HEADER
  9
$EXTMAX
 10
1.2182922
 20
274.528
 30
0
  9
$EXTMIN
 10
-177.2301
 20
-1.0560455
 30
0
  9
$LIMMAX
 10
1.2182922
 20
274.528
  9
$LIMMIN
 10
-177.2301
 20
-1.0560455
  9
$PLIMMAX
 10
1.2182922
 20
274.528
  9
$PLIMMIN
 10
-177.2301
 20
-1.0560455
  9
$PEXTMAX
 10
1.2182922
 20
274.528
 30
0
  9
$PEXTMIN
 10
-177.2301
 20
-1.0560455
 30
0
  9
$TEXTSIZE
 40
3.2
  9
$DIMSHO
 70
     0
  9
$DIMASZ
 40
1.0
  9
$DIMTAD
 70
     1
  9
$DIMTIH
 70
     0
  9
$DIMTOH
 70
     0
  9
$DIMEXE
 40
2.54
  9
$DIMEXO
 40
2.54
  9
$DIMTVP
 40
1.0
  9
$DIMSAH
 70
     1
  9
$DIMDLE
 40
0.0
  9
$DIMTXT
 40
3.2
  9
$DIMGAP
 40
1.6
  0
ENDSEC
  0
SECTION
  2
TABLES
  0
TABLE
  2
LTYPE
 70
     39
  0
LTYPE
  2
CONTINUOUS
 70
    64
  3
Solid line
 72
    65
 73
     0
 40
0.0
  0
LTYPE
  2
ACAD_ISO02W100
 70
     0
  3
ISO dash __ __ __ __ __ __ __ __ __ __ __ __ __
 72
    65
 73
     2
 40
15.0
 49
12.0
 49
-3.0
  0
LTYPE
  2
ACAD_ISO03W100
 70
     0
  3
ISO dash space __    __    __    __    __    __
 72
    65
 73
     2
 40
30.0
 49
12.0
 49
-18.0
  0
LTYPE
  2
ACAD_ISO04W100
 70
     0
  3
ISO long-dash dot ____ . ____ . ____ . ____ . _
 72
    65
 73
     4
 40
30.0
 49
24.0
 49
-3.0
 49
0.0
 49
-3.0
  0
LTYPE
  2
ACAD_ISO05W100
 70
     0
  3
ISO long-dash double-dot ____ .. ____ .. ____ .
 72
    65
 73
     6
 40
33.0
 49
24.0
 49
-3.0
 49
0.0
 49
-3.0
 49
0.0
 49
-3.0
  0
LTYPE
  2
ACAD_ISO06W100
 70
     0
  3
ISO long-dash triple-dot ____ ... ____ ... ____
 72
    65
 73
     8
 40
36.0
 49
24.0
 49
-3.0
 49
0.0
 49
-3.0
 49
0.0
 49
-3.0
 49
0.0
 49
-3.0
  0
LTYPE
  2
ACAD_ISO07W100
 70
     0
  3
ISO dot . . . . . . . . . . . . . . . . . . . .
 72
    65
 73
     2
 40
3.0
 49
0.0
 49
-3.0
  0
LTYPE
  2
ACAD_ISO08W100
 70
     0
  3
ISO long-dash short-dash ____ __ ____ __ ____ _
 72
    65
 73
     4
 40
36.0
 49
24.0
 49
-3.0
 49
6.0
 49
-3.0
  0
LTYPE
  2
ACAD_ISO09W100
 70
     0
  3
ISO long-dash double-short-dash ____ __ __ ____
 72
    65
 73
     6
 40
45.0
 49
24.0
 49
-3.0
 49
6.0
 49
-3.0
 49
6.0
 49
-3.0
  0
LTYPE
  2
ACAD_ISO10W100
 70
     0
  3
ISO dash dot __ . __ . __ . __ . __ . __ . __ .
 72
    65
 73
     4
 40
18.0
 49
12.0
 49
-3.0
 49
0.0
 49
-3.0
  0
LTYPE
  2
ACAD_ISO11W100
 70
     0
  3
ISO double-dash dot __ __ . __ __ . __ __ . __ 
 72
    65
 73
     6
 40
33.0
 49
12.0
 49
-3.0
 49
12.0
 49
-3.0
 49
0.0
 49
-3.0
  0
LTYPE
  2
ACAD_ISO12W100
 70
     0
  3
ISO dash double-dot __ . . __ . . __ . . __ . .
 72
    65
 73
     6
 40
21.0
 49
12.0
 49
-3.0
 49
0.0
 49
-3.0
 49
0.0
 49
-3.0
  0
LTYPE
  2
ACAD_ISO13W100
 70
     0
  3
ISO double-dash double-dot __ __ . . __ __ . . 
 72
    65
 73
     8
 40
36.0
 49
12.0
 49
-3.0
 49
12.0
 49
-3.0
 49
0.0
 49
-3.0
 49
0.0
 49
-3.0
  0
LTYPE
  2
ACAD_ISO14W100
 70
     0
  3
ISO dash triple-dot __ . . . __ . . . __ . . . 
 72
    65
 73
     8
 40
24.0
 49
12.0
 49
-3.0
 49
0.0
 49
-3.0
 49
0.0
 49
-3.0
 49
0.0
 49
-3.0
  0
LTYPE
  2
ACAD_ISO15W100
 70
     0
  3
ISO double-dash triple-dot __ __ . . . __ __ . 
 72
    65
 73
    10
 40
39.0
 49
12.0
 49
-3.0
 49
12.0
 49
-3.0
 49
0.0
 49
-3.0
 49
0.0
 49
-3.0
 49
0.0
 49
-3.0
  0
LTYPE
  2
BORDER
 70
    64
  3
Border __ __ . __ __ . __ __ . __ __ . __ __ .
 72
    65
 73
     6
 40
3.5
 49
1.0
 49
-0.5
 49
1.0
 49
-0.5
 49
0.0
 49
-0.5
  0
LTYPE
  2
BORDER2
 70
    64
  3
Border (.5x) __.__.__.__.__.__.__.__.__.__.__.
 72
    65
 73
     6
 40
1.75
 49
0.5
 49
-0.25
 49
0.5
 49
-0.25
 49
0.0
 49
-0.25
  0
LTYPE
  2
BORDERX2
 70
    64
  3
Border (2x) ____  ____  .  ____  ____  .  ___
 72
    65
 73
     6
 40
7.0
 49
2.0
 49
-1.0
 49
2.0
 49
-1.0
 49
0.0
 49
-1.0
  0
LTYPE
  2
CENTER
 70
    64
  3
Center ____ _ ____ _ ____ _ ____ _ ____ _ ____
 72
    65
 73
     4
 40
12.0
 49
7.5
 49
-1.5
 49
1.5
 49
-1.5
  0
LTYPE
  2
CENTER2
 70
    64
  3
Center (.5x) ___ _ ___ _ ___ _ ___ _ ___ _ ___
 72
    65
 73
     4
 40
6.0
 49
3.75
 49
-0.75
 49
0.75
 49
-0.75
  0
LTYPE
  2
CENTERX2
 70
    64
  3
Center (2x) ________  __  ________  __  _____
 72
    65
 73
     4
 40
24.0
 49
15.0
 49
-3.0
 49
3.0
 49
-3.0
  0
LTYPE
  2
DASHDOT
 70
    64
  3
Dash dot __ . __ . __ . __ . __ . __ . __ . __
 72
    65
 73
     4
 40
6.0
 49
3.0
 49
-1.5
 49
0.0
 49
-1.5
  0
LTYPE
  2
DASHDOT2
 70
    64
  3
Dash dot (.5x) _._._._._._._._._._._._._._._.
 72
    65
 73
     4
 40
3.0
 49
1.5
 49
-0.75
 49
0.0
 49
-0.75
  0
LTYPE
  2
DASHDOTX2
 70
    64
  3
Dash dot (2x) ____  .  ____  .  ____  .  ___
 72
    65
 73
     4
 40
12.0
 49
6.0
 49
-3.0
 49
0.0
 49
-3.0
  0
LTYPE
  2
DASHED
 70
    64
  3
Dashed __ __ __ __ __ __ __ __ __ __ __ __ __ _
 72
    65
 73
     2
 40
4.5
 49
3.0
 49
-1.5
  0
LTYPE
  2
DASHED2
 70
    64
  3
Dashed (.5x) _ _ _ _ _ _ _ _ _ _ _ _ _ _ _ _ _
 72
    65
 73
     2
 40
2.25
 49
1.5
 49
-0.75
  0
LTYPE
  2
DASHEDX2
 70
    64
  3
Dashed (2x) ____  ____  ____  ____  ____  ___
 72
    65
 73
     2
 40
9.0
 49
6.0
 49
-3.0
  0
LTYPE
  2
DIVIDE
 70
    64
  3
Divide ____ . . ____ . . ____ . . ____ . . ____
 72
    65
 73
     6
 40
7.5
 49
3.0
 49
-1.5
 49
0.0
 49
-1.5
 49
0.0
 49
-1.5
  0
LTYPE
  2
DIVIDE2
 70
    64
  3
Divide (.5x) __..__..__..__..__..__..__..__.._
 72
    65
 73
     6
 40
3.75
 49
1.5
 49
-0.75
 49
0.0
 49
-0.75
 49
0.0
 49
-0.75
  0
LTYPE
  2
DIVIDEX2
 70
    64
  3
Divide (2x) ________  .  .  ________  .  .  _
 72
    65
 73
     6
 40
15.0
 49
6.0
 49
-3.0
 49
0.0
 49
-3.0
 49
0.0
 49
-3.0
  0
LTYPE
  2
DOT
 70
    64
  3
Dot . . . . . . . . . . . . . . . . . . . . . .
 72
    65
 73
     2
 40
1.5
 49
0.0
 49
-1.5
  0
LTYPE
  2
DOT2
 70
    64
  3
Dot (.5x) .....................................
 72
    65
 73
     2
 40
0.75
 49
0.0
 49
-0.75
  0
LTYPE
  2
DOTX2
 70
    64
  3
Dot (2x) .  .  .  .  .  .  .  .  .  .  .  .  . 
 72
    65
 73
     2
 40
3.0
 49
0.0
 49
-3.0
  0
LTYPE
  2
HIDDEN
 70
    64
  3
Hidden __ __ __ __ __ __ __ __ __ __ __ __ __ _
 72
    65
 73
     2
 40
4.5
 49
3.0
 49
-1.5
  0
LTYPE
  2
HIDDEN2
 70
    64
  3
Hidden (.5x) _ _ _ _ _ _ _ _ _ _ _ _ _ _ _ _ _
 72
    65
 73
     2
 40
2.25
 49
1.5
 49
-0.75
  0
LTYPE
  2
HIDDENX2
 70
    64
  3
Hidden (2x) ____ ____ ____ ____ ____ ____ ____
 72
    65
 73
     2
 40
9.0
 49
6.0
 49
-3.0
  0
LTYPE
  2
PHANTOM
 70
    64
  3
Phantom ______  __  __  ______  __  __  ______
 72
    65
 73
     6
 40
15.0
 49
7.5
 49
-1.5
 49
1.5
 49
-1.5
 49
1.5
 49
-1.5
  0
LTYPE
  2
PHANTOM2
 70
    64
  3
Phantom (.5x) ___ _ _ ___ _ _ ___ _ _ ___ _ _
 72
    65
 73
     6
 40
7.5
 49
3.75
 49
-0.75
 49
0.75
 49
-0.75
 49
0.75
 49
-0.75
  0
LTYPE
  2
PHANTOMX2
 70
    64
  3
Phantom (2x) ____________    ____    ____   _
 72
    65
 73
     6
 40
30.0
 49
15.0
 49
-3.0
 49
3.0
 49
-3.0
 49
3.0
 49
-3.0
  0
ENDTAB
  0
TABLE
  2
LAYER
 70
     1
  0
LAYER
  2
0
 70
     0
 62
     7
  6
CONTINUOUS
  0
ENDTAB
  0
TABLE
  2
STYLE
 70
     1
  0
STYLE
  2
STANDARD
 70
     0
 40
0.0
 41
1.0
 50
0.0
 71
     0
 42
0.2
  3
txt
  4
BIGFONT
  0
ENDTAB
  0
TABLE
  2
DIMSTYLE
 70
     0
  0
ENDTAB
  0
ENDSEC
  0
SECTION
  2
BLOCKS
  0
ENDSEC
  0
SECTION
  2
ENTITIES
  0
LINE
  8
0
  6
CONTINUOUS
 62
     7
 10
-132.69928
 20
134.29407
 11
-82.699287
 21
134.29407
  0
LINE
  8
0
  6
CONTINUOUS
 62
     7
 10
-132.69928
 20
142.29407
 11
-82.699287
 21
142.29407
  0
LINE
  8
0
  6
CONTINUOUS
 62
     7
 10
-132.69928
 20
134.29407
 11
-132.69928
 21
142.29407
  0
LINE
  8
0
  6
CONTINUOUS
 62
     7
 10
-82.699287
 20
134.29407
 11
-82.699287
 21
142.29407
  0
LINE
  8
0
  6
CENTER
 62
     7
 10
-107.69929
 20
130.76193
 11
-107.69929
 21
144.7715
  0
LINE
  8
0
  6
CONTINUOUS
 62
     7
 10
-132.69928
 20
137.49406
 11
-82.699287
 21
137.49406
  0
LINE
  8
0
  6
CONTINUOUS
 62
     7
 10
-113.69929
 20
134.29407
 11
-113.69929
 21
135.09409
  0
LINE
  8
0
  6
CONTINUOUS
 62
     7
 10
-101.69929
 20
134.29407
 11
-101.69929
 21
135.09409
  0
LINE
  8
0
  6
CONTINUOUS
 62
     7
 10
-113.69929
 20
135.09409
 11
-101.69929
 21
135.09409
  0
LINE
  8
0
  6
CONTINUOUS
 62
     7
 10
-111.69929
 20
137.49406
 11
-111.69929
 21
142.29407
  0
LINE
  8
0
  6
CONTINUOUS
 62
     7
 10
-103.69929
 20
137.49406
 11
-103.69929
 21
142.29407
  0
LINE
  8
0
  6
CONTINUOUS
 62
     7
 10
-109.79929
 20
135.09409
 11
-109.79929
 21
137.49406
  0
LINE
  8
0
  6
CONTINUOUS
 62
     7
 10
-105.59929
 20
135.09409
 11
-105.59929
 21
137.49406
  0
LINE
  8
0
  6
CONTINUOUS
 62
     7
 10
-36.747181
 20
203.62102
 11
-44.747185
 21
203.62102
  0
LINE
  8
0
  6
CONTINUOUS
 62
     7
 10
-36.747181
 20
173.62102
 11
-44.747185
 21
173.62102
  0
LINE
  8
0
  6
CONTINUOUS
 62
     7
 10
-36.747181
 20
203.62102
 11
-36.747181
 21
173.62102
  0
LINE
  8
0
  6
CONTINUOUS
 62
     7
 10
-39.947182
 20
203.62102
 11
-39.947182
 21
173.62102
  0
LINE
  8
0
  6
CONTINUOUS
 62
     7
 10
-44.747185
 20
203.62102
 11
-44.747185
 21
173.62102
  0
LINE
  8
0
  6
CENTER
 62
     7
 10
-33.747181
 20
188.62102
 11
-47.747185
 21
188.62102
  0
LINE
  8
0
  6
DASHED
 62
     7
 10
-37.547184
 20
191.67102
 11
-37.547184
 21
185.57101
  0
LINE
  8
0
  6
DASHED
 62
     7
 10
-36.747181
 20
191.67102
 11
-37.547184
 21
191.67102
  0
LINE
  8
0
  6
DASHED
 62
     7
 10
-36.747181
 20
185.57101
 11
-37.547184
 21
185.57101
  0
LINE
  8
0
  6
DASHED
 62
     7
 10
-37.547184
 20
186.52101
 11
-39.947182
 21
186.52101
  0
LINE
  8
0
  6
DASHED
 62
     7
 10
-37.547184
 20
190.72102
 11
-39.947182
 21
190.72102
  0
LINE
  8
0
  6
DASHED
 62
     7
 10
-39.947182
 20
184.62102
 11
-44.747185
 21
184.62102
  0
LINE
  8
0
  6
DASHED
 62
     7
 10
-39.947182
 20
192.62102
 11
-44.747185
 21
192.62102
  0
LINE
  8
0
  6
CENTER
 62
     7
 10
-122.69929
 20
130.76193
 11
-122.69929
 21
144.7715
  0
LINE
  8
0
  6
CONTINUOUS
 62
     7
 10
-119.69929
 20
134.29407
 11
-119.69929
 21
135.09409
  0
LINE
  8
0
  6
CONTINUOUS
 62
     7
 10
-125.69929
 20
134.29407
 11
-125.69929
 21
135.09409
  0
LINE
  8
0
  6
CONTINUOUS
 62
     7
 10
-125.69929
 20
135.09409
 11
-119.69929
 21
135.09409
  0
LINE
  8
0
  6
CONTINUOUS
 62
     7
 10
-124.79929
 20
135.09409
 11
-124.79929
 21
137.49406
  0
LINE
  8
0
  6
CONTINUOUS
 62
     7
 10
-120.59929
 20
135.09409
 11
-120.59929
 21
137.49406
  0
LINE
  8
0
  6
CONTINUOUS
 62
     7
 10
-126.69929
 20
137.49406
 11
-126.69929
 21
142.29407
  0
LINE
  8
0
  6
CONTINUOUS
 62
     7
 10
-118.69929
 20
137.49406
 11
-118.69929
 21
142.29407
  0
LINE
  8
0
  6
CONTINUOUS
 62
     7
 10
-130.69928
 20
78.621017
 11
-84.699287
 21
78.621017
  0
LINE
  8
0
  6
CONTINUOUS
 62
     7
 10
-130.69928
 20
108.62102
 11
-84.699287
 21
108.62102
  0
LINE
  8
0
  6
CONTINUOUS
 62
     7
 10
-132.69928
 20
106.62102
 11
-132.69928
 21
80.621017
  0
LINE
  8
0
  6
CONTINUOUS
 62
     7
 10
-82.699287
 20
106.62102
 11
-82.699287
 21
80.621017
  0
LINE
  8
0
  6
CENTER
 62
     7
 10
-107.69929
 20
113.04495
 11
-107.69929
 21
73.819702
  0
LINE
  8
0
  6
CENTER
 62
     7
 10
-135.60251
 20
93.621017
 11
-80.277855
 21
93.621017
  0
LINE
  8
0
  6
CONTINUOUS
 62
     7
 10
-110.64928
 20
96.671021
 11
-104.74929
 21
96.671021
  0
LINE
  8
0
  6
CONTINUOUS
 62
     7
 10
-110.64928
 20
90.571007
 11
-104.74929
 21
90.571007
  0
LINE
  8
0
  6
CONTINUOUS
 62
     7
 10
-119.69929
 20
96.621017
 11
-119.69929
 21
90.621017
  0
LINE
  8
0
  6
CONTINUOUS
 62
     7
 10
-125.69929
 20
96.621017
 11
-125.69929
 21
90.621017
  0
LINE
  8
0
  6
CENTER
 62
     7
 10
-122.69929
 20
104.62102
 11
-122.69929
 21
82.621017
  0
LINE
  8
0
  6
CONTINUOUS
 62
     7
 10
-130.69928
 20
173.62102
 11
-84.699287
 21
173.62102
  0
LINE
  8
0
  6
CONTINUOUS
 62
     7
 10
-130.69928
 20
203.62102
 11
-84.699287
 21
203.62102
  0
LINE
  8
0
  6
CONTINUOUS
 62
     7
 10
-132.69928
 20
201.62102
 11
-132.69928
 21
175.62102
  0
LINE
  8
0
  6
CONTINUOUS
 62
     7
 10
-82.699287
 20
201.62102
 11
-82.699287
 21
175.62102
  0
LINE
  8
0
  6
CONTINUOUS
 62
     7
 10
-87.199287
 20
202.12102
 11
-85.199287
 21
202.12102
  0
LINE
  8
0
  6
CONTINUOUS
 62
     7
 10
-87.199287
 20
175.12102
 11
-85.199287
 21
175.12102
  0
LINE
  8
0
  6
CONTINUOUS
 62
     7
 10
-87.199287
 20
194.12102
 11
-84.199287
 21
194.12102
  0
LINE
  8
0
  6
CONTINUOUS
 62
     7
 10
-87.199287
 20
195.12102
 11
-84.199287
 21
195.12102
  0
LINE
  8
0
  6
CONTINUOUS
 62
     7
 10
-87.199287
 20
198.12102
 11
-84.199287
 21
198.12102
  0
LINE
  8
0
  6
CONTINUOUS
 62
     7
 10
-87.199287
 20
199.12102
 11
-84.199287
 21
199.12102
  0
LINE
  8
0
  6
CONTINUOUS
 62
     7
 10
-87.199287
 20
190.12102
 11
-84.199287
 21
190.12102
  0
LINE
  8
0
  6
CONTINUOUS
 62
     7
 10
-87.199287
 20
191.12102
 11
-84.199287
 21
191.12102
  0
LINE
  8
0
  6
CONTINUOUS
 62
     7
 10
-87.199287
 20
186.12102
 11
-84.199287
 21
186.12102
  0
LINE
  8
0
  6
CONTINUOUS
 62
     7
 10
-87.199287
 20
187.12102
 11
-84.199287
 21
187.12102
  0
LINE
  8
0
  6
CONTINUOUS
 62
     7
 10
-87.199287
 20
182.12102
 11
-84.199287
 21
182.12102
  0
LINE
  8
0
  6
CONTINUOUS
 62
     7
 10
-87.199287
 20
183.12102
 11
-84.199287
 21
183.12102
  0
LINE
  8
0
  6
CONTINUOUS
 62
     7
 10
-87.199287
 20
178.12102
 11
-84.199287
 21
178.12102
  0
LINE
  8
0
  6
CONTINUOUS
 62
     7
 10
-87.199287
 20
179.12102
 11
-84.199287
 21
179.12102
  0
LINE
  8
0
  6
CONTINUOUS
 62
     7
 10
-84.949287
 20
201.37102
 11
-84.949287
 21
199.87102
  0
LINE
  8
0
  6
CONTINUOUS
 62
     7
 10
-86.449287
 20
201.37102
 11
-86.449287
 21
199.87102
  0
LINE
  8
0
  6
CONTINUOUS
 62
     7
 10
-86.449287
 20
199.87102
 11
-84.949287
 21
199.87102
  0
LINE
  8
0
  6
CONTINUOUS
 62
     7
 10
-86.449287
 20
201.37102
 11
-84.949287
 21
201.37102
  0
LINE
  8
0
  6
CONTINUOUS
 62
     7
 10
-86.449276
 20
199.87103
 11
-87.199286
 21
199.12102
  0
LINE
  8
0
  6
CONTINUOUS
 62
     7
 10
-86.449289
 20
201.37101
 11
-87.199293
 21
202.12102
  0
LINE
  8
0
  6
CONTINUOUS
 62
     7
 10
-84.949294
 20
199.87102
 11
-84.199288
 21
199.12101
  0
LINE
  8
0
  6
CONTINUOUS
 62
     7
 10
-84.94929
 20
201.37102
 11
-84.492177
 21
201.82813
  0
LINE
  8
0
  6
CONTINUOUS
 62
     7
 10
-86.449288
 20
175.87102
 11
-87.199294
 21
175.12102
  0
LINE
  8
0
  6
CONTINUOUS
 62
     7
 10
-86.449287
 20
175.87102
 11
-84.949287
 21
175.87102
  0
LINE
  8
0
  6
CONTINUOUS
 62
     7
 10
-84.94929
 20
175.87102
 11
-84.492187
 21
175.41392
  0
LINE
  8
0
  6
CONTINUOUS
 62
     7
 10
-84.949287
 20
177.37102
 11
-84.949287
 21
175.87102
  0
LINE
  8
0
  6
CONTINUOUS
 62
     7
 10
-86.449287
 20
177.37102
 11
-86.449287
 21
175.87102
  0
LINE
  8
0
  6
CONTINUOUS
 62
     7
 10
-86.449291
 20
177.37102
 11
-87.199287
 21
178.12101
  0
LINE
  8
0
  6
CONTINUOUS
 62
     7
 10
-86.449287
 20
177.37102
 11
-84.949287
 21
177.37102
  0
LINE
  8
0
  6
CONTINUOUS
 62
     7
 10
-84.949286
 20
177.37103
 11
-84.199288
 21
178.12102
  0
LINE
  8
0
  6
CONTINUOUS
 62
     7
 10
-86.449283
 20
179.87103
 11
-87.199292
 21
179.12102
  0
LINE
  8
0
  6
CONTINUOUS
 62
     7
 10
-86.449287
 20
179.87102
 11
-84.949287
 21
179.87102
  0
LINE
  8
0
  6
CONTINUOUS
 62
     7
 10
-84.949294
 20
179.87102
 11
-84.199288
 21
179.12101
  0
LINE
  8
0
  6
CONTINUOUS
 62
     7
 10
-84.949287
 20
181.37102
 11
-84.949287
 21
179.87102
  0
LINE
  8
0
  6
CONTINUOUS
 62
     7
 10
-86.449287
 20
181.37102
 11
-86.449287
 21
179.87102
  0
LINE
  8
0
  6
CONTINUOUS
 62
     7
 10
-86.449289
 20
181.37103
 11
-87.199295
 21
182.12103
  0
LINE
  8
0
  6
CONTINUOUS
 62
     7
 10
-86.449287
 20
181.37102
 11
-84.949287
 21
181.37102
  0
LINE
  8
0
  6
CONTINUOUS
 62
     7
 10
-84.949285
 20
181.37102
 11
-84.199281
 21
182.12103
  0
LINE
  8
0
  6
CONTINUOUS
 62
     7
 10
-86.449288
 20
183.87102
 11
-87.199286
 21
183.12102
  0
LINE
  8
0
  6
CONTINUOUS
 62
     7
 10
-86.449287
 20
183.87102
 11
-84.949287
 21
183.87102
  0
LINE
  8
0
  6
CONTINUOUS
 62
     7
 10
-84.949289
 20
183.87103
 11
-84.199283
 21
183.12102
  0
LINE
  8
0
  6
CONTINUOUS
 62
     7
 10
-84.949287
 20
185.37102
 11
-84.949287
 21
183.87102
  0
LINE
  8
0
  6
CONTINUOUS
 62
     7
 10
-86.449287
 20
185.37102
 11
-86.449287
 21
183.87102
  0
LINE
  8
0
  6
CONTINUOUS
 62
     7
 10
-86.449285
 20
185.37102
 11
-87.199291
 21
186.12102
  0
LINE
  8
0
  6
CONTINUOUS
 62
     7
 10
-86.449287
 20
185.37102
 11
-84.949287
 21
185.37102
  0
LINE
  8
0
  6
CONTINUOUS
 62
     7
 10
-84.94928
 20
185.37102
 11
-84.199277
 21
186.12101
  0
LINE
  8
0
  6
CONTINUOUS
 62
     7
 10
-86.449285
 20
187.87102
 11
-87.199283
 21
187.12102
  0
LINE
  8
0
  6
CONTINUOUS
 62
     7
 10
-86.449287
 20
187.87102
 11
-84.949287
 21
187.87102
  0
LINE
  8
0
  6
CONTINUOUS
 62
     7
 10
-84.949281
 20
187.87103
 11
-84.199285
 21
187.12103
  0
LINE
  8
0
  6
CONTINUOUS
 62
     7
 10
-84.949287
 20
189.37102
 11
-84.949287
 21
187.87102
  0
LINE
  8
0
  6
CONTINUOUS
 62
     7
 10
-86.449287
 20
189.37102
 11
-86.449287
 21
187.87102
  0
LINE
  8
0
  6
CONTINUOUS
 62
     7
 10
-86.44928
 20
189.37103
 11
-87.199286
 21
190.12103
  0
LINE
  8
0
  6
CONTINUOUS
 62
     7
 10
-86.449287
 20
189.37102
 11
-84.949287
 21
189.37102
  0
LINE
  8
0
  6
CONTINUOUS
 62
     7
 10
-84.949294
 20
189.37102
 11
-84.199295
 21
190.12103
  0
LINE
  8
0
  6
CONTINUOUS
 62
     7
 10
-86.449293
 20
191.87103
 11
-87.199286
 21
191.12103
  0
LINE
  8
0
  6
CONTINUOUS
 62
     7
 10
-86.449287
 20
191.87102
 11
-84.949287
 21
191.87102
  0
LINE
  8
0
  6
CONTINUOUS
 62
     7
 10
-84.949294
 20
191.87102
 11
-84.199298
 21
191.12103
  0
LINE
  8
0
  6
CONTINUOUS
 62
     7
 10
-84.949287
 20
193.37102
 11
-84.949287
 21
191.87102
  0
LINE
  8
0
  6
CONTINUOUS
 62
     7
 10
-86.449287
 20
193.37102
 11
-86.449287
 21
191.87102
  0
LINE
  8
0
  6
CONTINUOUS
 62
     7
 10
-86.449297
 20
193.37102
 11
-87.199293
 21
194.12102
  0
LINE
  8
0
  6
CONTINUOUS
 62
     7
 10
-86.449287
 20
193.37102
 11
-84.949287
 21
193.37102
  0
LINE
  8
0
  6
CONTINUOUS
 62
     7
 10
-84.949292
 20
193.37103
 11
-84.199295
 21
194.12103
  0
LINE
  8
0
  6
CONTINUOUS
 62
     7
 10
-86.449278
 20
195.87102
 11
-87.199287
 21
195.12101
  0
LINE
  8
0
  6
CONTINUOUS
 62
     7
 10
-86.449287
 20
195.87102
 11
-84.949287
 21
195.87102
  0
LINE
  8
0
  6
CONTINUOUS
 62
     7
 10
-84.949289
 20
195.87102
 11
-84.199297
 21
195.12102
  0
LINE
  8
0
  6
CONTINUOUS
 62
     7
 10
-84.949287
 20
197.37102
 11
-84.949287
 21
195.87102
  0
LINE
  8
0
  6
CONTINUOUS
 62
     7
 10
-86.449287
 20
197.37102
 11
-86.449287
 21
195.87102
  0
LINE
  8
0
  6
CONTINUOUS
 62
     7
 10
-86.449289
 20
197.37101
 11
-87.199295
 21
198.12102
  0
LINE
  8
0
  6
CONTINUOUS
 62
     7
 10
-86.449287
 20
197.37102
 11
-84.949287
 21
197.37102
  0
LINE
  8
0
  6
CONTINUOUS
 62
     7
 10
-84.949284
 20
197.37103
 11
-84.199292
 21
198.12102
  0
LINE
  8
0
  6
CONTINUOUS
 62
     7
 10
-87.199287
 20
178.12102
 11
-87.199287
 21
175.12102
  0
LINE
  8
0
  6
CONTINUOUS
 62
     7
 10
-84.199287
 20
178.12102
 11
-84.199287
 21
176.12102
  0
LINE
  8
0
  6
CONTINUOUS
 62
     7
 10
-84.199287
 20
182.12102
 11
-84.199287
 21
179.12102
  0
LINE
  8
0
  6
CONTINUOUS
 62
     7
 10
-87.199287
 20
182.12102
 11
-87.199287
 21
179.12102
  0
LINE
  8
0
  6
CONTINUOUS
 62
     7
 10
-84.199287
 20
186.18565
 11
-84.199287
 21
183.12102
  0
LINE
  8
0
  6
CONTINUOUS
 62
     7
 10
-87.199287
 20
186.18565
 11
-87.199287
 21
183.12102
  0
LINE
  8
0
  6
CONTINUOUS
 62
     7
 10
-84.199287
 20
190.12102
 11
-84.199287
 21
187.12102
  0
LINE
  8
0
  6
CONTINUOUS
 62
     7
 10
-87.199287
 20
190.12102
 11
-87.199287
 21
187.12102
  0
LINE
  8
0
  6
CONTINUOUS
 62
     7
 10
-84.199287
 20
194.12102
 11
-84.199287
 21
191.12102
  0
LINE
  8
0
  6
CONTINUOUS
 62
     7
 10
-87.199287
 20
194.12102
 11
-87.199287
 21
191.12102
  0
LINE
  8
0
  6
CONTINUOUS
 62
     7
 10
-84.199287
 20
198.12102
 11
-84.199287
 21
195.12102
  0
LINE
  8
0
  6
CONTINUOUS
 62
     7
 10
-87.199287
 20
198.12102
 11
-87.199287
 21
195.12102
  0
LINE
  8
0
  6
CONTINUOUS
 62
     7
 10
-84.199287
 20
201.12102
 11
-84.199287
 21
199.12102
  0
LINE
  8
0
  6
CONTINUOUS
 62
     7
 10
-87.199287
 20
202.12102
 11
-87.199287
 21
199.12102
  0
LINE
  8
0
  6
CONTINUOUS
 62
     7
 10
-107.19929
 20
202.12102
 11
-107.19929
 21
199.12102
  0
LINE
  8
0
  6
CONTINUOUS
 62
     7
 10
-107.19929
 20
202.12102
 11
-104.19929
 21
202.12102
  0
LINE
  8
0
  6
CONTINUOUS
 62
     7
 10
-107.19929
 20
175.12102
 11
-104.19929
 21
175.12102
  0
LINE
  8
0
  6
CONTINUOUS
 62
     7
 10
-107.19929
 20
194.12102
 11
-104.19929
 21
194.12102
  0
LINE
  8
0
  6
CONTINUOUS
 62
     7
 10
-107.19929
 20
195.12102
 11
-104.19929
 21
195.12102
  0
LINE
  8
0
  6
CONTINUOUS
 62
     7
 10
-107.19929
 20
198.12102
 11
-104.19929
 21
198.12102
  0
LINE
  8
0
  6
CONTINUOUS
 62
     7
 10
-107.19929
 20
199.12102
 11
-104.19929
 21
199.12102
  0
LINE
  8
0
  6
CONTINUOUS
 62
     7
 10
-104.57679
 20
191.12102
 11
-104.19929
 21
191.12102
  0
LINE
  8
0
  6
CONTINUOUS
 62
     7
 10
-104.57679
 20
186.12102
 11
-104.19929
 21
186.12102
  0
LINE
  8
0
  6
CONTINUOUS
 62
     7
 10
-107.19929
 20
182.12102
 11
-104.19929
 21
182.12102
  0
LINE
  8
0
  6
CONTINUOUS
 62
     7
 10
-107.19929
 20
183.12102
 11
-104.19929
 21
183.12102
  0
LINE
  8
0
  6
CONTINUOUS
 62
     7
 10
-107.19929
 20
178.12102
 11
-104.19929
 21
178.12102
  0
LINE
  8
0
  6
CONTINUOUS
 62
     7
 10
-107.19929
 20
179.12102
 11
-104.19929
 21
179.12102
  0
LINE
  8
0
  6
CONTINUOUS
 62
     7
 10
-104.94929
 20
201.37102
 11
-104.94929
 21
199.87102
  0
LINE
  8
0
  6
CONTINUOUS
 62
     7
 10
-106.44929
 20
201.37102
 11
-106.44929
 21
199.87102
  0
LINE
  8
0
  6
CONTINUOUS
 62
     7
 10
-106.44929
 20
199.87102
 11
-104.94929
 21
199.87102
  0
LINE
  8
0
  6
CONTINUOUS
 62
     7
 10
-106.44929
 20
201.37102
 11
-104.94929
 21
201.37102
  0
LINE
  8
0
  6
CONTINUOUS
 62
     7
 10
-106.44928
 20
199.87104
 11
-107.19929
 21
199.12102
  0
LINE
  8
0
  6
CONTINUOUS
 62
     7
 10
-106.44929
 20
201.37102
 11
-107.1993
 21
202.12103
  0
LINE
  8
0
  6
CONTINUOUS
 62
     7
 10
-104.94929
 20
199.87102
 11
-104.19929
 21
199.12101
  0
LINE
  8
0
  6
CONTINUOUS
 62
     7
 10
-104.94929
 20
201.37101
 11
-104.19928
 21
202.12103
  0
LINE
  8
0
  6
CONTINUOUS
 62
     7
 10
-106.44928
 20
175.87102
 11
-107.19928
 21
175.12102
  0
LINE
  8
0
  6
CONTINUOUS
 62
     7
 10
-106.44929
 20
175.87102
 11
-104.94929
 21
175.87102
  0
LINE
  8
0
  6
CONTINUOUS
 62
     7
 10
-104.94929
 20
175.87102
 11
-104.1993
 21
175.12102
  0
LINE
  8
0
  6
CONTINUOUS
 62
     7
 10
-104.94929
 20
177.37102
 11
-104.94929
 21
175.87102
  0
LINE
  8
0
  6
CONTINUOUS
 62
     7
 10
-106.44929
 20
177.37102
 11
-106.44929
 21
175.87102
  0
LINE
  8
0
  6
CONTINUOUS
 62
     7
 10
-106.4493
 20
177.37102
 11
-107.19929
 21
178.12102
  0
LINE
  8
0
  6
CONTINUOUS
 62
     7
 10
-106.44929
 20
177.37102
 11
-104.94929
 21
177.37102
  0
LINE
  8
0
  6
CONTINUOUS
 62
     7
 10
-104.94929
 20
177.37102
 11
-104.19929
 21
178.12102
  0
LINE
  8
0
  6
CONTINUOUS
 62
     7
 10
-106.44928
 20
179.87102
 11
-107.19928
 21
179.12102
  0
LINE
  8
0
  6
CONTINUOUS
 62
     7
 10
-106.44929
 20
179.87102
 11
-104.94929
 21
179.87102
  0
LINE
  8
0
  6
CONTINUOUS
 62
     7
 10
-104.94929
 20
179.87102
 11
-104.19929
 21
179.12102
  0
LINE
  8
0
  6
CONTINUOUS
 62
     7
 10
-104.94929
 20
181.37102
 11
-104.94929
 21
179.87102
  0
LINE
  8
0
  6
CONTINUOUS
 62
     7
 10
-106.44929
 20
181.37102
 11
-106.44929
 21
179.87102
  0
LINE
  8
0
  6
CONTINUOUS
 62
     7
 10
-106.44928
 20
181.37102
 11
-107.19928
 21
182.12102
  0
LINE
  8
0
  6
CONTINUOUS
 62
     7
 10
-106.44929
 20
181.37102
 11
-104.94929
 21
181.37102
  0
LINE
  8
0
  6
CONTINUOUS
 62
     7
 10
-104.94929
 20
181.37104
 11
-104.19929
 21
182.12103
  0
LINE
  8
0
  6
CONTINUOUS
 62
     7
 10
-106.44929
 20
183.87102
 11
-107.19929
 21
183.12102
  0
LINE
  8
0
  6
CONTINUOUS
 62
     7
 10
-106.44929
 20
183.87102
 11
-104.94929
 21
183.87102
  0
LINE
  8
0
  6
CONTINUOUS
 62
     7
 10
-104.94929
 20
183.87103
 11
-104.19928
 21
183.12102
  0
LINE
  8
0
  6
CONTINUOUS
 62
     7
 10
-104.94929
 20
185.37102
 11
-104.94929
 21
183.87102
  0
LINE
  8
0
  6
CONTINUOUS
 62
     7
 10
-106.44929
 20
184.82135
 11
-106.44929
 21
183.87102
  0
LINE
  8
0
  6
CONTINUOUS
 62
     7
 10
-105.36744
 20
185.37102
 11
-104.94929
 21
185.37102
  0
LINE
  8
0
  6
CONTINUOUS
 62
     7
 10
-104.94929
 20
185.37102
 11
-104.19928
 21
186.12102
  0
LINE
  8
0
  6
CONTINUOUS
 62
     7
 10
-105.36744
 20
191.87102
 11
-104.94929
 21
191.87102
  0
LINE
  8
0
  6
CONTINUOUS
 62
     7
 10
-104.9493
 20
191.87102
 11
-104.19929
 21
191.12102
  0
LINE
  8
0
  6
CONTINUOUS
 62
     7
 10
-104.94929
 20
193.37102
 11
-104.94929
 21
191.87102
  0
LINE
  8
0
  6
CONTINUOUS
 62
     7
 10
-106.44929
 20
193.37102
 11
-106.44929
 21
192.4207
  0
LINE
  8
0
  6
CONTINUOUS
 62
     7
 10
-106.44929
 20
193.37102
 11
-107.1993
 21
194.12102
  0
LINE
  8
0
  6
CONTINUOUS
 62
     7
 10
-106.44929
 20
193.37102
 11
-104.94929
 21
193.37102
  0
LINE
  8
0
  6
CONTINUOUS
 62
     7
 10
-104.94929
 20
193.37103
 11
-104.1993
 21
194.12102
  0
LINE
  8
0
  6
CONTINUOUS
 62
     7
 10
-106.44929
 20
195.87102
 11
-107.19929
 21
195.12102
  0
LINE
  8
0
  6
CONTINUOUS
 62
     7
 10
-106.44929
 20
195.87102
 11
-104.94929
 21
195.87102
  0
LINE
  8
0
  6
CONTINUOUS
 62
     7
 10
-104.94929
 20
195.87102
 11
-104.19928
 21
195.12102
  0
LINE
  8
0
  6
CONTINUOUS
 62
     7
 10
-104.94929
 20
197.37102
 11
-104.94929
 21
195.87102
  0
LINE
  8
0
  6
CONTINUOUS
 62
     7
 10
-106.44929
 20
197.37102
 11
-106.44929
 21
195.87102
  0
LINE
  8
0
  6
CONTINUOUS
 62
     7
 10
-106.44929
 20
197.37102
 11
-107.19929
 21
198.12101
  0
LINE
  8
0
  6
CONTINUOUS
 62
     7
 10
-106.44929
 20
197.37102
 11
-104.94929
 21
197.37102
  0
LINE
  8
0
  6
CONTINUOUS
 62
     7
 10
-104.94928
 20
197.37103
 11
-104.19929
 21
198.12102
  0
LINE
  8
0
  6
CONTINUOUS
 62
     7
 10
-107.19929
 20
178.12102
 11
-107.19929
 21
175.12102
  0
LINE
  8
0
  6
CONTINUOUS
 62
     7
 10
-104.19929
 20
178.12102
 11
-104.19929
 21
175.12102
  0
LINE
  8
0
  6
CONTINUOUS
 62
     7
 10
-104.19929
 20
182.12102
 11
-104.19929
 21
179.12102
  0
LINE
  8
0
  6
CONTINUOUS
 62
     7
 10
-107.19929
 20
182.12102
 11
-107.19929
 21
179.12102
  0
LINE
  8
0
  6
CONTINUOUS
 62
     7
 10
-104.19929
 20
186.18565
 11
-104.19929
 21
183.12102
  0
LINE
  8
0
  6
CONTINUOUS
 62
     7
 10
-107.19929
 20
184.65239
 11
-107.19929
 21
183.12102
  0
LINE
  8
0
  6
CONTINUOUS
 62
     7
 10
-104.19929
 20
194.12102
 11
-104.19929
 21
191.12102
  0
LINE
  8
0
  6
CONTINUOUS
 62
     7
 10
-107.19929
 20
194.12102
 11
-107.19929
 21
192.58965
  0
LINE
  8
0
  6
CONTINUOUS
 62
     7
 10
-104.19929
 20
198.12102
 11
-104.19929
 21
195.12102
  0
LINE
  8
0
  6
CONTINUOUS
 62
     7
 10
-107.19929
 20
198.12102
 11
-107.19929
 21
195.12102
  0
LINE
  8
0
  6
CONTINUOUS
 62
     7
 10
-104.19929
 20
202.12102
 11
-104.19929
 21
199.12102
  0
LINE
  8
0
  6
CONTINUOUS
 62
     7
 10
-103.19929
 20
202.12102
 11
-103.19929
 21
199.12102
  0
LINE
  8
0
  6
CONTINUOUS
 62
     7
 10
-103.19929
 20
202.12102
 11
-100.19929
 21
202.12102
  0
LINE
  8
0
  6
CONTINUOUS
 62
     7
 10
-103.19929
 20
175.12102
 11
-100.19929
 21
175.12102
  0
LINE
  8
0
  6
CONTINUOUS
 62
     7
 10
-103.19929
 20
194.12102
 11
-100.19929
 21
194.12102
  0
LINE
  8
0
  6
CONTINUOUS
 62
     7
 10
-103.19929
 20
195.12102
 11
-100.19929
 21
195.12102
  0
LINE
  8
0
  6
CONTINUOUS
 62
     7
 10
-103.19929
 20
198.12102
 11
-100.19929
 21
198.12102
  0
LINE
  8
0
  6
CONTINUOUS
 62
     7
 10
-103.19929
 20
199.12102
 11
-100.19929
 21
199.12102
  0
LINE
  8
0
  6
CONTINUOUS
 62
     7
 10
-103.19929
 20
190.12102
 11
-100.19929
 21
190.12102
  0
LINE
  8
0
  6
CONTINUOUS
 62
     7
 10
-103.19929
 20
191.12102
 11
-100.19929
 21
191.12102
  0
LINE
  8
0
  6
CONTINUOUS
 62
     7
 10
-103.19929
 20
186.12102
 11
-100.19929
 21
186.12102
  0
LINE
  8
0
  6
CONTINUOUS
 62
     7
 10
-103.19929
 20
187.12102
 11
-100.19929
 21
187.12102
  0
LINE
  8
0
  6
CONTINUOUS
 62
     7
 10
-103.19929
 20
182.12102
 11
-100.19929
 21
182.12102
  0
LINE
  8
0
  6
CONTINUOUS
 62
     7
 10
-103.19929
 20
183.12102
 11
-100.19929
 21
183.12102
  0
LINE
  8
0
  6
CONTINUOUS
 62
     7
 10
-103.19929
 20
178.12102
 11
-100.19929
 21
178.12102
  0
LINE
  8
0
  6
CONTINUOUS
 62
     7
 10
-103.19929
 20
179.12102
 11
-100.19929
 21
179.12102
  0
LINE
  8
0
  6
CONTINUOUS
 62
     7
 10
-100.94929
 20
201.37102
 11
-100.94929
 21
199.87102
  0
LINE
  8
0
  6
CONTINUOUS
 62
     7
 10
-102.44929
 20
201.37102
 11
-102.44929
 21
199.87102
  0
LINE
  8
0
  6
CONTINUOUS
 62
     7
 10
-102.44929
 20
199.87102
 11
-100.94929
 21
199.87102
  0
LINE
  8
0
  6
CONTINUOUS
 62
     7
 10
-102.44929
 20
201.37102
 11
-100.94929
 21
201.37102
  0
LINE
  8
0
  6
CONTINUOUS
 62
     7
 10
-102.44928
 20
199.87102
 11
-103.19928
 21
199.12102
  0
LINE
  8
0
  6
CONTINUOUS
 62
     7
 10
-102.44929
 20
201.37102
 11
-103.19929
 21
202.12103
  0
LINE
  8
0
  6
CONTINUOUS
 62
     7
 10
-100.94929
 20
199.87102
 11
-100.19928
 21
199.12102
  0
LINE
  8
0
  6
CONTINUOUS
 62
     7
 10
-100.94929
 20
201.37102
 11
-100.19928
 21
202.12103
  0
LINE
  8
0
  6
CONTINUOUS
 62
     7
 10
-102.44929
 20
175.87102
 11
-103.19929
 21
175.12102
  0
LINE
  8
0
  6
CONTINUOUS
 62
     7
 10
-102.44929
 20
175.87102
 11
-100.94929
 21
175.87102
  0
LINE
  8
0
  6
CONTINUOUS
 62
     7
 10
-100.94929
 20
175.87102
 11
-100.19929
 21
175.12102
  0
LINE
  8
0
  6
CONTINUOUS
 62
     7
 10
-100.94929
 20
177.37102
 11
-100.94929
 21
175.87102
  0
LINE
  8
0
  6
CONTINUOUS
 62
     7
 10
-102.44929
 20
177.37102
 11
-102.44929
 21
175.87102
  0
LINE
  8
0
  6
CONTINUOUS
 62
     7
 10
-102.44928
 20
177.37101
 11
-103.19929
 21
178.12102
  0
LINE
  8
0
  6
CONTINUOUS
 62
     7
 10
-102.44929
 20
177.37102
 11
-100.94929
 21
177.37102
  0
LINE
  8
0
  6
CONTINUOUS
 62
     7
 10
-100.94929
 20
177.37103
 11
-100.19929
 21
178.12103
  0
LINE
  8
0
  6
CONTINUOUS
 62
     7
 10
-102.44929
 20
179.87103
 11
-103.19929
 21
179.12103
  0
LINE
  8
0
  6
CONTINUOUS
 62
     7
 10
-102.44929
 20
179.87102
 11
-100.94929
 21
179.87102
  0
LINE
  8
0
  6
CONTINUOUS
 62
     7
 10
-100.94928
 20
179.87101
 11
-100.19929
 21
179.12103
  0
LINE
  8
0
  6
CONTINUOUS
 62
     7
 10
-100.94929
 20
181.37102
 11
-100.94929
 21
179.87102
  0
LINE
  8
0
  6
CONTINUOUS
 62
     7
 10
-102.44929
 20
181.37102
 11
-102.44929
 21
179.87102
  0
LINE
  8
0
  6
CONTINUOUS
 62
     7
 10
-102.44929
 20
181.37103
 11
-103.19929
 21
182.12103
  0
LINE
  8
0
  6
CONTINUOUS
 62
     7
 10
-102.44929
 20
181.37102
 11
-100.94929
 21
181.37102
  0
LINE
  8
0
  6
CONTINUOUS
 62
     7
 10
-100.94928
 20
181.37102
 11
-100.19928
 21
182.12103
  0
LINE
  8
0
  6
CONTINUOUS
 62
     7
 10
-102.44929
 20
183.87102
 11
-103.19928
 21
183.12103
  0
LINE
  8
0
  6
CONTINUOUS
 62
     7
 10
-102.44929
 20
183.87102
 11
-100.94929
 21
183.87102
  0
LINE
  8
0
  6
CONTINUOUS
 62
     7
 10
-100.94928
 20
183.87102
 11
-100.19929
 21
183.12103
  0
LINE
  8
0
  6
CONTINUOUS
 62
     7
 10
-100.94929
 20
185.37102
 11
-100.94929
 21
183.87102
  0
LINE
  8
0
  6
CONTINUOUS
 62
     7
 10
-102.44929
 20
185.37102
 11
-102.44929
 21
183.87102
  0
LINE
  8
0
  6
CONTINUOUS
 62
     7
 10
-102.44929
 20
185.37103
 11
-103.19928
 21
186.12102
  0
LINE
  8
0
  6
CONTINUOUS
 62
     7
 10
-102.44929
 20
185.37102
 11
-100.94929
 21
185.37102
  0
LINE
  8
0
  6
CONTINUOUS
 62
     7
 10
-100.94929
 20
185.37102
 11
-100.19929
 21
186.12102
  0
LINE
  8
0
  6
CONTINUOUS
 62
     7
 10
-102.44929
 20
187.87102
 11
-103.19928
 21
187.12103
  0
LINE
  8
0
  6
CONTINUOUS
 62
     7
 10
-102.44929
 20
187.87102
 11
-100.94929
 21
187.87102
  0
LINE
  8
0
  6
CONTINUOUS
 62
     7
 10
-100.9493
 20
187.87102
 11
-100.1993
 21
187.12102
  0
LINE
  8
0
  6
CONTINUOUS
 62
     7
 10
-100.94929
 20
189.37102
 11
-100.94929
 21
187.87102
  0
LINE
  8
0
  6
CONTINUOUS
 62
     7
 10
-102.44929
 20
189.37102
 11
-102.44929
 21
187.87102
  0
LINE
  8
0
  6
CONTINUOUS
 62
     7
 10
-102.4493
 20
189.37102
 11
-103.19929
 21
190.12102
  0
LINE
  8
0
  6
CONTINUOUS
 62
     7
 10
-102.44929
 20
189.37102
 11
-100.94929
 21
189.37102
  0
LINE
  8
0
  6
CONTINUOUS
 62
     7
 10
-100.94928
 20
189.37102
 11
-100.19929
 21
190.12102
  0
LINE
  8
0
  6
CONTINUOUS
 62
     7
 10
-102.44928
 20
191.87103
 11
-103.19929
 21
191.12102
  0
LINE
  8
0
  6
CONTINUOUS
 62
     7
 10
-102.44929
 20
191.87102
 11
-100.94929
 21
191.87102
  0
LINE
  8
0
  6
CONTINUOUS
 62
     7
 10
-100.94928
 20
191.87102
 11
-100.19929
 21
191.12102
  0
LINE
  8
0
  6
CONTINUOUS
 62
     7
 10
-100.94929
 20
193.37102
 11
-100.94929
 21
191.87102
  0
LINE
  8
0
  6
CONTINUOUS
 62
     7
 10
-102.44929
 20
193.37102
 11
-102.44929
 21
191.87102
  0
LINE
  8
0
  6
CONTINUOUS
 62
     7
 10
-102.44929
 20
193.37102
 11
-103.19929
 21
194.12102
  0
LINE
  8
0
  6
CONTINUOUS
 62
     7
 10
-102.44929
 20
193.37102
 11
-100.94929
 21
193.37102
  0
LINE
  8
0
  6
CONTINUOUS
 62
     7
 10
-100.94928
 20
193.37103
 11
-100.19928
 21
194.12102
  0
LINE
  8
0
  6
CONTINUOUS
 62
     7
 10
-102.44928
 20
195.87103
 11
-103.19929
 21
195.12102
  0
LINE
  8
0
  6
CONTINUOUS
 62
     7
 10
-102.44929
 20
195.87102
 11
-100.94929
 21
195.87102
  0
LINE
  8
0
  6
CONTINUOUS
 62
     7
 10
-100.94929
 20
195.87102
 11
-100.19929
 21
195.12102
  0
LINE
  8
0
  6
CONTINUOUS
 62
     7
 10
-100.94929
 20
197.37102
 11
-100.94929
 21
195.87102
  0
LINE
  8
0
  6
CONTINUOUS
 62
     7
 10
-102.44929
 20
197.37102
 11
-102.44929
 21
195.87102
  0
LINE
  8
0
  6
CONTINUOUS
 62
     7
 10
-102.44929
 20
197.37102
 11
-103.19929
 21
198.12101
  0
LINE
  8
0
  6
CONTINUOUS
 62
     7
 10
-102.44929
 20
197.37102
 11
-100.94929
 21
197.37102
  0
LINE
  8
0
  6
CONTINUOUS
 62
     7
 10
-100.9493
 20
197.37102
 11
-100.19929
 21
198.12103
  0
LINE
  8
0
  6
CONTINUOUS
 62
     7
 10
-103.19929
 20
178.12102
 11
-103.19929
 21
175.12102
  0
LINE
  8
0
  6
CONTINUOUS
 62
     7
 10
-100.19929
 20
178.12102
 11
-100.19929
 21
175.12102
  0
LINE
  8
0
  6
CONTINUOUS
 62
     7
 10
-100.19929
 20
182.12102
 11
-100.19929
 21
179.12102
  0
LINE
  8
0
  6
CONTINUOUS
 62
     7
 10
-103.19929
 20
182.12102
 11
-103.19929
 21
179.12102
  0
LINE
  8
0
  6
CONTINUOUS
 62
     7
 10
-100.19929
 20
186.18565
 11
-100.19929
 21
183.12102
  0
LINE
  8
0
  6
CONTINUOUS
 62
     7
 10
-103.19929
 20
186.18565
 11
-103.19929
 21
183.12102
  0
LINE
  8
0
  6
CONTINUOUS
 62
     7
 10
-100.19929
 20
190.12102
 11
-100.19929
 21
187.12102
  0
LINE
  8
0
  6
CONTINUOUS
 62
     7
 10
-103.19929
 20
190.12102
 11
-103.19929
 21
187.12102
  0
LINE
  8
0
  6
CONTINUOUS
 62
     7
 10
-100.19929
 20
194.12102
 11
-100.19929
 21
191.12102
  0
LINE
  8
0
  6
CONTINUOUS
 62
     7
 10
-103.19929
 20
194.12102
 11
-103.19929
 21
191.12102
  0
LINE
  8
0
  6
CONTINUOUS
 62
     7
 10
-100.19929
 20
198.12102
 11
-100.19929
 21
195.12102
  0
LINE
  8
0
  6
CONTINUOUS
 62
     7
 10
-103.19929
 20
198.12102
 11
-103.19929
 21
195.12102
  0
LINE
  8
0
  6
CONTINUOUS
 62
     7
 10
-100.19929
 20
202.12102
 11
-100.19929
 21
199.12102
  0
LINE
  8
0
  6
CONTINUOUS
 62
     7
 10
-99.199287
 20
202.12102
 11
-99.199287
 21
199.12102
  0
LINE
  8
0
  6
CONTINUOUS
 62
     7
 10
-99.199287
 20
202.12102
 11
-96.199287
 21
202.12102
  0
LINE
  8
0
  6
CONTINUOUS
 62
     7
 10
-99.199287
 20
175.12102
 11
-96.199287
 21
175.12102
  0
LINE
  8
0
  6
CONTINUOUS
 62
     7
 10
-99.199287
 20
194.12102
 11
-96.199287
 21
194.12102
  0
LINE
  8
0
  6
CONTINUOUS
 62
     7
 10
-99.199287
 20
195.12102
 11
-96.199287
 21
195.12102
  0
LINE
  8
0
  6
CONTINUOUS
 62
     7
 10
-99.199287
 20
198.12102
 11
-96.199287
 21
198.12102
  0
LINE
  8
0
  6
CONTINUOUS
 62
     7
 10
-99.199287
 20
199.12102
 11
-96.199287
 21
199.12102
  0
LINE
  8
0
  6
CONTINUOUS
 62
     7
 10
-99.199287
 20
190.12102
 11
-96.199287
 21
190.12102
  0
LINE
  8
0
  6
CONTINUOUS
 62
     7
 10
-99.199287
 20
191.12102
 11
-96.199287
 21
191.12102
  0
LINE
  8
0
  6
CONTINUOUS
 62
     7
 10
-99.199287
 20
186.12102
 11
-96.199287
 21
186.12102
  0
LINE
  8
0
  6
CONTINUOUS
 62
     7
 10
-99.199287
 20
187.12102
 11
-96.199287
 21
187.12102
  0
LINE
  8
0
  6
CONTINUOUS
 62
     7
 10
-99.199287
 20
182.12102
 11
-96.199287
 21
182.12102
  0
LINE
  8
0
  6
CONTINUOUS
 62
     7
 10
-99.199287
 20
183.12102
 11
-96.199287
 21
183.12102
  0
LINE
  8
0
  6
CONTINUOUS
 62
     7
 10
-99.199287
 20
178.12102
 11
-96.199287
 21
178.12102
  0
LINE
  8
0
  6
CONTINUOUS
 62
     7
 10
-99.199287
 20
179.12102
 11
-96.199287
 21
179.12102
  0
LINE
  8
0
  6
CONTINUOUS
 62
     7
 10
-96.949287
 20
201.37102
 11
-96.949287
 21
199.87102
  0
LINE
  8
0
  6
CONTINUOUS
 62
     7
 10
-98.449287
 20
201.37102
 11
-98.449287
 21
199.87102
  0
LINE
  8
0
  6
CONTINUOUS
 62
     7
 10
-98.449287
 20
199.87102
 11
-96.949287
 21
199.87102
  0
LINE
  8
0
  6
CONTINUOUS
 62
     7
 10
-98.449287
 20
201.37102
 11
-96.949287
 21
201.37102
  0
LINE
  8
0
  6
CONTINUOUS
 62
     7
 10
-98.449285
 20
199.87102
 11
-99.199284
 21
199.12102
  0
LINE
  8
0
  6
CONTINUOUS
 62
     7
 10
-98.44928
 20
201.37102
 11
-99.199281
 21
202.12103
  0
LINE
  8
0
  6
CONTINUOUS
 62
     7
 10
-96.949286
 20
199.87103
 11
-96.19929
 21
199.12103
  0
LINE
  8
0
  6
CONTINUOUS
 62
     7
 10
-96.949292
 20
201.37102
 11
-96.199298
 21
202.12102
  0
LINE
  8
0
  6
CONTINUOUS
 62
     7
 10
-98.449285
 20
175.87102
 11
-99.199286
 21
175.12102
  0
LINE
  8
0
  6
CONTINUOUS
 62
     7
 10
-98.449287
 20
175.87102
 11
-96.949287
 21
175.87102
  0
LINE
  8
0
  6
CONTINUOUS
 62
     7
 10
-96.949291
 20
175.87102
 11
-96.199284
 21
175.12102
  0
LINE
  8
0
  6
CONTINUOUS
 62
     7
 10
-96.949287
 20
177.37102
 11
-96.949287
 21
175.87102
  0
LINE
  8
0
  6
CONTINUOUS
 62
     7
 10
-98.449287
 20
177.37102
 11
-98.449287
 21
175.87102
  0
LINE
  8
0
  6
CONTINUOUS
 62
     7
 10
-98.449288
 20
177.37103
 11
-99.199295
 21
178.12103
  0
LINE
  8
0
  6
CONTINUOUS
 62
     7
 10
-98.449287
 20
177.37102
 11
-96.949287
 21
177.37102
  0
LINE
  8
0
  6
CONTINUOUS
 62
     7
 10
-96.949291
 20
177.37101
 11
-96.199284
 21
178.12102
  0
LINE
  8
0
  6
CONTINUOUS
 62
     7
 10
-98.449293
 20
179.87102
 11
-99.199291
 21
179.12103
  0
LINE
  8
0
  6
CONTINUOUS
 62
     7
 10
-98.449287
 20
179.87102
 11
-96.949287
 21
179.87102
  0
LINE
  8
0
  6
CONTINUOUS
 62
     7
 10
-96.949288
 20
179.87103
 11
-96.199282
 21
179.12103
  0
LINE
  8
0
  6
CONTINUOUS
 62
     7
 10
-96.949287
 20
181.37102
 11
-96.949287
 21
179.87102
  0
LINE
  8
0
  6
CONTINUOUS
 62
     7
 10
-98.449287
 20
181.37102
 11
-98.449287
 21
179.87102
  0
LINE
  8
0
  6
CONTINUOUS
 62
     7
 10
-98.449277
 20
181.37102
 11
-99.199284
 21
182.12103
  0
LINE
  8
0
  6
CONTINUOUS
 62
     7
 10
-98.449287
 20
181.37102
 11
-96.949287
 21
181.37102
  0
LINE
  8
0
  6
CONTINUOUS
 62
     7
 10
-96.949293
 20
181.37103
 11
-96.199297
 21
182.12102
  0
LINE
  8
0
  6
CONTINUOUS
 62
     7
 10
-98.449282
 20
183.87102
 11
-99.199277
 21
183.12103
  0
LINE
  8
0
  6
CONTINUOUS
 62
     7
 10
-98.449287
 20
183.87102
 11
-96.949287
 21
183.87102
  0
LINE
  8
0
  6
CONTINUOUS
 62
     7
 10
-96.949296
 20
183.87102
 11
-96.199292
 21
183.12101
  0
LINE
  8
0
  6
CONTINUOUS
 62
     7
 10
-96.949287
 20
185.37102
 11
-96.949287
 21
183.87102
  0
LINE
  8
0
  6
CONTINUOUS
 62
     7
 10
-98.449287
 20
185.37102
 11
-98.449287
 21
183.87102
  0
LINE
  8
0
  6
CONTINUOUS
 62
     7
 10
-98.449291
 20
185.37102
 11
-99.199298
 21
186.12102
  0
LINE
  8
0
  6
CONTINUOUS
 62
     7
 10
-98.449287
 20
185.37102
 11
-96.949287
 21
185.37102
  0
LINE
  8
0
  6
CONTINUOUS
 62
     7
 10
-96.94928
 20
185.37101
 11
-96.199284
 21
186.12102
  0
LINE
  8
0
  6
CONTINUOUS
 62
     7
 10
-98.449279
 20
187.87103
 11
-99.199286
 21
187.12102
  0
LINE
  8
0
  6
CONTINUOUS
 62
     7
 10
-98.449287
 20
187.87102
 11
-96.949287
 21
187.87102
  0
LINE
  8
0
  6
CONTINUOUS
 62
     7
 10
-96.949294
 20
187.87102
 11
-96.199298
 21
187.12102
  0
LINE
  8
0
  6
CONTINUOUS
 62
     7
 10
-96.949287
 20
189.37102
 11
-96.949287
 21
187.87102
  0
LINE
  8
0
  6
CONTINUOUS
 62
     7
 10
-98.449287
 20
189.37102
 11
-98.449287
 21
187.87102
  0
LINE
  8
0
  6
CONTINUOUS
 62
     7
 10
-98.449297
 20
189.37102
 11
-99.19929
 21
190.12102
  0
LINE
  8
0
  6
CONTINUOUS
 62
     7
 10
-98.449287
 20
189.37102
 11
-96.949287
 21
189.37102
  0
LINE
  8
0
  6
CONTINUOUS
 62
     7
 10
-96.949292
 20
189.37103
 11
-96.199294
 21
190.12102
  0
LINE
  8
0
  6
CONTINUOUS
 62
     7
 10
-98.449282
 20
191.87102
 11
-99.199286
 21
191.12102
  0
LINE
  8
0
  6
CONTINUOUS
 62
     7
 10
-98.449287
 20
191.87102
 11
-96.949287
 21
191.87102
  0
LINE
  8
0
  6
CONTINUOUS
 62
     7
 10
-96.949286
 20
191.87103
 11
-96.199295
 21
191.12103
  0
LINE
  8
0
  6
CONTINUOUS
 62
     7
 10
-96.949287
 20
193.37102
 11
-96.949287
 21
191.87102
  0
LINE
  8
0
  6
CONTINUOUS
 62
     7
 10
-98.449287
 20
193.37102
 11
-98.449287
 21
191.87102
  0
LINE
  8
0
  6
CONTINUOUS
 62
     7
 10
-98.449283
 20
193.37102
 11
-99.19929
 21
194.12102
  0
LINE
  8
0
  6
CONTINUOUS
 62
     7
 10
-98.449287
 20
193.37102
 11
-96.949287
 21
193.37102
  0
LINE
  8
0
  6
CONTINUOUS
 62
     7
 10
-96.949293
 20
193.37102
 11
-96.199283
 21
194.12102
  0
LINE
  8
0
  6
CONTINUOUS
 62
     7
 10
-98.449289
 20
195.87103
 11
-99.199288
 21
195.12102
  0
LINE
  8
0
  6
CONTINUOUS
 62
     7
 10
-98.449287
 20
195.87102
 11
-96.949287
 21
195.87102
  0
LINE
  8
0
  6
CONTINUOUS
 62
     7
 10
-96.949288
 20
195.87102
 11
-96.199292
 21
195.12102
  0
LINE
  8
0
  6
CONTINUOUS
 62
     7
 10
-96.949287
 20
197.37102
 11
-96.949287
 21
195.87102
  0
LINE
  8
0
  6
CONTINUOUS
 62
     7
 10
-98.449287
 20
197.37102
 11
-98.449287
 21
195.87102
  0
LINE
  8
0
  6
CONTINUOUS
 62
     7
 10
-98.449285
 20
197.37102
 11
-99.199292
 21
198.12103
  0
LINE
  8
0
  6
CONTINUOUS
 62
     7
 10
-98.449287
 20
197.37102
 11
-96.949287
 21
197.37102
  0
LINE
  8
0
  6
CONTINUOUS
 62
     7
 10
-96.949302
 20
197.37102
 11
-96.199292
 21
198.12104
  0
LINE
  8
0
  6
CONTINUOUS
 62
     7
 10
-99.199287
 20
178.12102
 11
-99.199287
 21
175.12102
  0
LINE
  8
0
  6
CONTINUOUS
 62
     7
 10
-96.199287
 20
178.12102
 11
-96.199287
 21
175.12102
  0
LINE
  8
0
  6
CONTINUOUS
 62
     7
 10
-96.199287
 20
182.12102
 11
-96.199287
 21
179.12102
  0
LINE
  8
0
  6
CONTINUOUS
 62
     7
 10
-99.199287
 20
182.12102
 11
-99.199287
 21
179.12102
  0
LINE
  8
0
  6
CONTINUOUS
 62
     7
 10
-96.199287
 20
186.18565
 11
-96.199287
 21
183.12102
  0
LINE
  8
0
  6
CONTINUOUS
 62
     7
 10
-99.199287
 20
186.18565
 11
-99.199287
 21
183.12102
  0
LINE
  8
0
  6
CONTINUOUS
 62
     7
 10
-96.199287
 20
190.12102
 11
-96.199287
 21
187.12102
  0
LINE
  8
0
  6
CONTINUOUS
 62
     7
 10
-99.199287
 20
190.12102
 11
-99.199287
 21
187.12102
  0
LINE
  8
0
  6
CONTINUOUS
 62
     7
 10
-96.199287
 20
194.12102
 11
-96.199287
 21
191.12102
  0
LINE
  8
0
  6
CONTINUOUS
 62
     7
 10
-99.199287
 20
194.12102
 11
-99.199287
 21
191.12102
  0
LINE
  8
0
  6
CONTINUOUS
 62
     7
 10
-96.199287
 20
198.12102
 11
-96.199287
 21
195.12102
  0
LINE
  8
0
  6
CONTINUOUS
 62
     7
 10
-99.199287
 20
198.12102
 11
-99.199287
 21
195.12102
  0
LINE
  8
0
  6
CONTINUOUS
 62
     7
 10
-96.199287
 20
202.12102
 11
-96.199287
 21
199.12102
  0
LINE
  8
0
  6
CONTINUOUS
 62
     7
 10
-95.199287
 20
202.12102
 11
-95.199287
 21
199.12102
  0
LINE
  8
0
  6
CONTINUOUS
 62
     7
 10
-95.199287
 20
202.12102
 11
-92.199287
 21
202.12102
  0
LINE
  8
0
  6
CONTINUOUS
 62
     7
 10
-95.199287
 20
175.12102
 11
-92.199287
 21
175.12102
  0
LINE
  8
0
  6
CONTINUOUS
 62
     7
 10
-95.199287
 20
194.12102
 11
-92.199287
 21
194.12102
  0
LINE
  8
0
  6
CONTINUOUS
 62
     7
 10
-95.199287
 20
195.12102
 11
-92.199287
 21
195.12102
  0
LINE
  8
0
  6
CONTINUOUS
 62
     7
 10
-95.199287
 20
198.12102
 11
-92.199287
 21
198.12102
  0
LINE
  8
0
  6
CONTINUOUS
 62
     7
 10
-95.199287
 20
199.12102
 11
-92.199287
 21
199.12102
  0
LINE
  8
0
  6
CONTINUOUS
 62
     7
 10
-95.199287
 20
190.12102
 11
-92.199287
 21
190.12102
  0
LINE
  8
0
  6
CONTINUOUS
 62
     7
 10
-95.199287
 20
191.12102
 11
-92.199287
 21
191.12102
  0
LINE
  8
0
  6
CONTINUOUS
 62
     7
 10
-95.199287
 20
186.12102
 11
-92.199287
 21
186.12102
  0
LINE
  8
0
  6
CONTINUOUS
 62
     7
 10
-95.199287
 20
187.12102
 11
-92.199287
 21
187.12102
  0
LINE
  8
0
  6
CONTINUOUS
 62
     7
 10
-95.199287
 20
182.12102
 11
-92.199287
 21
182.12102
  0
LINE
  8
0
  6
CONTINUOUS
 62
     7
 10
-95.199287
 20
183.12102
 11
-92.199287
 21
183.12102
  0
LINE
  8
0
  6
CONTINUOUS
 62
     7
 10
-95.199287
 20
178.12102
 11
-92.199287
 21
178.12102
  0
LINE
  8
0
  6
CONTINUOUS
 62
     7
 10
-95.199287
 20
179.12102
 11
-92.199287
 21
179.12102
  0
LINE
  8
0
  6
CONTINUOUS
 62
     7
 10
-92.949287
 20
201.37102
 11
-92.949287
 21
199.87102
  0
LINE
  8
0
  6
CONTINUOUS
 62
     7
 10
-94.449287
 20
201.37102
 11
-94.449287
 21
199.87102
  0
LINE
  8
0
  6
CONTINUOUS
 62
     7
 10
-94.449287
 20
199.87102
 11
-92.949287
 21
199.87102
  0
LINE
  8
0
  6
CONTINUOUS
 62
     7
 10
-94.449287
 20
201.37102
 11
-92.949287
 21
201.37102
  0
LINE
  8
0
  6
CONTINUOUS
 62
     7
 10
-94.449286
 20
199.87102
 11
-95.199284
 21
199.12103
  0
LINE
  8
0
  6
CONTINUOUS
 62
     7
 10
-94.449295
 20
201.37102
 11
-95.199291
 21
202.12101
  0
LINE
  8
0
  6
CONTINUOUS
 62
     7
 10
-92.949292
 20
199.87102
 11
-92.199296
 21
199.12102
  0
LINE
  8
0
  6
CONTINUOUS
 62
     7
 10
-92.949288
 20
201.37102
 11
-92.19929
 21
202.12102
  0
LINE
  8
0
  6
CONTINUOUS
 62
     7
 10
-94.449283
 20
175.87102
 11
-95.199279
 21
175.12102
  0
LINE
  8
0
  6
CONTINUOUS
 62
     7
 10
-94.449287
 20
175.87102
 11
-92.949287
 21
175.87102
  0
LINE
  8
0
  6
CONTINUOUS
 62
     7
 10
-92.949284
 20
175.87103
 11
-92.199288
 21
175.12103
  0
LINE
  8
0
  6
CONTINUOUS
 62
     7
 10
-92.949287
 20
177.37102
 11
-92.949287
 21
175.87102
  0
LINE
  8
0
  6
CONTINUOUS
 62
     7
 10
-94.449287
 20
177.37102
 11
-94.449287
 21
175.87102
  0
LINE
  8
0
  6
CONTINUOUS
 62
     7
 10
-94.449284
 20
177.37103
 11
-95.19928
 21
178.12103
  0
LINE
  8
0
  6
CONTINUOUS
 62
     7
 10
-94.449287
 20
177.37102
 11
-92.949287
 21
177.37102
  0
LINE
  8
0
  6
CONTINUOUS
 62
     7
 10
-92.949289
 20
177.37102
 11
-92.199294
 21
178.12102
  0
LINE
  8
0
  6
CONTINUOUS
 62
     7
 10
-94.449291
 20
179.87102
 11
-95.199286
 21
179.12103
  0
LINE
  8
0
  6
CONTINUOUS
 62
     7
 10
-94.449287
 20
179.87102
 11
-92.949287
 21
179.87102
  0
LINE
  8
0
  6
CONTINUOUS
 62
     7
 10
-92.949295
 20
179.87102
 11
-92.199288
 21
179.12102
  0
LINE
  8
0
  6
CONTINUOUS
 62
     7
 10
-92.949287
 20
181.37102
 11
-92.949287
 21
179.87102
  0
LINE
  8
0
  6
CONTINUOUS
 62
     7
 10
-94.449287
 20
181.37102
 11
-94.449287
 21
179.87102
  0
LINE
  8
0
  6
CONTINUOUS
 62
     7
 10
-94.449297
 20
181.37102
 11
-95.199293
 21
182.12102
  0
LINE
  8
0
  6
CONTINUOUS
 62
     7
 10
-94.449287
 20
181.37102
 11
-92.949287
 21
181.37102
  0
LINE
  8
0
  6
CONTINUOUS
 62
     7
 10
-92.94929
 20
181.37103
 11
-92.199295
 21
182.12102
  0
LINE
  8
0
  6
CONTINUOUS
 62
     7
 10
-94.449286
 20
183.87103
 11
-95.199293
 21
183.12102
  0
LINE
  8
0
  6
CONTINUOUS
 62
     7
 10
-94.449287
 20
183.87102
 11
-92.949287
 21
183.87102
  0
LINE
  8
0
  6
CONTINUOUS
 62
     7
 10
-92.949287
 20
183.87102
 11
-92.199291
 21
183.12102
  0
LINE
  8
0
  6
CONTINUOUS
 62
     7
 10
-92.949287
 20
185.37102
 11
-92.949287
 21
183.87102
  0
LINE
  8
0
  6
CONTINUOUS
 62
     7
 10
-94.449287
 20
185.37102
 11
-94.449287
 21
183.87102
  0
LINE
  8
0
  6
CONTINUOUS
 62
     7
 10
-94.449289
 20
185.37102
 11
-95.199296
 21
186.12102
  0
LINE
  8
0
  6
CONTINUOUS
 62
     7
 10
-94.449287
 20
185.37102
 11
-92.949287
 21
185.37102
  0
LINE
  8
0
  6
CONTINUOUS
 62
     7
 10
-92.949285
 20
185.37103
 11
-92.199292
 21
186.12102
  0
LINE
  8
0
  6
CONTINUOUS
 62
     7
 10
-94.449291
 20
187.87103
 11
-95.199295
 21
187.12102
  0
LINE
  8
0
  6
CONTINUOUS
 62
     7
 10
-94.449287
 20
187.87102
 11
-92.949287
 21
187.87102
  0
LINE
  8
0
  6
CONTINUOUS
 62
     7
 10
-92.949286
 20
187.87102
 11
-92.199289
 21
187.12102
  0
LINE
  8
0
  6
CONTINUOUS
 62
     7
 10
-92.949287
 20
189.37102
 11
-92.949287
 21
187.87102
  0
LINE
  8
0
  6
CONTINUOUS
 62
     7
 10
-94.449287
 20
189.37102
 11
-94.449287
 21
187.87102
  0
LINE
  8
0
  6
CONTINUOUS
 62
     7
 10
-94.449292
 20
189.37102
 11
-95.199288
 21
190.12102
  0
LINE
  8
0
  6
CONTINUOUS
 62
     7
 10
-94.449287
 20
189.37102
 11
-92.949287
 21
189.37102
  0
LINE
  8
0
  6
CONTINUOUS
 62
     7
 10
-92.949286
 20
189.37102
 11
-92.199281
 21
190.12102
  0
LINE
  8
0
  6
CONTINUOUS
 62
     7
 10
-94.449285
 20
191.87102
 11
-95.199284
 21
191.12102
  0
LINE
  8
0
  6
CONTINUOUS
 62
     7
 10
-94.449287
 20
191.87102
 11
-92.949287
 21
191.87102
  0
LINE
  8
0
  6
CONTINUOUS
 62
     7
 10
-92.949293
 20
191.87103
 11
-92.199291
 21
191.12102
  0
LINE
  8
0
  6
CONTINUOUS
 62
     7
 10
-92.949287
 20
193.37102
 11
-92.949287
 21
191.87102
  0
LINE
  8
0
  6
CONTINUOUS
 62
     7
 10
-94.449287
 20
193.37102
 11
-94.449287
 21
191.87102
  0
LINE
  8
0
  6
CONTINUOUS
 62
     7
 10
-94.44929
 20
193.37103
 11
-95.199277
 21
194.12102
  0
LINE
  8
0
  6
CONTINUOUS
 62
     7
 10
-94.449287
 20
193.37102
 11
-92.949287
 21
193.37102
  0
LINE
  8
0
  6
CONTINUOUS
 62
     7
 10
-92.949295
 20
193.37102
 11
-92.19929
 21
194.12103
  0
LINE
  8
0
  6
CONTINUOUS
 62
     7
 10
-94.449282
 20
195.87102
 11
-95.199281
 21
195.12102
  0
LINE
  8
0
  6
CONTINUOUS
 62
     7
 10
-94.449287
 20
195.87102
 11
-92.949287
 21
195.87102
  0
LINE
  8
0
  6
CONTINUOUS
 62
     7
 10
-92.949289
 20
195.87104
 11
-92.199283
 21
195.12103
  0
LINE
  8
0
  6
CONTINUOUS
 62
     7
 10
-92.949287
 20
197.37102
 11
-92.949287
 21
195.87102
  0
LINE
  8
0
  6
CONTINUOUS
 62
     7
 10
-94.449287
 20
197.37102
 11
-94.449287
 21
195.87102
  0
LINE
  8
0
  6
CONTINUOUS
 62
     7
 10
-94.449281
 20
197.37102
 11
-95.199288
 21
198.12103
  0
LINE
  8
0
  6
CONTINUOUS
 62
     7
 10
-94.449287
 20
197.37102
 11
-92.949287
 21
197.37102
  0
LINE
  8
0
  6
CONTINUOUS
 62
     7
 10
-92.949291
 20
197.37102
 11
-92.199293
 21
198.12103
  0
LINE
  8
0
  6
CONTINUOUS
 62
     7
 10
-95.199287
 20
178.12102
 11
-95.199287
 21
175.12102
  0
LINE
  8
0
  6
CONTINUOUS
 62
     7
 10
-92.199287
 20
178.12102
 11
-92.199287
 21
175.12102
  0
LINE
  8
0
  6
CONTINUOUS
 62
     7
 10
-92.199287
 20
182.12102
 11
-92.199287
 21
179.12102
  0
LINE
  8
0
  6
CONTINUOUS
 62
     7
 10
-95.199287
 20
182.12102
 11
-95.199287
 21
179.12102
  0
LINE
  8
0
  6
CONTINUOUS
 62
     7
 10
-92.199287
 20
186.18565
 11
-92.199287
 21
183.12102
  0
LINE
  8
0
  6
CONTINUOUS
 62
     7
 10
-95.199287
 20
186.18565
 11
-95.199287
 21
183.12102
  0
LINE
  8
0
  6
CONTINUOUS
 62
     7
 10
-92.199287
 20
190.12102
 11
-92.199287
 21
187.12102
  0
LINE
  8
0
  6
CONTINUOUS
 62
     7
 10
-95.199287
 20
190.12102
 11
-95.199287
 21
187.12102
  0
LINE
  8
0
  6
CONTINUOUS
 62
     7
 10
-92.199287
 20
194.12102
 11
-92.199287
 21
191.12102
  0
LINE
  8
0
  6
CONTINUOUS
 62
     7
 10
-95.199287
 20
194.12102
 11
-95.199287
 21
191.12102
  0
LINE
  8
0
  6
CONTINUOUS
 62
     7
 10
-92.199287
 20
198.12102
 11
-92.199287
 21
195.12102
  0
LINE
  8
0
  6
CONTINUOUS
 62
     7
 10
-95.199287
 20
198.12102
 11
-95.199287
 21
195.12102
  0
LINE
  8
0
  6
CONTINUOUS
 62
     7
 10
-92.199287
 20
202.12102
 11
-92.199287
 21
199.12102
  0
LINE
  8
0
  6
CONTINUOUS
 62
     7
 10
-91.199287
 20
202.12102
 11
-91.199287
 21
199.12102
  0
LINE
  8
0
  6
CONTINUOUS
 62
     7
 10
-91.199287
 20
202.12102
 11
-88.199287
 21
202.12102
  0
LINE
  8
0
  6
CONTINUOUS
 62
     7
 10
-91.199287
 20
175.12102
 11
-88.199287
 21
175.12102
  0
LINE
  8
0
  6
CONTINUOUS
 62
     7
 10
-91.199287
 20
194.12102
 11
-88.199287
 21
194.12102
  0
LINE
  8
0
  6
CONTINUOUS
 62
     7
 10
-91.199287
 20
195.12102
 11
-88.199287
 21
195.12102
  0
LINE
  8
0
  6
CONTINUOUS
 62
     7
 10
-91.199287
 20
198.12102
 11
-88.199287
 21
198.12102
  0
LINE
  8
0
  6
CONTINUOUS
 62
     7
 10
-91.199287
 20
199.12102
 11
-88.199287
 21
199.12102
  0
LINE
  8
0
  6
CONTINUOUS
 62
     7
 10
-91.199287
 20
190.12102
 11
-88.199287
 21
190.12102
  0
LINE
  8
0
  6
CONTINUOUS
 62
     7
 10
-91.199287
 20
191.12102
 11
-88.199287
 21
191.12102
  0
LINE
  8
0
  6
CONTINUOUS
 62
     7
 10
-91.199287
 20
186.12102
 11
-88.199287
 21
186.12102
  0
LINE
  8
0
  6
CONTINUOUS
 62
     7
 10
-91.199287
 20
187.12102
 11
-88.199287
 21
187.12102
  0
LINE
  8
0
  6
CONTINUOUS
 62
     7
 10
-91.199287
 20
182.12102
 11
-88.199287
 21
182.12102
  0
LINE
  8
0
  6
CONTINUOUS
 62
     7
 10
-91.199287
 20
183.12102
 11
-88.199287
 21
183.12102
  0
LINE
  8
0
  6
CONTINUOUS
 62
     7
 10
-91.199287
 20
178.12102
 11
-88.199287
 21
178.12102
  0
LINE
  8
0
  6
CONTINUOUS
 62
     7
 10
-91.199287
 20
179.12102
 11
-88.199287
 21
179.12102
  0
LINE
  8
0
  6
CONTINUOUS
 62
     7
 10
-88.949287
 20
201.37102
 11
-88.949287
 21
199.87102
  0
LINE
  8
0
  6
CONTINUOUS
 62
     7
 10
-90.449287
 20
201.37102
 11
-90.449287
 21
199.87102
  0
LINE
  8
0
  6
CONTINUOUS
 62
     7
 10
-90.449287
 20
199.87102
 11
-88.949287
 21
199.87102
  0
LINE
  8
0
  6
CONTINUOUS
 62
     7
 10
-90.449287
 20
201.37102
 11
-88.949287
 21
201.37102
  0
LINE
  8
0
  6
CONTINUOUS
 62
     7
 10
-90.449282
 20
199.87102
 11
-91.199291
 21
199.12102
  0
LINE
  8
0
  6
CONTINUOUS
 62
     7
 10
-90.44929
 20
201.37102
 11
-91.199286
 21
202.12102
  0
LINE
  8
0
  6
CONTINUOUS
 62
     7
 10
-88.949293
 20
199.87102
 11
-88.199297
 21
199.12102
  0
LINE
  8
0
  6
CONTINUOUS
 62
     7
 10
-88.949279
 20
201.37102
 11
-88.199286
 21
202.12102
  0
LINE
  8
0
  6
CONTINUOUS
 62
     7
 10
-90.449286
 20
175.87102
 11
-91.199282
 21
175.12103
  0
LINE
  8
0
  6
CONTINUOUS
 62
     7
 10
-90.449287
 20
175.87102
 11
-88.949287
 21
175.87102
  0
LINE
  8
0
  6
CONTINUOUS
 62
     7
 10
-88.949293
 20
175.87102
 11
-88.199297
 21
175.12102
  0
LINE
  8
0
  6
CONTINUOUS
 62
     7
 10
-88.949287
 20
177.37102
 11
-88.949287
 21
175.87102
  0
LINE
  8
0
  6
CONTINUOUS
 62
     7
 10
-90.449287
 20
177.37102
 11
-90.449287
 21
175.87102
  0
LINE
  8
0
  6
CONTINUOUS
 62
     7
 10
-90.449293
 20
177.37102
 11
-91.1993
 21
178.12103
  0
LINE
  8
0
  6
CONTINUOUS
 62
     7
 10
-90.449287
 20
177.37102
 11
-88.949287
 21
177.37102
  0
LINE
  8
0
  6
CONTINUOUS
 62
     7
 10
-88.949285
 20
177.37103
 11
-88.19929
 21
178.12102
  0
LINE
  8
0
  6
CONTINUOUS
 62
     7
 10
-90.449281
 20
179.87102
 11
-91.199285
 21
179.12102
  0
LINE
  8
0
  6
CONTINUOUS
 62
     7
 10
-90.449287
 20
179.87102
 11
-88.949287
 21
179.87102
  0
LINE
  8
0
  6
CONTINUOUS
 62
     7
 10
-88.949296
 20
179.87102
 11
-88.199289
 21
179.12101
  0
LINE
  8
0
  6
CONTINUOUS
 62
     7
 10
-88.949287
 20
181.37102
 11
-88.949287
 21
179.87102
  0
LINE
  8
0
  6
CONTINUOUS
 62
     7
 10
-90.449287
 20
181.37102
 11
-90.449287
 21
179.87102
  0
LINE
  8
0
  6
CONTINUOUS
 62
     7
 10
-90.449293
 20
181.37103
 11
-91.199289
 21
182.12102
  0
LINE
  8
0
  6
CONTINUOUS
 62
     7
 10
-90.449287
 20
181.37102
 11
-88.949287
 21
181.37102
  0
LINE
  8
0
  6
CONTINUOUS
 62
     7
 10
-88.949277
 20
181.37103
 11
-88.199285
 21
182.12102
  0
LINE
  8
0
  6
CONTINUOUS
 62
     7
 10
-90.449276
 20
183.87103
 11
-91.199286
 21
183.12101
  0
LINE
  8
0
  6
CONTINUOUS
 62
     7
 10
-90.449287
 20
183.87102
 11
-88.949287
 21
183.87102
  0
LINE
  8
0
  6
CONTINUOUS
 62
     7
 10
-88.949282
 20
183.87102
 11
-88.199287
 21
183.12102
  0
LINE
  8
0
  6
CONTINUOUS
 62
     7
 10
-88.949287
 20
185.37102
 11
-88.949287
 21
183.87102
  0
LINE
  8
0
  6
CONTINUOUS
 62
     7
 10
-90.449287
 20
185.37102
 11
-90.449287
 21
183.87102
  0
LINE
  8
0
  6
CONTINUOUS
 62
     7
 10
-90.44929
 20
185.37101
 11
-91.199297
 21
186.12102
  0
LINE
  8
0
  6
CONTINUOUS
 62
     7
 10
-90.449287
 20
185.37102
 11
-88.949287
 21
185.37102
  0
LINE
  8
0
  6
CONTINUOUS
 62
     7
 10
-88.949295
 20
185.37102
 11
-88.199286
 21
186.12102
  0
LINE
  8
0
  6
CONTINUOUS
 62
     7
 10
-90.449292
 20
187.87103
 11
-91.199291
 21
187.12103
  0
LINE
  8
0
  6
CONTINUOUS
 62
     7
 10
-90.449287
 20
187.87102
 11
-88.949287
 21
187.87102
  0
LINE
  8
0
  6
CONTINUOUS
 62
     7
 10
-88.949282
 20
187.87102
 11
-88.199287
 21
187.12103
  0
LINE
  8
0
  6
CONTINUOUS
 62
     7
 10
-88.949287
 20
189.37102
 11
-88.949287
 21
187.87102
  0
LINE
  8
0
  6
CONTINUOUS
 62
     7
 10
-90.449287
 20
189.37102
 11
-90.449287
 21
187.87102
  0
LINE
  8
0
  6
CONTINUOUS
 62
     7
 10
-90.449289
 20
189.37102
 11
-91.199285
 21
190.12102
  0
LINE
  8
0
  6
CONTINUOUS
 62
     7
 10
-90.449287
 20
189.37102
 11
-88.949287
 21
189.37102
  0
LINE
  8
0
  6
CONTINUOUS
 62
     7
 10
-88.949289
 20
189.37102
 11
-88.199279
 21
190.12103
  0
LINE
  8
0
  6
CONTINUOUS
 62
     7
 10
-90.449292
 20
191.87102
 11
-91.199285
 21
191.12103
  0
LINE
  8
0
  6
CONTINUOUS
 62
     7
 10
-90.449287
 20
191.87102
 11
-88.949287
 21
191.87102
  0
LINE
  8
0
  6
CONTINUOUS
 62
     7
 10
-88.949286
 20
191.87103
 11
-88.199293
 21
191.12103
  0
LINE
  8
0
  6
CONTINUOUS
 62
     7
 10
-88.949287
 20
193.37102
 11
-88.949287
 21
191.87102
  0
LINE
  8
0
  6
CONTINUOUS
 62
     7
 10
-90.449287
 20
193.37102
 11
-90.449287
 21
191.87102
  0
LINE
  8
0
  6
CONTINUOUS
 62
     7
 10
-90.449284
 20
193.37103
 11
-91.199279
 21
194.12103
  0
LINE
  8
0
  6
CONTINUOUS
 62
     7
 10
-90.449287
 20
193.37102
 11
-88.949287
 21
193.37102
  0
LINE
  8
0
  6
CONTINUOUS
 62
     7
 10
-88.949284
 20
193.37102
 11
-88.199291
 21
194.12102
  0
LINE
  8
0
  6
CONTINUOUS
 62
     7
 10
-90.449285
 20
195.87102
 11
-91.199283
 21
195.12102
  0
LINE
  8
0
  6
CONTINUOUS
 62
     7
 10
-90.449287
 20
195.87102
 11
-88.949287
 21
195.87102
  0
LINE
  8
0
  6
CONTINUOUS
 62
     7
 10
-88.949301
 20
195.87102
 11
-88.199295
 21
195.12102
  0
LINE
  8
0
  6
CONTINUOUS
 62
     7
 10
-88.949287
 20
197.37102
 11
-88.949287
 21
195.87102
  0
LINE
  8
0
  6
CONTINUOUS
 62
     7
 10
-90.449287
 20
197.37102
 11
-90.449287
 21
195.87102
  0
LINE
  8
0
  6
CONTINUOUS
 62
     7
 10
-90.449294
 20
197.37102
 11
-91.199287
 21
198.12102
  0
LINE
  8
0
  6
CONTINUOUS
 62
     7
 10
-90.449287
 20
197.37102
 11
-88.949287
 21
197.37102
  0
LINE
  8
0
  6
CONTINUOUS
 62
     7
 10
-88.949283
 20
197.37103
 11
-88.199291
 21
198.12102
  0
LINE
  8
0
  6
CONTINUOUS
 62
     7
 10
-91.199287
 20
178.12102
 11
-91.199287
 21
175.12102
  0
LINE
  8
0
  6
CONTINUOUS
 62
     7
 10
-88.199287
 20
178.12102
 11
-88.199287
 21
175.12102
  0
LINE
  8
0
  6
CONTINUOUS
 62
     7
 10
-88.199287
 20
182.12102
 11
-88.199287
 21
179.12102
  0
LINE
  8
0
  6
CONTINUOUS
 62
     7
 10
-91.199287
 20
182.12102
 11
-91.199287
 21
179.12102
  0
LINE
  8
0
  6
CONTINUOUS
 62
     7
 10
-88.199287
 20
186.18565
 11
-88.199287
 21
183.12102
  0
LINE
  8
0
  6
CONTINUOUS
 62
     7
 10
-91.199287
 20
186.18565
 11
-91.199287
 21
183.12102
  0
LINE
  8
0
  6
CONTINUOUS
 62
     7
 10
-88.199287
 20
190.12102
 11
-88.199287
 21
187.12102
  0
LINE
  8
0
  6
CONTINUOUS
 62
     7
 10
-91.199287
 20
190.12102
 11
-91.199287
 21
187.12102
  0
LINE
  8
0
  6
CONTINUOUS
 62
     7
 10
-88.199287
 20
194.12102
 11
-88.199287
 21
191.12102
  0
LINE
  8
0
  6
CONTINUOUS
 62
     7
 10
-91.199287
 20
194.12102
 11
-91.199287
 21
191.12102
  0
LINE
  8
0
  6
CONTINUOUS
 62
     7
 10
-88.199287
 20
198.12102
 11
-88.199287
 21
195.12102
  0
LINE
  8
0
  6
CONTINUOUS
 62
     7
 10
-91.199287
 20
198.12102
 11
-91.199287
 21
195.12102
  0
LINE
  8
0
  6
CONTINUOUS
 62
     7
 10
-88.199287
 20
202.12102
 11
-88.199287
 21
199.12102
  0
LINE
  8
0
  6
CONTINUOUS
 62
     7
 10
-127.19929
 20
202.12102
 11
-127.19929
 21
199.12102
  0
LINE
  8
0
  6
CONTINUOUS
 62
     7
 10
-128.1993
 20
202.12102
 11
-130.1993
 21
202.12102
  0
LINE
  8
0
  6
CONTINUOUS
 62
     7
 10
-128.1993
 20
175.12102
 11
-130.1993
 21
175.12102
  0
LINE
  8
0
  6
CONTINUOUS
 62
     7
 10
-128.1993
 20
194.12102
 11
-131.1993
 21
194.12102
  0
LINE
  8
0
  6
CONTINUOUS
 62
     7
 10
-128.1993
 20
195.12102
 11
-131.1993
 21
195.12102
  0
LINE
  8
0
  6
CONTINUOUS
 62
     7
 10
-128.1993
 20
198.12102
 11
-131.1993
 21
198.12102
  0
LINE
  8
0
  6
CONTINUOUS
 62
     7
 10
-128.1993
 20
199.12102
 11
-131.1993
 21
199.12102
  0
LINE
  8
0
  6
CONTINUOUS
 62
     7
 10
-128.1993
 20
190.12102
 11
-131.1993
 21
190.12102
  0
LINE
  8
0
  6
CONTINUOUS
 62
     7
 10
-128.1993
 20
191.12102
 11
-131.1993
 21
191.12102
  0
LINE
  8
0
  6
CONTINUOUS
 62
     7
 10
-128.1993
 20
186.12102
 11
-131.1993
 21
186.12102
  0
LINE
  8
0
  6
CONTINUOUS
 62
     7
 10
-128.1993
 20
187.12102
 11
-131.1993
 21
187.12102
  0
LINE
  8
0
  6
CONTINUOUS
 62
     7
 10
-128.1993
 20
182.12102
 11
-131.1993
 21
182.12102
  0
LINE
  8
0
  6
CONTINUOUS
 62
     7
 10
-128.1993
 20
183.12102
 11
-131.1993
 21
183.12102
  0
LINE
  8
0
  6
CONTINUOUS
 62
     7
 10
-128.1993
 20
178.12102
 11
-131.1993
 21
178.12102
  0
LINE
  8
0
  6
CONTINUOUS
 62
     7
 10
-128.1993
 20
179.12102
 11
-131.1993
 21
179.12102
  0
LINE
  8
0
  6
CONTINUOUS
 62
     7
 10
-130.4493
 20
201.37102
 11
-130.4493
 21
199.87102
  0
LINE
  8
0
  6
CONTINUOUS
 62
     7
 10
-128.9493
 20
201.37102
 11
-128.9493
 21
199.87102
  0
LINE
  8
0
  6
CONTINUOUS
 62
     7
 10
-128.9493
 20
199.87102
 11
-130.4493
 21
199.87102
  0
LINE
  8
0
  6
CONTINUOUS
 62
     7
 10
-128.9493
 20
201.37102
 11
-130.4493
 21
201.37102
  0
LINE
  8
0
  6
CONTINUOUS
 62
     7
 10
-128.9493
 20
199.87102
 11
-128.19929
 21
199.12101
  0
LINE
  8
0
  6
CONTINUOUS
 62
     7
 10
-128.94929
 20
201.37103
 11
-128.19929
 21
202.12103
  0
LINE
  8
0
  6
CONTINUOUS
 62
     7
 10
-130.44928
 20
199.87102
 11
-131.19928
 21
199.12102
  0
LINE
  8
0
  6
CONTINUOUS
 62
     7
 10
-130.44929
 20
201.37102
 11
-130.9064
 21
201.82814
  0
LINE
  8
0
  6
CONTINUOUS
 62
     7
 10
-128.94928
 20
175.87101
 11
-128.19929
 21
175.12102
  0
LINE
  8
0
  6
CONTINUOUS
 62
     7
 10
-128.9493
 20
175.87102
 11
-130.4493
 21
175.87102
  0
LINE
  8
0
  6
CONTINUOUS
 62
     7
 10
-130.44929
 20
175.87102
 11
-130.90639
 21
175.41392
  0
LINE
  8
0
  6
CONTINUOUS
 62
     7
 10
-130.4493
 20
177.37102
 11
-130.4493
 21
175.87102
  0
LINE
  8
0
  6
CONTINUOUS
 62
     7
 10
-128.9493
 20
177.37102
 11
-128.9493
 21
175.87102
  0
LINE
  8
0
  6
CONTINUOUS
 62
     7
 10
-128.94929
 20
177.37104
 11
-128.19929
 21
178.12103
  0
LINE
  8
0
  6
CONTINUOUS
 62
     7
 10
-128.9493
 20
177.37102
 11
-130.4493
 21
177.37102
  0
LINE
  8
0
  6
CONTINUOUS
 62
     7
 10
-130.44929
 20
177.37103
 11
-131.19929
 21
178.12103
  0
LINE
  8
0
  6
CONTINUOUS
 62
     7
 10
-128.94929
 20
179.87101
 11
-128.1993
 21
179.12102
  0
LINE
  8
0
  6
CONTINUOUS
 62
     7
 10
-128.9493
 20
179.87102
 11
-130.4493
 21
179.87102
  0
LINE
  8
0
  6
CONTINUOUS
 62
     7
 10
-130.44928
 20
179.87102
 11
-131.19928
 21
179.12102
  0
LINE
  8
0
  6
CONTINUOUS
 62
     7
 10
-130.4493
 20
181.37102
 11
-130.4493
 21
179.87102
  0
LINE
  8
0
  6
CONTINUOUS
 62
     7
 10
-128.9493
 20
181.37102
 11
-128.9493
 21
179.87102
  0
LINE
  8
0
  6
CONTINUOUS
 62
     7
 10
-128.94928
 20
181.37102
 11
-128.19928
 21
182.12102
  0
LINE
  8
0
  6
CONTINUOUS
 62
     7
 10
-128.9493
 20
181.37102
 11
-130.4493
 21
181.37102
  0
LINE
  8
0
  6
CONTINUOUS
 62
     7
 10
-130.44929
 20
181.37102
 11
-131.1993
 21
182.12102
  0
LINE
  8
0
  6
CONTINUOUS
 62
     7
 10
-128.94929
 20
183.87102
 11
-128.19928
 21
183.12101
  0
LINE
  8
0
  6
CONTINUOUS
 62
     7
 10
-128.9493
 20
183.87102
 11
-130.4493
 21
183.87102
  0
LINE
  8
0
  6
CONTINUOUS
 62
     7
 10
-130.44929
 20
183.87102
 11
-131.19929
 21
183.12102
  0
LINE
  8
0
  6
CONTINUOUS
 62
     7
 10
-130.4493
 20
185.37102
 11
-130.4493
 21
183.87102
  0
LINE
  8
0
  6
CONTINUOUS
 62
     7
 10
-128.9493
 20
185.37102
 11
-128.9493
 21
183.87102
  0
LINE
  8
0
  6
CONTINUOUS
 62
     7
 10
-128.94928
 20
185.37102
 11
-128.19928
 21
186.12102
  0
LINE
  8
0
  6
CONTINUOUS
 62
     7
 10
-128.9493
 20
185.37102
 11
-130.4493
 21
185.37102
  0
LINE
  8
0
  6
CONTINUOUS
 62
     7
 10
-130.44929
 20
185.37102
 11
-131.19929
 21
186.12102
  0
LINE
  8
0
  6
CONTINUOUS
 62
     7
 10
-128.94929
 20
187.87103
 11
-128.1993
 21
187.12103
  0
LINE
  8
0
  6
CONTINUOUS
 62
     7
 10
-128.9493
 20
187.87102
 11
-130.4493
 21
187.87102
  0
LINE
  8
0
  6
CONTINUOUS
 62
     7
 10
-130.44928
 20
187.87103
 11
-131.19928
 21
187.12103
  0
LINE
  8
0
  6
CONTINUOUS
 62
     7
 10
-130.4493
 20
189.37102
 11
-130.4493
 21
187.87102
  0
LINE
  8
0
  6
CONTINUOUS
 62
     7
 10
-128.9493
 20
189.37102
 11
-128.9493
 21
187.87102
  0
LINE
  8
0
  6
CONTINUOUS
 62
     7
 10
-128.94929
 20
189.37102
 11
-128.19929
 21
190.12102
  0
LINE
  8
0
  6
CONTINUOUS
 62
     7
 10
-128.9493
 20
189.37102
 11
-130.4493
 21
189.37102
  0
LINE
  8
0
  6
CONTINUOUS
 62
     7
 10
-130.4493
 20
189.37103
 11
-131.19929
 21
190.12101
  0
LINE
  8
0
  6
CONTINUOUS
 62
     7
 10
-128.94929
 20
191.87102
 11
-128.1993
 21
191.12103
  0
LINE
  8
0
  6
CONTINUOUS
 62
     7
 10
-128.9493
 20
191.87102
 11
-130.4493
 21
191.87102
  0
LINE
  8
0
  6
CONTINUOUS
 62
     7
 10
-130.44929
 20
191.87102
 11
-131.19929
 21
191.12102
  0
LINE
  8
0
  6
CONTINUOUS
 62
     7
 10
-130.4493
 20
193.37102
 11
-130.4493
 21
191.87102
  0
LINE
  8
0
  6
CONTINUOUS
 62
     7
 10
-128.9493
 20
193.37102
 11
-128.9493
 21
191.87102
  0
LINE
  8
0
  6
CONTINUOUS
 62
     7
 10
-128.94929
 20
193.37102
 11
-128.19929
 21
194.12102
  0
LINE
  8
0
  6
CONTINUOUS
 62
     7
 10
-128.9493
 20
193.37102
 11
-130.4493
 21
193.37102
  0
LINE
  8
0
  6
CONTINUOUS
 62
     7
 10
-130.44929
 20
193.37102
 11
-131.1993
 21
194.12102
  0
LINE
  8
0
  6
CONTINUOUS
 62
     7
 10
-128.94929
 20
195.87102
 11
-128.19928
 21
195.12101
  0
LINE
  8
0
  6
CONTINUOUS
 62
     7
 10
-128.9493
 20
195.87102
 11
-130.4493
 21
195.87102
  0
LINE
  8
0
  6
CONTINUOUS
 62
     7
 10
-130.44929
 20
195.87102
 11
-131.19929
 21
195.12103
  0
LINE
  8
0
  6
CONTINUOUS
 62
     7
 10
-130.4493
 20
197.37102
 11
-130.4493
 21
195.87102
  0
LINE
  8
0
  6
CONTINUOUS
 62
     7
 10
-128.9493
 20
197.37102
 11
-128.9493
 21
195.87102
  0
LINE
  8
0
  6
CONTINUOUS
 62
     7
 10
-128.94928
 20
197.37103
 11
-128.19928
 21
198.12103
  0
LINE
  8
0
  6
CONTINUOUS
 62
     7
 10
-128.9493
 20
197.37102
 11
-130.4493
 21
197.37102
  0
LINE
  8
0
  6
CONTINUOUS
 62
     7
 10
-130.44929
 20
197.37103
 11
-131.19929
 21
198.12103
  0
LINE
  8
0
  6
CONTINUOUS
 62
     7
 10
-128.1993
 20
178.12102
 11
-128.1993
 21
175.12102
  0
LINE
  8
0
  6
CONTINUOUS
 62
     7
 10
-131.1993
 20
178.12102
 11
-131.1993
 21
176.12102
  0
LINE
  8
0
  6
CONTINUOUS
 62
     7
 10
-131.1993
 20
182.12102
 11
-131.1993
 21
179.12102
  0
LINE
  8
0
  6
CONTINUOUS
 62
     7
 10
-128.1993
 20
182.12102
 11
-128.1993
 21
179.12102
  0
LINE
  8
0
  6
CONTINUOUS
 62
     7
 10
-131.1993
 20
186.18565
 11
-131.1993
 21
183.12102
  0
LINE
  8
0
  6
CONTINUOUS
 62
     7
 10
-128.1993
 20
186.18565
 11
-128.1993
 21
183.12102
  0
LINE
  8
0
  6
CONTINUOUS
 62
     7
 10
-131.1993
 20
190.12102
 11
-131.1993
 21
187.12102
  0
LINE
  8
0
  6
CONTINUOUS
 62
     7
 10
-128.1993
 20
190.12102
 11
-128.1993
 21
187.12102
  0
LINE
  8
0
  6
CONTINUOUS
 62
     7
 10
-131.1993
 20
194.12102
 11
-131.1993
 21
191.12102
  0
LINE
  8
0
  6
CONTINUOUS
 62
     7
 10
-128.1993
 20
194.12102
 11
-128.1993
 21
191.12102
  0
LINE
  8
0
  6
CONTINUOUS
 62
     7
 10
-131.1993
 20
198.12102
 11
-131.1993
 21
195.12102
  0
LINE
  8
0
  6
CONTINUOUS
 62
     7
 10
-128.1993
 20
198.12102
 11
-128.1993
 21
195.12102
  0
LINE
  8
0
  6
CONTINUOUS
 62
     7
 10
-131.1993
 20
201.12102
 11
-131.1993
 21
199.12102
  0
LINE
  8
0
  6
CONTINUOUS
 62
     7
 10
-128.1993
 20
202.12102
 11
-128.1993
 21
199.12102
  0
LINE
  8
0
  6
CONTINUOUS
 62
     7
 10
-108.19929
 20
202.12102
 11
-108.19929
 21
199.12102
  0
LINE
  8
0
  6
CONTINUOUS
 62
     7
 10
-108.19929
 20
202.12102
 11
-111.19929
 21
202.12102
  0
LINE
  8
0
  6
CONTINUOUS
 62
     7
 10
-108.19929
 20
175.12102
 11
-111.19929
 21
175.12102
  0
LINE
  8
0
  6
CONTINUOUS
 62
     7
 10
-108.19929
 20
194.12102
 11
-111.19929
 21
194.12102
  0
LINE
  8
0
  6
CONTINUOUS
 62
     7
 10
-108.19929
 20
195.12102
 11
-111.19929
 21
195.12102
  0
LINE
  8
0
  6
CONTINUOUS
 62
     7
 10
-108.19929
 20
198.12102
 11
-111.19929
 21
198.12102
  0
LINE
  8
0
  6
CONTINUOUS
 62
     7
 10
-108.19929
 20
199.12102
 11
-111.19929
 21
199.12102
  0
LINE
  8
0
  6
CONTINUOUS
 62
     7
 10
-110.82178
 20
191.12102
 11
-111.19929
 21
191.12102
  0
LINE
  8
0
  6
CONTINUOUS
 62
     7
 10
-110.82178
 20
186.12102
 11
-111.19929
 21
186.12102
  0
LINE
  8
0
  6
CONTINUOUS
 62
     7
 10
-108.19929
 20
182.12102
 11
-111.19929
 21
182.12102
  0
LINE
  8
0
  6
CONTINUOUS
 62
     7
 10
-108.19929
 20
183.12102
 11
-111.19929
 21
183.12102
  0
LINE
  8
0
  6
CONTINUOUS
 62
     7
 10
-108.19929
 20
178.12102
 11
-111.19929
 21
178.12102
  0
LINE
  8
0
  6
CONTINUOUS
 62
     7
 10
-108.19929
 20
179.12102
 11
-111.19929
 21
179.12102
  0
LINE
  8
0
  6
CONTINUOUS
 62
     7
 10
-110.44929
 20
201.37102
 11
-110.44929
 21
199.87102
  0
LINE
  8
0
  6
CONTINUOUS
 62
     7
 10
-108.94929
 20
201.37102
 11
-108.94929
 21
199.87102
  0
LINE
  8
0
  6
CONTINUOUS
 62
     7
 10
-108.94929
 20
199.87102
 11
-110.44929
 21
199.87102
  0
LINE
  8
0
  6
CONTINUOUS
 62
     7
 10
-108.94929
 20
201.37102
 11
-110.44929
 21
201.37102
  0
LINE
  8
0
  6
CONTINUOUS
 62
     7
 10
-108.94929
 20
199.87102
 11
-108.19929
 21
199.12102
  0
LINE
  8
0
  6
CONTINUOUS
 62
     7
 10
-108.94928
 20
201.37102
 11
-108.19928
 21
202.12102
  0
LINE
  8
0
  6
CONTINUOUS
 62
     7
 10
-110.44928
 20
199.87102
 11
-111.19929
 21
199.12102
  0
LINE
  8
0
  6
CONTINUOUS
 62
     7
 10
-110.4493
 20
201.37102
 11
-111.19929
 21
202.12102
  0
LINE
  8
0
  6
CONTINUOUS
 62
     7
 10
-108.94929
 20
175.87102
 11
-108.19928
 21
175.12102
  0
LINE
  8
0
  6
CONTINUOUS
 62
     7
 10
-108.94929
 20
175.87102
 11
-110.44929
 21
175.87102
  0
LINE
  8
0
  6
CONTINUOUS
 62
     7
 10
-110.44929
 20
175.87102
 11
-111.19929
 21
175.12102
  0
LINE
  8
0
  6
CONTINUOUS
 62
     7
 10
-110.44929
 20
177.37102
 11
-110.44929
 21
175.87102
  0
LINE
  8
0
  6
CONTINUOUS
 62
     7
 10
-108.94929
 20
177.37102
 11
-108.94929
 21
175.87102
  0
LINE
  8
0
  6
CONTINUOUS
 62
     7
 10
-108.94928
 20
177.37102
 11
-108.19928
 21
178.12102
  0
LINE
  8
0
  6
CONTINUOUS
 62
     7
 10
-108.94929
 20
177.37102
 11
-110.44929
 21
177.37102
  0
LINE
  8
0
  6
CONTINUOUS
 62
     7
 10
-110.44929
 20
177.37103
 11
-111.19928
 21
178.12102
  0
LINE
  8
0
  6
CONTINUOUS
 62
     7
 10
-108.94929
 20
179.87102
 11
-108.19929
 21
179.12102
  0
LINE
  8
0
  6
CONTINUOUS
 62
     7
 10
-108.94929
 20
179.87102
 11
-110.44929
 21
179.87102
  0
LINE
  8
0
  6
CONTINUOUS
 62
     7
 10
-110.44929
 20
179.87102
 11
-111.19929
 21
179.12102
  0
LINE
  8
0
  6
CONTINUOUS
 62
     7
 10
-110.44929
 20
181.37102
 11
-110.44929
 21
179.87102
  0
LINE
  8
0
  6
CONTINUOUS
 62
     7
 10
-108.94929
 20
181.37102
 11
-108.94929
 21
179.87102
  0
LINE
  8
0
  6
CONTINUOUS
 62
     7
 10
-108.94929
 20
181.37102
 11
-108.19929
 21
182.12102
  0
LINE
  8
0
  6
CONTINUOUS
 62
     7
 10
-108.94929
 20
181.37102
 11
-110.44929
 21
181.37102
  0
LINE
  8
0
  6
CONTINUOUS
 62
     7
 10
-110.44929
 20
181.37102
 11
-111.19929
 21
182.12102
  0
LINE
  8
0
  6
CONTINUOUS
 62
     7
 10
-108.94929
 20
183.87102
 11
-108.19929
 21
183.12102
  0
LINE
  8
0
  6
CONTINUOUS
 62
     7
 10
-108.94929
 20
183.87102
 11
-110.44929
 21
183.87102
  0
LINE
  8
0
  6
CONTINUOUS
 62
     7
 10
-110.44929
 20
183.87102
 11
-111.19929
 21
183.12102
  0
LINE
  8
0
  6
CONTINUOUS
 62
     7
 10
-110.44929
 20
185.37102
 11
-110.44929
 21
183.87102
  0
LINE
  8
0
  6
CONTINUOUS
 62
     7
 10
-108.94929
 20
184.82135
 11
-108.94929
 21
183.87102
  0
LINE
  8
0
  6
CONTINUOUS
 62
     7
 10
-110.03114
 20
185.37102
 11
-110.44929
 21
185.37102
  0
LINE
  8
0
  6
CONTINUOUS
 62
     7
 10
-110.44929
 20
185.37102
 11
-111.19929
 21
186.12101
  0
LINE
  8
0
  6
CONTINUOUS
 62
     7
 10
-110.03114
 20
191.87102
 11
-110.44929
 21
191.87102
  0
LINE
  8
0
  6
CONTINUOUS
 62
     7
 10
-110.44929
 20
191.87102
 11
-111.19928
 21
191.12102
  0
LINE
  8
0
  6
CONTINUOUS
 62
     7
 10
-110.44929
 20
193.37102
 11
-110.44929
 21
191.87102
  0
LINE
  8
0
  6
CONTINUOUS
 62
     7
 10
-108.94929
 20
193.37102
 11
-108.94929
 21
192.4207
  0
LINE
  8
0
  6
CONTINUOUS
 62
     7
 10
-108.94928
 20
193.37102
 11
-108.19929
 21
194.12102
  0
LINE
  8
0
  6
CONTINUOUS
 62
     7
 10
-108.94929
 20
193.37102
 11
-110.44929
 21
193.37102
  0
LINE
  8
0
  6
CONTINUOUS
 62
     7
 10
-110.44928
 20
193.37103
 11
-111.19928
 21
194.12103
  0
LINE
  8
0
  6
CONTINUOUS
 62
     7
 10
-108.94929
 20
195.87102
 11
-108.1993
 21
195.12102
  0
LINE
  8
0
  6
CONTINUOUS
 62
     7
 10
-108.94929
 20
195.87102
 11
-110.44929
 21
195.87102
  0
LINE
  8
0
  6
CONTINUOUS
 62
     7
 10
-110.44929
 20
195.87102
 11
-111.19928
 21
195.12103
  0
LINE
  8
0
  6
CONTINUOUS
 62
     7
 10
-110.44929
 20
197.37102
 11
-110.44929
 21
195.87102
  0
LINE
  8
0
  6
CONTINUOUS
 62
     7
 10
-108.94929
 20
197.37102
 11
-108.94929
 21
195.87102
  0
LINE
  8
0
  6
CONTINUOUS
 62
     7
 10
-108.94929
 20
197.37103
 11
-108.19929
 21
198.12102
  0
LINE
  8
0
  6
CONTINUOUS
 62
     7
 10
-108.94929
 20
197.37102
 11
-110.44929
 21
197.37102
  0
LINE
  8
0
  6
CONTINUOUS
 62
     7
 10
-110.44929
 20
197.37102
 11
-111.1993
 21
198.12103
  0
LINE
  8
0
  6
CONTINUOUS
 62
     7
 10
-108.19929
 20
178.12102
 11
-108.19929
 21
175.12102
  0
LINE
  8
0
  6
CONTINUOUS
 62
     7
 10
-111.19929
 20
178.12102
 11
-111.19929
 21
175.12102
  0
LINE
  8
0
  6
CONTINUOUS
 62
     7
 10
-111.19929
 20
182.12102
 11
-111.19929
 21
179.12102
  0
LINE
  8
0
  6
CONTINUOUS
 62
     7
 10
-108.19929
 20
182.12102
 11
-108.19929
 21
179.12102
  0
LINE
  8
0
  6
CONTINUOUS
 62
     7
 10
-111.19929
 20
186.18565
 11
-111.19929
 21
183.12102
  0
LINE
  8
0
  6
CONTINUOUS
 62
     7
 10
-108.19929
 20
184.65239
 11
-108.19929
 21
183.12102
  0
LINE
  8
0
  6
CONTINUOUS
 62
     7
 10
-111.19929
 20
194.12102
 11
-111.19929
 21
191.12102
  0
LINE
  8
0
  6
CONTINUOUS
 62
     7
 10
-108.19929
 20
194.12102
 11
-108.19929
 21
192.58965
  0
LINE
  8
0
  6
CONTINUOUS
 62
     7
 10
-111.19929
 20
198.12102
 11
-111.19929
 21
195.12102
  0
LINE
  8
0
  6
CONTINUOUS
 62
     7
 10
-108.19929
 20
198.12102
 11
-108.19929
 21
195.12102
  0
LINE
  8
0
  6
CONTINUOUS
 62
     7
 10
-111.19929
 20
202.12102
 11
-111.19929
 21
199.12102
  0
LINE
  8
0
  6
CONTINUOUS
 62
     7
 10
-112.19929
 20
202.12102
 11
-112.19929
 21
199.12102
  0
LINE
  8
0
  6
CONTINUOUS
 62
     7
 10
-112.19929
 20
202.12102
 11
-115.19929
 21
202.12102
  0
LINE
  8
0
  6
CONTINUOUS
 62
     7
 10
-112.19929
 20
175.12102
 11
-115.19929
 21
175.12102
  0
LINE
  8
0
  6
CONTINUOUS
 62
     7
 10
-112.19929
 20
194.12102
 11
-115.19929
 21
194.12102
  0
LINE
  8
0
  6
CONTINUOUS
 62
     7
 10
-112.19929
 20
195.12102
 11
-115.19929
 21
195.12102
  0
LINE
  8
0
  6
CONTINUOUS
 62
     7
 10
-112.19929
 20
198.12102
 11
-115.19929
 21
198.12102
  0
LINE
  8
0
  6
CONTINUOUS
 62
     7
 10
-112.19929
 20
199.12102
 11
-115.19929
 21
199.12102
  0
LINE
  8
0
  6
CONTINUOUS
 62
     7
 10
-112.19929
 20
190.12102
 11
-115.19929
 21
190.12102
  0
LINE
  8
0
  6
CONTINUOUS
 62
     7
 10
-112.19929
 20
191.12102
 11
-115.19929
 21
191.12102
  0
LINE
  8
0
  6
CONTINUOUS
 62
     7
 10
-112.19929
 20
186.12102
 11
-115.19929
 21
186.12102
  0
LINE
  8
0
  6
CONTINUOUS
 62
     7
 10
-112.19929
 20
187.12102
 11
-115.19929
 21
187.12102
  0
LINE
  8
0
  6
CONTINUOUS
 62
     7
 10
-112.19929
 20
182.12102
 11
-115.19929
 21
182.12102
  0
LINE
  8
0
  6
CONTINUOUS
 62
     7
 10
-112.19929
 20
183.12102
 11
-115.19929
 21
183.12102
  0
LINE
  8
0
  6
CONTINUOUS
 62
     7
 10
-112.19929
 20
178.12102
 11
-115.19929
 21
178.12102
  0
LINE
  8
0
  6
CONTINUOUS
 62
     7
 10
-112.19929
 20
179.12102
 11
-115.19929
 21
179.12102
  0
LINE
  8
0
  6
CONTINUOUS
 62
     7
 10
-114.44929
 20
201.37102
 11
-114.44929
 21
199.87102
  0
LINE
  8
0
  6
CONTINUOUS
 62
     7
 10
-112.94929
 20
201.37102
 11
-112.94929
 21
199.87102
  0
LINE
  8
0
  6
CONTINUOUS
 62
     7
 10
-112.94929
 20
199.87102
 11
-114.44929
 21
199.87102
  0
LINE
  8
0
  6
CONTINUOUS
 62
     7
 10
-112.94929
 20
201.37102
 11
-114.44929
 21
201.37102
  0
LINE
  8
0
  6
CONTINUOUS
 62
     7
 10
-112.94929
 20
199.87102
 11
-112.19929
 21
199.12102
  0
LINE
  8
0
  6
CONTINUOUS
 62
     7
 10
-112.94929
 20
201.37102
 11
-112.19929
 21
202.12102
  0
LINE
  8
0
  6
CONTINUOUS
 62
     7
 10
-114.44929
 20
199.87102
 11
-115.19928
 21
199.12103
  0
LINE
  8
0
  6
CONTINUOUS
 62
     7
 10
-114.4493
 20
201.37102
 11
-115.19929
 21
202.12102
  0
LINE
  8
0
  6
CONTINUOUS
 62
     7
 10
-112.9493
 20
175.87102
 11
-112.19929
 21
175.12102
  0
LINE
  8
0
  6
CONTINUOUS
 62
     7
 10
-112.94929
 20
175.87102
 11
-114.44929
 21
175.87102
  0
LINE
  8
0
  6
CONTINUOUS
 62
     7
 10
-114.44928
 20
175.87102
 11
-115.19928
 21
175.12102
  0
LINE
  8
0
  6
CONTINUOUS
 62
     7
 10
-114.44929
 20
177.37102
 11
-114.44929
 21
175.87102
  0
LINE
  8
0
  6
CONTINUOUS
 62
     7
 10
-112.94929
 20
177.37102
 11
-112.94929
 21
175.87102
  0
LINE
  8
0
  6
CONTINUOUS
 62
     7
 10
-112.94929
 20
177.37102
 11
-112.19929
 21
178.12102
  0
LINE
  8
0
  6
CONTINUOUS
 62
     7
 10
-112.94929
 20
177.37102
 11
-114.44929
 21
177.37102
  0
LINE
  8
0
  6
CONTINUOUS
 62
     7
 10
-114.44929
 20
177.37101
 11
-115.19929
 21
178.12102
  0
LINE
  8
0
  6
CONTINUOUS
 62
     7
 10
-112.94929
 20
179.87102
 11
-112.19929
 21
179.12102
  0
LINE
  8
0
  6
CONTINUOUS
 62
     7
 10
-112.94929
 20
179.87102
 11
-114.44929
 21
179.87102
  0
LINE
  8
0
  6
CONTINUOUS
 62
     7
 10
-114.44929
 20
179.87103
 11
-115.19929
 21
179.12103
  0
LINE
  8
0
  6
CONTINUOUS
 62
     7
 10
-114.44929
 20
181.37102
 11
-114.44929
 21
179.87102
  0
LINE
  8
0
  6
CONTINUOUS
 62
     7
 10
-112.94929
 20
181.37102
 11
-112.94929
 21
179.87102
  0
LINE
  8
0
  6
CONTINUOUS
 62
     7
 10
-112.94928
 20
181.37103
 11
-112.19928
 21
182.12103
  0
LINE
  8
0
  6
CONTINUOUS
 62
     7
 10
-112.94929
 20
181.37102
 11
-114.44929
 21
181.37102
  0
LINE
  8
0
  6
CONTINUOUS
 62
     7
 10
-114.44928
 20
181.37102
 11
-115.19929
 21
182.12103
  0
LINE
  8
0
  6
CONTINUOUS
 62
     7
 10
-112.94929
 20
183.87102
 11
-112.1993
 21
183.12102
  0
LINE
  8
0
  6
CONTINUOUS
 62
     7
 10
-112.94929
 20
183.87102
 11
-114.44929
 21
183.87102
  0
LINE
  8
0
  6
CONTINUOUS
 62
     7
 10
-114.44929
 20
183.87103
 11
-115.19929
 21
183.12103
  0
LINE
  8
0
  6
CONTINUOUS
 62
     7
 10
-114.44929
 20
185.37102
 11
-114.44929
 21
183.87102
  0
LINE
  8
0
  6
CONTINUOUS
 62
     7
 10
-112.94929
 20
185.37102
 11
-112.94929
 21
183.87102
  0
LINE
  8
0
  6
CONTINUOUS
 62
     7
 10
-112.94929
 20
185.37102
 11
-112.19929
 21
186.12102
  0
LINE
  8
0
  6
CONTINUOUS
 62
     7
 10
-112.94929
 20
185.37102
 11
-114.44929
 21
185.37102
  0
LINE
  8
0
  6
CONTINUOUS
 62
     7
 10
-114.44929
 20
185.37102
 11
-115.19929
 21
186.12102
  0
LINE
  8
0
  6
CONTINUOUS
 62
     7
 10
-112.94928
 20
187.87102
 11
-112.19929
 21
187.12102
  0
LINE
  8
0
  6
CONTINUOUS
 62
     7
 10
-112.94929
 20
187.87102
 11
-114.44929
 21
187.87102
  0
LINE
  8
0
  6
CONTINUOUS
 62
     7
 10
-114.44929
 20
187.87103
 11
-115.19929
 21
187.12103
  0
LINE
  8
0
  6
CONTINUOUS
 62
     7
 10
-114.44929
 20
189.37102
 11
-114.44929
 21
187.87102
  0
LINE
  8
0
  6
CONTINUOUS
 62
     7
 10
-112.94929
 20
189.37102
 11
-112.94929
 21
187.87102
  0
LINE
  8
0
  6
CONTINUOUS
 62
     7
 10
-112.94929
 20
189.37103
 11
-112.19929
 21
190.12103
  0
LINE
  8
0
  6
CONTINUOUS
 62
     7
 10
-112.94929
 20
189.37102
 11
-114.44929
 21
189.37102
  0
LINE
  8
0
  6
CONTINUOUS
 62
     7
 10
-114.44928
 20
189.37102
 11
-115.19929
 21
190.12102
  0
LINE
  8
0
  6
CONTINUOUS
 62
     7
 10
-112.94929
 20
191.87103
 11
-112.19929
 21
191.12102
  0
LINE
  8
0
  6
CONTINUOUS
 62
     7
 10
-112.94929
 20
191.87102
 11
-114.44929
 21
191.87102
  0
LINE
  8
0
  6
CONTINUOUS
 62
     7
 10
-114.44928
 20
191.87103
 11
-115.19929
 21
191.12102
  0
LINE
  8
0
  6
CONTINUOUS
 62
     7
 10
-114.44929
 20
193.37102
 11
-114.44929
 21
191.87102
  0
LINE
  8
0
  6
CONTINUOUS
 62
     7
 10
-112.94929
 20
193.37102
 11
-112.94929
 21
191.87102
  0
LINE
  8
0
  6
CONTINUOUS
 62
     7
 10
-112.9493
 20
193.37102
 11
-112.19929
 21
194.12103
  0
LINE
  8
0
  6
CONTINUOUS
 62
     7
 10
-112.94929
 20
193.37102
 11
-114.44929
 21
193.37102
  0
LINE
  8
0
  6
CONTINUOUS
 62
     7
 10
-114.44929
 20
193.37103
 11
-115.19929
 21
194.12103
  0
LINE
  8
0
  6
CONTINUOUS
 62
     7
 10
-112.94928
 20
195.87103
 11
-112.19929
 21
195.12103
  0
LINE
  8
0
  6
CONTINUOUS
 62
     7
 10
-112.94929
 20
195.87102
 11
-114.44929
 21
195.87102
  0
LINE
  8
0
  6
CONTINUOUS
 62
     7
 10
-114.44929
 20
195.87102
 11
-115.19928
 21
195.12102
  0
LINE
  8
0
  6
CONTINUOUS
 62
     7
 10
-114.44929
 20
197.37102
 11
-114.44929
 21
195.87102
  0
LINE
  8
0
  6
CONTINUOUS
 62
     7
 10
-112.94929
 20
197.37102
 11
-112.94929
 21
195.87102
  0
LINE
  8
0
  6
CONTINUOUS
 62
     7
 10
-112.94929
 20
197.37102
 11
-112.19929
 21
198.12102
  0
LINE
  8
0
  6
CONTINUOUS
 62
     7
 10
-112.94929
 20
197.37102
 11
-114.44929
 21
197.37102
  0
LINE
  8
0
  6
CONTINUOUS
 62
     7
 10
-114.44928
 20
197.37103
 11
-115.19928
 21
198.12103
  0
LINE
  8
0
  6
CONTINUOUS
 62
     7
 10
-112.19929
 20
178.12102
 11
-112.19929
 21
175.12102
  0
LINE
  8
0
  6
CONTINUOUS
 62
     7
 10
-115.19929
 20
178.12102
 11
-115.19929
 21
175.12102
  0
LINE
  8
0
  6
CONTINUOUS
 62
     7
 10
-115.19929
 20
182.12102
 11
-115.19929
 21
179.12102
  0
LINE
  8
0
  6
CONTINUOUS
 62
     7
 10
-112.19929
 20
182.12102
 11
-112.19929
 21
179.12102
  0
LINE
  8
0
  6
CONTINUOUS
 62
     7
 10
-115.19929
 20
186.18565
 11
-115.19929
 21
183.12102
  0
LINE
  8
0
  6
CONTINUOUS
 62
     7
 10
-112.19929
 20
186.18565
 11
-112.19929
 21
183.12102
  0
LINE
  8
0
  6
CONTINUOUS
 62
     7
 10
-115.19929
 20
190.12102
 11
-115.19929
 21
187.12102
  0
LINE
  8
0
  6
CONTINUOUS
 62
     7
 10
-112.19929
 20
190.12102
 11
-112.19929
 21
187.12102
  0
LINE
  8
0
  6
CONTINUOUS
 62
     7
 10
-115.19929
 20
194.12102
 11
-115.19929
 21
191.12102
  0
LINE
  8
0
  6
CONTINUOUS
 62
     7
 10
-112.19929
 20
194.12102
 11
-112.19929
 21
191.12102
  0
LINE
  8
0
  6
CONTINUOUS
 62
     7
 10
-115.19929
 20
198.12102
 11
-115.19929
 21
195.12102
  0
LINE
  8
0
  6
CONTINUOUS
 62
     7
 10
-112.19929
 20
198.12102
 11
-112.19929
 21
195.12102
  0
LINE
  8
0
  6
CONTINUOUS
 62
     7
 10
-115.19929
 20
202.12102
 11
-115.19929
 21
199.12102
  0
LINE
  8
0
  6
CONTINUOUS
 62
     7
 10
-116.19929
 20
202.12102
 11
-116.19929
 21
199.12102
  0
LINE
  8
0
  6
CONTINUOUS
 62
     7
 10
-116.19929
 20
202.12102
 11
-119.19929
 21
202.12102
  0
LINE
  8
0
  6
CONTINUOUS
 62
     7
 10
-116.19929
 20
175.12102
 11
-119.19929
 21
175.12102
  0
LINE
  8
0
  6
CONTINUOUS
 62
     7
 10
-116.19929
 20
194.12102
 11
-119.19929
 21
194.12102
  0
LINE
  8
0
  6
CONTINUOUS
 62
     7
 10
-116.19929
 20
195.12102
 11
-119.19929
 21
195.12102
  0
LINE
  8
0
  6
CONTINUOUS
 62
     7
 10
-116.19929
 20
198.12102
 11
-119.19929
 21
198.12102
  0
LINE
  8
0
  6
CONTINUOUS
 62
     7
 10
-116.19929
 20
199.12102
 11
-119.19929
 21
199.12102
  0
LINE
  8
0
  6
CONTINUOUS
 62
     7
 10
-116.19929
 20
190.12102
 11
-118.99119
 21
190.12102
  0
LINE
  8
0
  6
CONTINUOUS
 62
     7
 10
-116.19929
 20
191.12102
 11
-119.19929
 21
191.12102
  0
LINE
  8
0
  6
CONTINUOUS
 62
     7
 10
-116.19929
 20
186.12102
 11
-119.19929
 21
186.12102
  0
LINE
  8
0
  6
CONTINUOUS
 62
     7
 10
-116.19929
 20
187.12102
 11
-118.99119
 21
187.12102
  0
LINE
  8
0
  6
CONTINUOUS
 62
     7
 10
-116.19929
 20
182.12102
 11
-119.19929
 21
182.12102
  0
LINE
  8
0
  6
CONTINUOUS
 62
     7
 10
-116.19929
 20
183.12102
 11
-119.19929
 21
183.12102
  0
LINE
  8
0
  6
CONTINUOUS
 62
     7
 10
-116.19929
 20
178.12102
 11
-119.19929
 21
178.12102
  0
LINE
  8
0
  6
CONTINUOUS
 62
     7
 10
-116.19929
 20
179.12102
 11
-119.19929
 21
179.12102
  0
LINE
  8
0
  6
CONTINUOUS
 62
     7
 10
-118.44929
 20
201.37102
 11
-118.44929
 21
199.87102
  0
LINE
  8
0
  6
CONTINUOUS
 62
     7
 10
-116.94929
 20
201.37102
 11
-116.94929
 21
199.87102
  0
LINE
  8
0
  6
CONTINUOUS
 62
     7
 10
-116.94929
 20
199.87102
 11
-118.44929
 21
199.87102
  0
LINE
  8
0
  6
CONTINUOUS
 62
     7
 10
-116.94929
 20
201.37102
 11
-118.44929
 21
201.37102
  0
LINE
  8
0
  6
CONTINUOUS
 62
     7
 10
-116.94929
 20
199.87103
 11
-116.19928
 21
199.12103
  0
LINE
  8
0
  6
CONTINUOUS
 62
     7
 10
-116.94929
 20
201.37102
 11
-116.19929
 21
202.12102
  0
LINE
  8
0
  6
CONTINUOUS
 62
     7
 10
-118.44929
 20
199.87102
 11
-119.19929
 21
199.12103
  0
LINE
  8
0
  6
CONTINUOUS
 62
     7
 10
-118.44929
 20
201.37103
 11
-119.19928
 21
202.12103
  0
LINE
  8
0
  6
CONTINUOUS
 62
     7
 10
-116.94928
 20
175.87102
 11
-116.19929
 21
175.12102
  0
LINE
  8
0
  6
CONTINUOUS
 62
     7
 10
-116.94929
 20
175.87102
 11
-118.44929
 21
175.87102
  0
LINE
  8
0
  6
CONTINUOUS
 62
     7
 10
-118.44928
 20
175.87102
 11
-119.19928
 21
175.12102
  0
LINE
  8
0
  6
CONTINUOUS
 62
     7
 10
-118.44929
 20
177.37102
 11
-118.44929
 21
175.87102
  0
LINE
  8
0
  6
CONTINUOUS
 62
     7
 10
-116.94929
 20
177.37102
 11
-116.94929
 21
175.87102
  0
LINE
  8
0
  6
CONTINUOUS
 62
     7
 10
-116.94929
 20
177.37102
 11
-116.19929
 21
178.12102
  0
LINE
  8
0
  6
CONTINUOUS
 62
     7
 10
-116.94929
 20
177.37102
 11
-118.44929
 21
177.37102
  0
LINE
  8
0
  6
CONTINUOUS
 62
     7
 10
-118.44929
 20
177.37103
 11
-119.19929
 21
178.12103
  0
LINE
  8
0
  6
CONTINUOUS
 62
     7
 10
-116.94929
 20
179.87102
 11
-116.19929
 21
179.12102
  0
LINE
  8
0
  6
CONTINUOUS
 62
     7
 10
-116.94929
 20
179.87102
 11
-118.44929
 21
179.87102
  0
LINE
  8
0
  6
CONTINUOUS
 62
     7
 10
-118.44929
 20
179.87102
 11
-119.19929
 21
179.12103
  0
LINE
  8
0
  6
CONTINUOUS
 62
     7
 10
-118.44929
 20
181.37102
 11
-118.44929
 21
179.87102
  0
LINE
  8
0
  6
CONTINUOUS
 62
     7
 10
-116.94929
 20
181.37102
 11
-116.94929
 21
179.87102
  0
LINE
  8
0
  6
CONTINUOUS
 62
     7
 10
-116.94929
 20
181.37103
 11
-116.19929
 21
182.12103
  0
LINE
  8
0
  6
CONTINUOUS
 62
     7
 10
-116.94929
 20
181.37102
 11
-118.44929
 21
181.37102
  0
LINE
  8
0
  6
CONTINUOUS
 62
     7
 10
-118.44929
 20
181.37102
 11
-119.19928
 21
182.12102
  0
LINE
  8
0
  6
CONTINUOUS
 62
     7
 10
-116.94929
 20
183.87102
 11
-116.19928
 21
183.12102
  0
LINE
  8
0
  6
CONTINUOUS
 62
     7
 10
-116.94929
 20
183.87102
 11
-118.44929
 21
183.87102
  0
LINE
  8
0
  6
CONTINUOUS
 62
     7
 10
-118.44928
 20
183.87102
 11
-119.19928
 21
183.12102
  0
LINE
  8
0
  6
CONTINUOUS
 62
     7
 10
-118.44929
 20
185.37102
 11
-118.44929
 21
183.87102
  0
LINE
  8
0
  6
CONTINUOUS
 62
     7
 10
-116.94929
 20
185.37102
 11
-116.94929
 21
183.87102
  0
LINE
  8
0
  6
CONTINUOUS
 62
     7
 10
-116.94928
 20
185.37102
 11
-116.19928
 21
186.12102
  0
LINE
  8
0
  6
CONTINUOUS
 62
     7
 10
-116.94929
 20
185.37102
 11
-118.44929
 21
185.37102
  0
LINE
  8
0
  6
CONTINUOUS
 62
     7
 10
-118.44929
 20
185.37102
 11
-119.19929
 21
186.12102
  0
LINE
  8
0
  6
CONTINUOUS
 62
     7
 10
-116.9493
 20
187.87102
 11
-116.19929
 21
187.12102
  0
LINE
  8
0
  6
CONTINUOUS
 62
     7
 10
-116.94929
 20
187.87102
 11
-118.44929
 21
187.87102
  0
LINE
  8
0
  6
CONTINUOUS
 62
     7
 10
-118.44928
 20
187.87103
 11
-118.87641
 21
187.4439
  0
LINE
  8
0
  6
CONTINUOUS
 62
     7
 10
-118.44929
 20
189.37102
 11
-118.44929
 21
187.87102
  0
LINE
  8
0
  6
CONTINUOUS
 62
     7
 10
-116.94929
 20
189.37102
 11
-116.94929
 21
187.87102
  0
LINE
  8
0
  6
CONTINUOUS
 62
     7
 10
-116.94928
 20
189.37102
 11
-116.19928
 21
190.12102
  0
LINE
  8
0
  6
CONTINUOUS
 62
     7
 10
-116.94929
 20
189.37102
 11
-118.44929
 21
189.37102
  0
LINE
  8
0
  6
CONTINUOUS
 62
     7
 10
-118.44929
 20
189.37101
 11
-118.87641
 21
189.79815
  0
LINE
  8
0
  6
CONTINUOUS
 62
     7
 10
-116.94929
 20
191.87103
 11
-116.19929
 21
191.12102
  0
LINE
  8
0
  6
CONTINUOUS
 62
     7
 10
-116.94929
 20
191.87102
 11
-118.44929
 21
191.87102
  0
LINE
  8
0
  6
CONTINUOUS
 62
     7
 10
-118.44928
 20
191.87102
 11
-119.19929
 21
191.12102
  0
LINE
  8
0
  6
CONTINUOUS
 62
     7
 10
-118.44929
 20
193.37102
 11
-118.44929
 21
191.87102
  0
LINE
  8
0
  6
CONTINUOUS
 62
     7
 10
-116.94929
 20
193.37102
 11
-116.94929
 21
191.87102
  0
LINE
  8
0
  6
CONTINUOUS
 62
     7
 10
-116.94928
 20
193.37102
 11
-116.19928
 21
194.12102
  0
LINE
  8
0
  6
CONTINUOUS
 62
     7
 10
-116.94929
 20
193.37102
 11
-118.44929
 21
193.37102
  0
LINE
  8
0
  6
CONTINUOUS
 62
     7
 10
-118.44929
 20
193.37102
 11
-119.19928
 21
194.12102
  0
LINE
  8
0
  6
CONTINUOUS
 62
     7
 10
-116.94929
 20
195.87102
 11
-116.19928
 21
195.12102
  0
LINE
  8
0
  6
CONTINUOUS
 62
     7
 10
-116.94929
 20
195.87102
 11
-118.44929
 21
195.87102
  0
LINE
  8
0
  6
CONTINUOUS
 62
     7
 10
-118.44928
 20
195.87102
 11
-119.19929
 21
195.12102
  0
LINE
  8
0
  6
CONTINUOUS
 62
     7
 10
-118.44929
 20
197.37102
 11
-118.44929
 21
195.87102
  0
LINE
  8
0
  6
CONTINUOUS
 62
     7
 10
-116.94929
 20
197.37102
 11
-116.94929
 21
195.87102
  0
LINE
  8
0
  6
CONTINUOUS
 62
     7
 10
-116.94929
 20
197.37101
 11
-116.19928
 21
198.12102
  0
LINE
  8
0
  6
CONTINUOUS
 62
     7
 10
-116.94929
 20
197.37102
 11
-118.44929
 21
197.37102
  0
LINE
  8
0
  6
CONTINUOUS
 62
     7
 10
-118.44929
 20
197.37103
 11
-119.19929
 21
198.12103
  0
LINE
  8
0
  6
CONTINUOUS
 62
     7
 10
-116.19929
 20
178.12102
 11
-116.19929
 21
175.12102
  0
LINE
  8
0
  6
CONTINUOUS
 62
     7
 10
-119.19929
 20
178.12102
 11
-119.19929
 21
175.12102
  0
LINE
  8
0
  6
CONTINUOUS
 62
     7
 10
-119.19929
 20
182.12102
 11
-119.19929
 21
179.12102
  0
LINE
  8
0
  6
CONTINUOUS
 62
     7
 10
-116.19929
 20
182.12102
 11
-116.19929
 21
179.12102
  0
LINE
  8
0
  6
CONTINUOUS
 62
     7
 10
-119.19929
 20
186.18565
 11
-119.19929
 21
183.12102
  0
LINE
  8
0
  6
CONTINUOUS
 62
     7
 10
-116.19929
 20
186.18565
 11
-116.19929
 21
183.12102
  0
LINE
  8
0
  6
CONTINUOUS
 62
     7
 10
-116.19929
 20
190.12102
 11
-116.19929
 21
187.12102
  0
LINE
  8
0
  6
CONTINUOUS
 62
     7
 10
-119.19929
 20
194.12102
 11
-119.19929
 21
191.12102
  0
LINE
  8
0
  6
CONTINUOUS
 62
     7
 10
-116.19929
 20
194.12102
 11
-116.19929
 21
191.12102
  0
LINE
  8
0
  6
CONTINUOUS
 62
     7
 10
-119.19929
 20
198.12102
 11
-119.19929
 21
195.12102
  0
LINE
  8
0
  6
CONTINUOUS
 62
     7
 10
-116.19929
 20
198.12102
 11
-116.19929
 21
195.12102
  0
LINE
  8
0
  6
CONTINUOUS
 62
     7
 10
-119.19929
 20
202.12102
 11
-119.19929
 21
199.12102
  0
LINE
  8
0
  6
CONTINUOUS
 62
     7
 10
-120.19929
 20
202.12102
 11
-120.19929
 21
199.12102
  0
LINE
  8
0
  6
CONTINUOUS
 62
     7
 10
-120.19929
 20
202.12102
 11
-123.19929
 21
202.12102
  0
LINE
  8
0
  6
CONTINUOUS
 62
     7
 10
-120.19929
 20
175.12102
 11
-123.19929
 21
175.12102
  0
LINE
  8
0
  6
CONTINUOUS
 62
     7
 10
-120.19929
 20
194.12102
 11
-123.19929
 21
194.12102
  0
LINE
  8
0
  6
CONTINUOUS
 62
     7
 10
-120.19929
 20
195.12102
 11
-123.19929
 21
195.12102
  0
LINE
  8
0
  6
CONTINUOUS
 62
     7
 10
-120.19929
 20
198.12102
 11
-123.19929
 21
198.12102
  0
LINE
  8
0
  6
CONTINUOUS
 62
     7
 10
-120.19929
 20
199.12102
 11
-123.19929
 21
199.12102
  0
LINE
  8
0
  6
CONTINUOUS
 62
     7
 10
-120.19929
 20
182.12102
 11
-123.19929
 21
182.12102
  0
LINE
  8
0
  6
CONTINUOUS
 62
     7
 10
-120.19929
 20
183.12102
 11
-123.19929
 21
183.12102
  0
LINE
  8
0
  6
CONTINUOUS
 62
     7
 10
-120.19929
 20
178.12102
 11
-123.19929
 21
178.12102
  0
LINE
  8
0
  6
CONTINUOUS
 62
     7
 10
-120.19929
 20
179.12102
 11
-123.19929
 21
179.12102
  0
LINE
  8
0
  6
CONTINUOUS
 62
     7
 10
-122.44929
 20
201.37102
 11
-122.44929
 21
199.87102
  0
LINE
  8
0
  6
CONTINUOUS
 62
     7
 10
-120.94929
 20
201.37102
 11
-120.94929
 21
199.87102
  0
LINE
  8
0
  6
CONTINUOUS
 62
     7
 10
-120.94929
 20
199.87102
 11
-122.44929
 21
199.87102
  0
LINE
  8
0
  6
CONTINUOUS
 62
     7
 10
-120.94929
 20
201.37102
 11
-122.44929
 21
201.37102
  0
LINE
  8
0
  6
CONTINUOUS
 62
     7
 10
-120.94928
 20
199.87101
 11
-120.19929
 21
199.12103
  0
LINE
  8
0
  6
CONTINUOUS
 62
     7
 10
-120.94928
 20
201.37102
 11
-120.19928
 21
202.12103
  0
LINE
  8
0
  6
CONTINUOUS
 62
     7
 10
-122.44928
 20
199.87102
 11
-123.19928
 21
199.12102
  0
LINE
  8
0
  6
CONTINUOUS
 62
     7
 10
-122.44929
 20
201.37102
 11
-123.19929
 21
202.12103
  0
LINE
  8
0
  6
CONTINUOUS
 62
     7
 10
-120.94929
 20
175.87102
 11
-120.19929
 21
175.12102
  0
LINE
  8
0
  6
CONTINUOUS
 62
     7
 10
-120.94929
 20
175.87102
 11
-122.44929
 21
175.87102
  0
LINE
  8
0
  6
CONTINUOUS
 62
     7
 10
-122.44929
 20
175.87102
 11
-123.19929
 21
175.12102
  0
LINE
  8
0
  6
CONTINUOUS
 62
     7
 10
-122.44929
 20
177.37102
 11
-122.44929
 21
175.87102
  0
LINE
  8
0
  6
CONTINUOUS
 62
     7
 10
-120.94929
 20
177.37102
 11
-120.94929
 21
175.87102
  0
LINE
  8
0
  6
CONTINUOUS
 62
     7
 10
-120.94929
 20
177.37103
 11
-120.19929
 21
178.12103
  0
LINE
  8
0
  6
CONTINUOUS
 62
     7
 10
-120.94929
 20
177.37102
 11
-122.44929
 21
177.37102
  0
LINE
  8
0
  6
CONTINUOUS
 62
     7
 10
-122.44929
 20
177.37102
 11
-123.19928
 21
178.12102
  0
LINE
  8
0
  6
CONTINUOUS
 62
     7
 10
-120.94929
 20
179.87102
 11
-120.19928
 21
179.12101
  0
LINE
  8
0
  6
CONTINUOUS
 62
     7
 10
-120.94929
 20
179.87102
 11
-122.44929
 21
179.87102
  0
LINE
  8
0
  6
CONTINUOUS
 62
     7
 10
-122.44928
 20
179.87102
 11
-123.19928
 21
179.12102
  0
LINE
  8
0
  6
CONTINUOUS
 62
     7
 10
-122.44929
 20
181.37102
 11
-122.44929
 21
179.87102
  0
LINE
  8
0
  6
CONTINUOUS
 62
     7
 10
-120.94929
 20
181.37102
 11
-120.94929
 21
179.87102
  0
LINE
  8
0
  6
CONTINUOUS
 62
     7
 10
-120.94928
 20
181.37102
 11
-120.19929
 21
182.12102
  0
LINE
  8
0
  6
CONTINUOUS
 62
     7
 10
-120.94929
 20
181.37102
 11
-122.44929
 21
181.37102
  0
LINE
  8
0
  6
CONTINUOUS
 62
     7
 10
-122.44929
 20
181.37103
 11
-123.19928
 21
182.12102
  0
LINE
  8
0
  6
CONTINUOUS
 62
     7
 10
-120.94929
 20
183.87102
 11
-120.19929
 21
183.12102
  0
LINE
  8
0
  6
CONTINUOUS
 62
     7
 10
-120.94929
 20
183.87102
 11
-122.44929
 21
183.87102
  0
LINE
  8
0
  6
CONTINUOUS
 62
     7
 10
-122.44929
 20
183.87102
 11
-123.19929
 21
183.12103
  0
LINE
  8
0
  6
CONTINUOUS
 62
     7
 10
-122.44929
 20
184.62885
 11
-122.44929
 21
183.87102
  0
LINE
  8
0
  6
CONTINUOUS
 62
     7
 10
-120.94929
 20
185.02415
 11
-120.94929
 21
183.87102
  0
LINE
  8
0
  6
CONTINUOUS
 62
     7
 10
-122.44929
 20
193.37102
 11
-122.44929
 21
192.6132
  0
LINE
  8
0
  6
CONTINUOUS
 62
     7
 10
-120.94929
 20
193.37102
 11
-120.94929
 21
192.2179
  0
LINE
  8
0
  6
CONTINUOUS
 62
     7
 10
-120.94929
 20
193.37102
 11
-120.19929
 21
194.12102
  0
LINE
  8
0
  6
CONTINUOUS
 62
     7
 10
-120.94929
 20
193.37102
 11
-122.44929
 21
193.37102
  0
LINE
  8
0
  6
CONTINUOUS
 62
     7
 10
-122.44929
 20
193.37102
 11
-123.1993
 21
194.12102
  0
LINE
  8
0
  6
CONTINUOUS
 62
     7
 10
-120.94929
 20
195.87102
 11
-120.19929
 21
195.12102
  0
LINE
  8
0
  6
CONTINUOUS
 62
     7
 10
-120.94929
 20
195.87102
 11
-122.44929
 21
195.87102
  0
LINE
  8
0
  6
CONTINUOUS
 62
     7
 10
-122.44929
 20
195.87102
 11
-123.19929
 21
195.12102
  0
LINE
  8
0
  6
CONTINUOUS
 62
     7
 10
-122.44929
 20
197.37102
 11
-122.44929
 21
195.87102
  0
LINE
  8
0
  6
CONTINUOUS
 62
     7
 10
-120.94929
 20
197.37102
 11
-120.94929
 21
195.87102
  0
LINE
  8
0
  6
CONTINUOUS
 62
     7
 10
-120.94929
 20
197.37103
 11
-120.19929
 21
198.12103
  0
LINE
  8
0
  6
CONTINUOUS
 62
     7
 10
-120.94929
 20
197.37102
 11
-122.44929
 21
197.37102
  0
LINE
  8
0
  6
CONTINUOUS
 62
     7
 10
-122.44929
 20
197.37103
 11
-123.19929
 21
198.12102
  0
LINE
  8
0
  6
CONTINUOUS
 62
     7
 10
-120.19929
 20
178.12102
 11
-120.19929
 21
175.12102
  0
LINE
  8
0
  6
CONTINUOUS
 62
     7
 10
-123.19929
 20
178.12102
 11
-123.19929
 21
175.12102
  0
LINE
  8
0
  6
CONTINUOUS
 62
     7
 10
-123.19929
 20
182.12102
 11
-123.19929
 21
179.12102
  0
LINE
  8
0
  6
CONTINUOUS
 62
     7
 10
-120.19929
 20
182.12102
 11
-120.19929
 21
179.12102
  0
LINE
  8
0
  6
CONTINUOUS
 62
     7
 10
-123.19929
 20
184.65239
 11
-123.19929
 21
183.12102
  0
LINE
  8
0
  6
CONTINUOUS
 62
     7
 10
-120.19929
 20
185.49852
 11
-120.19929
 21
183.12102
  0
LINE
  8
0
  6
CONTINUOUS
 62
     7
 10
-123.19929
 20
194.12102
 11
-123.19929
 21
192.58965
  0
LINE
  8
0
  6
CONTINUOUS
 62
     7
 10
-120.19929
 20
194.12102
 11
-120.19929
 21
191.74352
  0
LINE
  8
0
  6
CONTINUOUS
 62
     7
 10
-123.19929
 20
198.12102
 11
-123.19929
 21
195.12102
  0
LINE
  8
0
  6
CONTINUOUS
 62
     7
 10
-120.19929
 20
198.12102
 11
-120.19929
 21
195.12102
  0
LINE
  8
0
  6
CONTINUOUS
 62
     7
 10
-123.19929
 20
202.12102
 11
-123.19929
 21
199.12102
  0
LINE
  8
0
  6
CONTINUOUS
 62
     7
 10
-124.19929
 20
202.12102
 11
-124.19929
 21
199.12102
  0
LINE
  8
0
  6
CONTINUOUS
 62
     7
 10
-124.19929
 20
202.12102
 11
-127.19929
 21
202.12102
  0
LINE
  8
0
  6
CONTINUOUS
 62
     7
 10
-124.19929
 20
175.12102
 11
-127.19929
 21
175.12102
  0
LINE
  8
0
  6
CONTINUOUS
 62
     7
 10
-124.19929
 20
194.12102
 11
-127.19929
 21
194.12102
  0
LINE
  8
0
  6
CONTINUOUS
 62
     7
 10
-124.19929
 20
195.12102
 11
-127.19929
 21
195.12102
  0
LINE
  8
0
  6
CONTINUOUS
 62
     7
 10
-124.19929
 20
198.12102
 11
-127.19929
 21
198.12102
  0
LINE
  8
0
  6
CONTINUOUS
 62
     7
 10
-124.19929
 20
199.12102
 11
-127.19929
 21
199.12102
  0
LINE
  8
0
  6
CONTINUOUS
 62
     7
 10
-126.40739
 20
190.12102
 11
-127.19929
 21
190.12102
  0
LINE
  8
0
  6
CONTINUOUS
 62
     7
 10
-125.82178
 20
191.12102
 11
-127.19929
 21
191.12102
  0
LINE
  8
0
  6
CONTINUOUS
 62
     7
 10
-125.82178
 20
186.12102
 11
-127.19929
 21
186.12102
  0
LINE
  8
0
  6
CONTINUOUS
 62
     7
 10
-126.40739
 20
187.12102
 11
-127.19929
 21
187.12102
  0
LINE
  8
0
  6
CONTINUOUS
 62
     7
 10
-124.19929
 20
182.12102
 11
-127.19929
 21
182.12102
  0
LINE
  8
0
  6
CONTINUOUS
 62
     7
 10
-124.19929
 20
183.12102
 11
-127.19929
 21
183.12102
  0
LINE
  8
0
  6
CONTINUOUS
 62
     7
 10
-124.19929
 20
178.12102
 11
-127.19929
 21
178.12102
  0
LINE
  8
0
  6
CONTINUOUS
 62
     7
 10
-124.19929
 20
179.12102
 11
-127.19929
 21
179.12102
  0
LINE
  8
0
  6
CONTINUOUS
 62
     7
 10
-126.44929
 20
201.37102
 11
-126.44929
 21
199.87102
  0
LINE
  8
0
  6
CONTINUOUS
 62
     7
 10
-124.94929
 20
201.37102
 11
-124.94929
 21
199.87102
  0
LINE
  8
0
  6
CONTINUOUS
 62
     7
 10
-124.94929
 20
199.87102
 11
-126.44929
 21
199.87102
  0
LINE
  8
0
  6
CONTINUOUS
 62
     7
 10
-124.94929
 20
201.37102
 11
-126.44929
 21
201.37102
  0
LINE
  8
0
  6
CONTINUOUS
 62
     7
 10
-124.94929
 20
199.87102
 11
-124.19929
 21
199.12102
  0
LINE
  8
0
  6
CONTINUOUS
 62
     7
 10
-124.94928
 20
201.37102
 11
-124.19928
 21
202.12102
  0
LINE
  8
0
  6
CONTINUOUS
 62
     7
 10
-126.44929
 20
199.87102
 11
-127.19929
 21
199.12102
  0
LINE
  8
0
  6
CONTINUOUS
 62
     7
 10
-126.44929
 20
201.37102
 11
-127.19929
 21
202.12103
  0
LINE
  8
0
  6
CONTINUOUS
 62
     7
 10
-124.94929
 20
175.87102
 11
-124.19928
 21
175.12102
  0
LINE
  8
0
  6
CONTINUOUS
 62
     7
 10
-124.94929
 20
175.87102
 11
-126.44929
 21
175.87102
  0
LINE
  8
0
  6
CONTINUOUS
 62
     7
 10
-126.44928
 20
175.87102
 11
-127.19928
 21
175.12102
  0
LINE
  8
0
  6
CONTINUOUS
 62
     7
 10
-126.44929
 20
177.37102
 11
-126.44929
 21
175.87102
  0
LINE
  8
0
  6
CONTINUOUS
 62
     7
 10
-124.94929
 20
177.37102
 11
-124.94929
 21
175.87102
  0
LINE
  8
0
  6
CONTINUOUS
 62
     7
 10
-124.94929
 20
177.37102
 11
-124.19929
 21
178.12102
  0
LINE
  8
0
  6
CONTINUOUS
 62
     7
 10
-124.94929
 20
177.37102
 11
-126.44929
 21
177.37102
  0
LINE
  8
0
  6
CONTINUOUS
 62
     7
 10
-126.4493
 20
177.37102
 11
-127.19929
 21
178.12102
  0
LINE
  8
0
  6
CONTINUOUS
 62
     7
 10
-124.94929
 20
179.87102
 11
-124.19929
 21
179.12102
  0
LINE
  8
0
  6
CONTINUOUS
 62
     7
 10
-124.94929
 20
179.87102
 11
-126.44929
 21
179.87102
  0
LINE
  8
0
  6
CONTINUOUS
 62
     7
 10
-126.44928
 20
179.87102
 11
-127.19928
 21
179.12102
  0
LINE
  8
0
  6
CONTINUOUS
 62
     7
 10
-126.44929
 20
181.37102
 11
-126.44929
 21
179.87102
  0
LINE
  8
0
  6
CONTINUOUS
 62
     7
 10
-124.94929
 20
181.37102
 11
-124.94929
 21
179.87102
  0
LINE
  8
0
  6
CONTINUOUS
 62
     7
 10
-124.94929
 20
181.37104
 11
-124.19929
 21
182.12103
  0
LINE
  8
0
  6
CONTINUOUS
 62
     7
 10
-124.94929
 20
181.37102
 11
-126.44929
 21
181.37102
  0
LINE
  8
0
  6
CONTINUOUS
 62
     7
 10
-126.4493
 20
181.37103
 11
-127.19929
 21
182.12103
  0
LINE
  8
0
  6
CONTINUOUS
 62
     7
 10
-124.94929
 20
183.87103
 11
-124.19928
 21
183.12102
  0
LINE
  8
0
  6
CONTINUOUS
 62
     7
 10
-124.94929
 20
183.87102
 11
-126.44929
 21
183.87102
  0
LINE
  8
0
  6
CONTINUOUS
 62
     7
 10
-126.44928
 20
183.87102
 11
-127.19928
 21
183.12102
  0
LINE
  8
0
  6
CONTINUOUS
 62
     7
 10
-126.44929
 20
185.37102
 11
-126.44929
 21
183.87102
  0
LINE
  8
0
  6
CONTINUOUS
 62
     7
 10
-124.94929
 20
185.37102
 11
-124.94929
 21
183.87102
  0
LINE
  8
0
  6
CONTINUOUS
 62
     7
 10
-124.94929
 20
185.37102
 11
-126.44929
 21
185.37102
  0
LINE
  8
0
  6
CONTINUOUS
 62
     7
 10
-126.44929
 20
185.37102
 11
-127.19929
 21
186.12102
  0
LINE
  8
0
  6
CONTINUOUS
 62
     7
 10
-126.5972
 20
187.72311
 11
-127.19928
 21
187.12103
  0
LINE
  8
0
  6
CONTINUOUS
 62
     7
 10
-126.5972
 20
189.51894
 11
-127.19928
 21
190.12102
  0
LINE
  8
0
  6
CONTINUOUS
 62
     7
 10
-124.94929
 20
191.87102
 11
-126.44929
 21
191.87102
  0
LINE
  8
0
  6
CONTINUOUS
 62
     7
 10
-126.44929
 20
191.87102
 11
-127.19929
 21
191.12101
  0
LINE
  8
0
  6
CONTINUOUS
 62
     7
 10
-126.44929
 20
193.37102
 11
-126.44929
 21
191.87102
  0
LINE
  8
0
  6
CONTINUOUS
 62
     7
 10
-124.94929
 20
193.37102
 11
-124.94929
 21
191.87102
  0
LINE
  8
0
  6
CONTINUOUS
 62
     7
 10
-124.94929
 20
193.37103
 11
-124.19929
 21
194.12103
  0
LINE
  8
0
  6
CONTINUOUS
 62
     7
 10
-124.94929
 20
193.37102
 11
-126.44929
 21
193.37102
  0
LINE
  8
0
  6
CONTINUOUS
 62
     7
 10
-126.44929
 20
193.37102
 11
-127.19929
 21
194.12102
  0
LINE
  8
0
  6
CONTINUOUS
 62
     7
 10
-124.94929
 20
195.87102
 11
-124.1993
 21
195.12102
  0
LINE
  8
0
  6
CONTINUOUS
 62
     7
 10
-124.94929
 20
195.87102
 11
-126.44929
 21
195.87102
  0
LINE
  8
0
  6
CONTINUOUS
 62
     7
 10
-126.44928
 20
195.87102
 11
-127.19928
 21
195.12102
  0
LINE
  8
0
  6
CONTINUOUS
 62
     7
 10
-126.44929
 20
197.37102
 11
-126.44929
 21
195.87102
  0
LINE
  8
0
  6
CONTINUOUS
 62
     7
 10
-124.94929
 20
197.37102
 11
-124.94929
 21
195.87102
  0
LINE
  8
0
  6
CONTINUOUS
 62
     7
 10
-124.94929
 20
197.37102
 11
-124.19929
 21
198.12102
  0
LINE
  8
0
  6
CONTINUOUS
 62
     7
 10
-124.94929
 20
197.37102
 11
-126.44929
 21
197.37102
  0
LINE
  8
0
  6
CONTINUOUS
 62
     7
 10
-126.44929
 20
197.37102
 11
-127.19929
 21
198.12101
  0
LINE
  8
0
  6
CONTINUOUS
 62
     7
 10
-124.19929
 20
178.12102
 11
-124.19929
 21
175.12102
  0
LINE
  8
0
  6
CONTINUOUS
 62
     7
 10
-127.19929
 20
178.12102
 11
-127.19929
 21
175.12102
  0
LINE
  8
0
  6
CONTINUOUS
 62
     7
 10
-127.19929
 20
182.12102
 11
-127.19929
 21
179.12102
  0
LINE
  8
0
  6
CONTINUOUS
 62
     7
 10
-124.19929
 20
182.12102
 11
-124.19929
 21
179.12102
  0
LINE
  8
0
  6
CONTINUOUS
 62
     7
 10
-127.19929
 20
186.18565
 11
-127.19929
 21
183.12102
  0
LINE
  8
0
  6
CONTINUOUS
 62
     7
 10
-124.19929
 20
184.91292
 11
-124.19929
 21
183.12102
  0
LINE
  8
0
  6
CONTINUOUS
 62
     7
 10
-127.19929
 20
190.12102
 11
-127.19929
 21
187.12102
  0
LINE
  8
0
  6
CONTINUOUS
 62
     7
 10
-127.19929
 20
194.12102
 11
-127.19929
 21
191.12102
  0
LINE
  8
0
  6
CONTINUOUS
 62
     7
 10
-124.19929
 20
194.12102
 11
-124.19929
 21
192.32912
  0
LINE
  8
0
  6
CONTINUOUS
 62
     7
 10
-127.19929
 20
198.12102
 11
-127.19929
 21
195.12102
  0
LINE
  8
0
  6
CONTINUOUS
 62
     7
 10
-124.19929
 20
198.12102
 11
-124.19929
 21
195.12102
  0
LINE
  8
0
  6
CONTINUOUS
 62
     7
 10
-109.19929
 20
189.48705
 11
-109.19929
 21
187.75499
  0
LINE
  8
0
  6
CONTINUOUS
 62
     7
 10
-106.19929
 20
189.48705
 11
-106.19929
 21
187.75499
  0
LINE
  8
0
  6
CONTINUOUS
 62
     7
 10
-109.19929
 20
187.75501
 11
-107.69929
 21
186.88898
  0
LINE
  8
0
  6
CONTINUOUS
 62
     7
 10
-107.69928
 20
190.35307
 11
-106.19929
 21
189.48705
  0
LINE
  8
0
  6
CONTINUOUS
 62
     7
 10
-107.69929
 20
186.88897
 11
-106.19929
 21
187.75499
  0
LINE
  8
0
  6
CONTINUOUS
 62
     7
 10
-109.19929
 20
189.48705
 11
-107.69929
 21
190.35308
  0
LINE
  8
0
  6
CONTINUOUS
 62
     7
 10
-83.313707
 20
142.29407
 11
-82.699284
 21
141.67965
  0
LINE
  8
0
  6
CONTINUOUS
 62
     7
 10
-85.55877
 20
142.29407
 11
-82.699283
 21
139.43458
  0
LINE
  8
0
  6
CONTINUOUS
 62
     7
 10
-87.803828
 20
142.29407
 11
-83.003834
 21
137.49407
  0
LINE
  8
0
  6
CONTINUOUS
 62
     7
 10
-90.048889
 20
142.29407
 11
-85.248895
 21
137.49407
  0
LINE
  8
0
  6
CONTINUOUS
 62
     7
 10
-92.293954
 20
142.29407
 11
-87.49396
 21
137.49407
  0
LINE
  8
0
  6
CONTINUOUS
 62
     7
 10
-94.539018
 20
142.29408
 11
-89.739025
 21
137.49407
  0
LINE
  8
0
  6
CONTINUOUS
 62
     7
 10
-96.784077
 20
142.29408
 11
-91.984083
 21
137.49407
  0
LINE
  8
0
  6
CONTINUOUS
 62
     7
 10
-99.029137
 20
142.29407
 11
-94.229144
 21
137.49407
  0
LINE
  8
0
  6
CONTINUOUS
 62
     7
 10
-101.2742
 20
142.29407
 11
-96.474203
 21
137.49407
  0
LINE
  8
0
  6
CONTINUOUS
 62
     7
 10
-103.51926
 20
142.29408
 11
-98.71927
 21
137.49407
  0
LINE
  8
0
  6
CONTINUOUS
 62
     7
 10
-103.69929
 20
140.22904
 11
-100.96432
 21
137.49407
  0
LINE
  8
0
  6
CONTINUOUS
 62
     7
 10
-103.69929
 20
137.98397
 11
-103.20939
 21
137.49407
  0
LINE
  8
0
  6
CONTINUOUS
 62
     7
 10
-42.507494
 20
173.62102
 11
-44.747177
 21
175.8607
  0
LINE
  8
0
  6
CONTINUOUS
 62
     7
 10
-40.262442
 20
173.62102
 11
-44.747188
 21
178.10577
  0
LINE
  8
0
  6
CONTINUOUS
 62
     7
 10
-39.947179
 20
175.55082
 11
-44.747184
 21
180.35084
  0
LINE
  8
0
  6
CONTINUOUS
 62
     7
 10
-39.947187
 20
177.79589
 11
-44.747182
 21
182.59589
  0
LINE
  8
0
  6
CONTINUOUS
 62
     7
 10
-39.947191
 20
180.04096
 11
-44.747185
 21
184.84097
  0
LINE
  8
0
  6
CONTINUOUS
 62
     7
 10
-39.947185
 20
182.28602
 11
-44.747185
 21
187.08604
  0
LINE
  8
0
  6
CONTINUOUS
 62
     7
 10
-39.947186
 20
184.53109
 11
-44.747181
 21
189.3311
  0
LINE
  8
0
  6
CONTINUOUS
 62
     7
 10
-39.947179
 20
186.77616
 11
-44.747184
 21
191.57617
  0
LINE
  8
0
  6
CONTINUOUS
 62
     7
 10
-39.947188
 20
189.02122
 11
-44.747182
 21
193.82122
  0
LINE
  8
0
  6
CONTINUOUS
 62
     7
 10
-39.947191
 20
191.26629
 11
-44.747185
 21
196.0663
  0
LINE
  8
0
  6
CONTINUOUS
 62
     7
 10
-39.947178
 20
193.51136
 11
-44.747183
 21
198.31137
  0
LINE
  8
0
  6
CONTINUOUS
 62
     7
 10
-39.947187
 20
195.75643
 11
-44.747181
 21
200.55643
  0
LINE
  8
0
  6
CONTINUOUS
 62
     7
 10
-39.947179
 20
198.00149
 11
-44.747184
 21
202.8015
  0
LINE
  8
0
  6
CONTINUOUS
 62
     7
 10
-39.947181
 20
200.24655
 11
-43.321641
 21
203.62102
  0
LINE
  8
0
  6
CONTINUOUS
 62
     7
 10
-39.947176
 20
202.49162
 11
-41.076574
 21
203.62102
  0
LINE
  8
0
  6
CONTINUOUS
 62
     7
 10
-128.21493
 20
142.29407
 11
-126.69929
 21
140.77842
  0
LINE
  8
0
  6
CONTINUOUS
 62
     7
 10
-130.46
 20
142.29407
 11
-126.69929
 21
138.53334
  0
LINE
  8
0
  6
CONTINUOUS
 62
     7
 10
-132.69928
 20
142.28828
 11
-127.90508
 21
137.49407
  0
LINE
  8
0
  6
CONTINUOUS
 62
     7
 10
-132.69928
 20
140.04323
 11
-130.15013
 21
137.49408
  0
LINE
  8
0
  6
CONTINUOUS
 62
     7
 10
-132.69928
 20
137.79815
 11
-132.3952
 21
137.49407
  0
LINE
  8
0
  6
CONTINUOUS
 62
     7
 10
-112.49951
 20
142.29407
 11
-111.69929
 21
141.49385
  0
LINE
  8
0
  6
CONTINUOUS
 62
     7
 10
-114.74457
 20
142.29407
 11
-111.69929
 21
139.24878
  0
LINE
  8
0
  6
CONTINUOUS
 62
     7
 10
-116.98963
 20
142.29408
 11
-112.18964
 21
137.49407
  0
LINE
  8
0
  6
CONTINUOUS
 62
     7
 10
-118.6993
 20
141.75867
 11
-114.4347
 21
137.49407
  0
LINE
  8
0
  6
CONTINUOUS
 62
     7
 10
-118.69929
 20
139.5136
 11
-116.67976
 21
137.49407
  0
LINE
  8
0
  6
CONTINUOUS
 62
     7
 10
-107.69929
 20
115.58495
 11
-107.69929
 21
116.979
  0
LINE
  8
0
  6
CONTINUOUS
 62
     7
 10
-177
 20
-0.19999981
 11
0
 21
-0.19999981
  0
LINE
  8
0
  6
CONTINUOUS
 62
     7
 10
-177
 20
274.29999
 11
-177
 21
-0.19999981
  0
LINE
  8
0
  6
CONTINUOUS
 62
     7
 10
-177
 20
-0.39999962
 11
-1.6000032
 21
-0.39999962
  0
LINE
  8
0
  6
CONTINUOUS
 62
     7
 10
-177.2
 20
274.29999
 11
-177.2
 21
-0.19999981
  0
LINE
  8
0
  6
CONTINUOUS
 62
     7
 10
0
 20
274.29999
 11
0
 21
0
  0
LINE
  8
0
  6
CONTINUOUS
 62
     7
 10
-0.20000005
 20
274.29999
 11
-0.20000005
 21
0
  0
LINE
  8
0
  6
CONTINUOUS
 62
     7
 10
-177
 20
274.29999
 11
0
 21
274.29999
  0
LINE
  8
0
  6
CONTINUOUS
 62
     7
 10
-177
 20
274.5
 11
0
 21
274.5
  0
LINE
  8
0
  6
CONTINUOUS
 62
     7
 10
-177.2
 20
274.29999
 11
-177.2
 21
-0.19999981
  0
LINE
  8
0
  6
CENTER
 62
     7
 10
-118.05929
 20
188.62102
 11
-127.33929
 21
188.62102
  0
LINE
  8
0
  6
CENTER
 62
     7
 10
-122.69929
 20
193.26102
 11
-122.69929
 21
183.98102
  0
LINE
  8
0
  6
CENTER
 62
     7
 10
-101.65929
 20
188.62102
 11
-113.73929
 21
188.62102
  0
LINE
  8
0
  6
CENTER
 62
     7
 10
-107.69929
 20
194.66103
 11
-107.69929
 21
182.58102
  0
LINE
  8
0
  6
CONTINUOUS
 62
     7
 10
-61.799999
 20
38.299999
 11
-61.799999
 21
0
  0
LINE
  8
0
  6
CONTINUOUS
 62
     7
 10
-61.799999
 20
12.3
 11
0
 21
12.3
  0
LINE
  8
0
  6
CONTINUOUS
 62
     7
 10
-61.799999
 20
24.799999
 11
0
 21
24.799999
  0
LINE
  8
0
  6
CONTINUOUS
 62
     7
 10
-61.799999
 20
38.299999
 11
0
 21
38.299999
  0
ARC
  8
0
  6
CONTINUOUS
 62
     7
 10
-110.64928
 20
93.621017
 40
3.05
 50
90.000003
 51
270
  0
ARC
  8
0
  6
CONTINUOUS
 62
     7
 10
-104.74929
 20
93.621017
 40
3.05
 50
270
 51
90.000003
  0
CIRCLE
  8
0
  6
CONTINUOUS
 62
     7
 10
-107.69929
 20
93.621017
 40
2.0999999
  0
CIRCLE
  8
0
  6
DASHED
 62
     7
 10
-107.69929
 20
93.621017
 40
4
  0
ARC
  8
0
  6
CONTINUOUS
 62
     7
 10
-130.69928
 20
80.621017
 40
2
 50
179.99999
 51
270
  0
ARC
  8
0
  6
CONTINUOUS
 62
     7
 10
-130.69928
 20
106.62102
 40
2
 50
90.000003
 51
180.00001
  0
ARC
  8
0
  6
CONTINUOUS
 62
     7
 10
-84.699287
 20
106.62102
 40
2
 50
0
 51
90.000003
  0
ARC
  8
0
  6
CONTINUOUS
 62
     7
 10
-84.699287
 20
80.621017
 40
2
 50
270
 51
360
  0
CIRCLE
  8
0
  6
CONTINUOUS
 62
     7
 10
-122.69929
 20
93.621017
 40
2.0999999
  0
CIRCLE
  8
0
  6
DASHED
 62
     7
 10
-122.69929
 20
93.621017
 40
4
  0
ARC
  8
0
  6
CONTINUOUS
 62
     7
 10
-122.69929
 20
96.621017
 40
3
 50
0
 51
180.00001
  0
ARC
  8
0
  6
CONTINUOUS
 62
     7
 10
-122.69929
 20
90.621017
 40
3
 50
179.99999
 51
360
  0
CIRCLE
  8
0
  6
CONTINUOUS
 62
     7
 10
-107.69929
 20
188.62102
 40
4
  0
ARC
  8
0
  6
CONTINUOUS
 62
     7
 10
-130.69928
 20
175.62102
 40
2
 50
179.99999
 51
270
  0
ARC
  8
0
  6
CONTINUOUS
 62
     7
 10
-130.69928
 20
201.62102
 40
2
 50
90.000003
 51
180.00001
  0
ARC
  8
0
  6
CONTINUOUS
 62
     7
 10
-84.699287
 20
201.62102
 40
2
 50
0
 51
90.000003
  0
ARC
  8
0
  6
CONTINUOUS
 62
     7
 10
-84.699287
 20
175.62102
 40
2
 50
270
 51
360
  0
CIRCLE
  8
0
  6
CONTINUOUS
 62
     7
 10
-122.69929
 20
188.62102
 40
2.0999999
  0
CIRCLE
  8
0
  6
CONTINUOUS
 62
     7
 10
-122.69929
 20
188.62102
 40
4
  0
ARC
  8
0
  6
CONTINUOUS
 62
     7
 10
-85.199287
 20
201.12102
 40
1
 50
0
 51
90.000003
  0
ARC
  8
0
  6
CONTINUOUS
 62
     7
 10
-85.199287
 20
176.12102
 40
1
 50
270
 51
360
  0
ARC
  8
0
  6
CONTINUOUS
 62
     7
 10
-130.1993
 20
176.12102
 40
1
 50
179.99999
 51
270
  0
ARC
  8
0
  6
CONTINUOUS
 62
     7
 10
-130.1993
 20
201.12102
 40
1
 50
90.000003
 51
180.00001
  0
CIRCLE
  8
0
  6
CONTINUOUS
 62
     7
 10
-107.69929
 20
188.62102
 40
3.5
  0
CIRCLE
  8
0
  6
CONTINUOUS
 62
     7
 10
-107.69929
 20
188.62102
 40
2.9803851
  0
TEXT
  8
0
  6
CONTINUOUS
 62
     7
 10
-54.538746
 20
32.505456
 40
4.8000002
 41
0.84448342
  1
ミニシリンダー用当板
  0
TEXT
  8
0
  6
CONTINUOUS
 62
     7
 10
-50.767128
 20
25.939643
 40
4.8000002
 41
0.84556534
  1
角型（黒２ヶ穴）
  0
TEXT
  8
0
  6
CONTINUOUS
 62
     7
 10
-45.176066
 20
15.655839
 40
4.8000002
 41
0.84741096
  1
ＣＰ－０６０
  0
TEXT
  8
0
  6
CONTINUOUS
 62
     7
 10
-45.334277
 20
3.4734855
 40
4.8000002
 41
0.84741096
  1
３７０８３５
  0
ENDSEC
  0
EOF
